  0
SECTION
  2
HEADER
  9
$ACADVER
  1
AC1009
  9
$INSBASE
 10
0.0
 20
0.0
 30
0.0
  9
$EXTMIN
 10
0.0
 20
0.0
 30
0.0
  9
$EXTMAX
 10
0.0
 20
0.0
 30
0.0
  0
ENDSEC
  0
SECTION
  2
TABLES
  0
TABLE
  2
VPORT
 70
1
  0
VPORT
  2
*ACTIVE
 70
0
 10
0.0
 20
0.0
 11
1.0
 21
1.0
 12
-5.0
 22
1.0
 13
0.0
 23
0.0
 14
0.1
 24
0.1
 15
0.1
 25
0.1
 16
0.0
 26
0.0
 36
1.0
 17
0.0
 27
0.0
 37
0.0
 40
10.0
 41
1.0
 42
50.0
 43
0.0
 44
0.0
 50
0.0
 51
0.0
 71
0
 72
100
 73
1
 74
1
 75
0
 76
0
 77
0
 78
0
  0
ENDTAB
  0
TABLE
  2
LTYPE
 70
8
  0
LTYPE
  2
CONTINUOUS
 70
0
  3
Solid line
 72
65
 73
0
 40
0.0
  0
LTYPE
  2
DOT
 70
0
  3
. . . . . . .
 72
65
 73
2
 40
0.25
 49
0.0
 49
-0.25
  0
LTYPE
  2
DASHED
 70
0
  3
__ __ __ __ __
 72
65
 73
2
 40
0.8
 49
0.5
 49
-0.3
  0
LTYPE
  2
DASHDOT
 70
0
  3
__ . __ . __ .
 72
65
 73
4
 40
1.0
 49
0.5
 49
-0.25
 49
0.0
 49
-0.25
  0
LTYPE
  2
DIVIDE
 70
0
  3
____ . . ____ . . 
 72
65
 73
6
 40
1.25
 49
0.5
 49
-0.25
 49
0.0
 49
-0.25
 49
0.0
 49
-0.25
  0
LTYPE
  2
BORDER
 70
0
  3
__ __ . __ __ . 
 72
65
 73
6
 40
1.75
 49
0.5
 49
-0.25
 49
0.5
 49
-0.25
 49
0.0
 49
-0.25
  0
LTYPE
  2
HIDDEN
 70
0
  3
__ __ __ __ __
 72
65
 73
2
 40
0.4
 49
0.25
 49
-0.25
  0
LTYPE
  2
CENTER
 70
0
  3
____ _ ____ _ __
 72
65
 73
4
 40
2.0
 49
1.25
 49
-0.25
 49
0.25
 49
-0.25
  0
ENDTAB
  0
TABLE
  2
LAYER
 70
2
  0
LAYER
  2
PYDXF
 70
64
 62
7
  6
continuous
  0
LAYER
  2
makerslide
 70
64
 62
7
  6
continuous
  0
ENDTAB
  0
TABLE
  2
STYLE
 70
1
  0
STYLE
  2
STANDARD
 70
0
 40
0
 41
1.0
 50
0.0
 71
0
 42
1
 3
ARIAL.TTF
 4

  0
ENDTAB
  0
TABLE
  2
VIEW
 70
1
  0
VIEW
  2
BF_TOPVIEW
 70
0
 40
120.0
 10
0.0
 20
0.0
 41
200.0
 11
0.0
 21
0.0
 31
1.0
 12
0.0
 22
0.0
 32
0.0
 42
50.0
 43
0.0
 44
0.0
 50
0.0
 71
0
  0
ENDTAB
  0
ENDSEC
  0
SECTION
  2
BLOCKS
  0
ENDSEC
  0
SECTION
  2
ENTITIES
  0
LINE
  8
makerslide
 10
12.1000061035
 20
9.99999332428
 30
-1.55112687139e-007
 11
12.0389871597
 21
10.5025548935
 31
-1.55112687139e-007
  0
LINE
  8
makerslide
 10
12.0389871597
 20
10.5025548935
 30
-1.55112687139e-007
 11
11.859462738
 21
10.9759149551
 31
-1.55112687139e-007
  0
LINE
  8
makerslide
 10
11.859462738
 20
10.9759149551
 30
-1.55112687139e-007
 11
11.5718774796
 21
11.3925504684
 31
-1.55112687139e-007
  0
LINE
  8
makerslide
 10
11.5718774796
 20
11.3925504684
 30
-1.55112687139e-007
 11
11.1929454803
 21
11.728260994
 31
-1.55112687139e-007
  0
LINE
  8
makerslide
 10
11.1929454803
 20
11.728260994
 30
-1.55112687139e-007
 11
10.7446746826
 21
11.9635305405
 31
-1.55112687139e-007
  0
LINE
  8
makerslide
 10
10.7446746826
 20
11.9635305405
 30
-1.55112687139e-007
 11
10.2531347275
 21
12.0846834183
 31
-1.55112687139e-007
  0
LINE
  8
makerslide
 10
10.2531347275
 20
12.0846834183
 30
-1.55112687139e-007
 11
9.74687957764
 21
12.0846834183
 31
-1.55112687139e-007
  0
LINE
  8
makerslide
 10
9.74687957764
 20
12.0846834183
 30
-1.55112687139e-007
 11
9.25533390045
 21
11.9635305405
 31
-1.55112687139e-007
  0
LINE
  8
makerslide
 10
9.25533390045
 20
11.9635305405
 30
-1.55112687139e-007
 11
8.80706882477
 21
11.728260994
 31
-1.55112687139e-007
  0
LINE
  8
makerslide
 10
8.80706882477
 20
11.728260994
 30
-1.55112687139e-007
 11
8.42813110352
 21
11.3925504684
 31
-1.55112687139e-007
  0
LINE
  8
makerslide
 10
8.42813110352
 20
11.3925504684
 30
-1.55112687139e-007
 11
8.14054584503
 21
10.9759149551
 31
-1.55112687139e-007
  0
LINE
  8
makerslide
 10
8.14054584503
 20
10.9759149551
 30
-1.55112687139e-007
 11
7.96102666855
 21
10.5025548935
 31
-1.55112687139e-007
  0
LINE
  8
makerslide
 10
7.96102666855
 20
10.5025548935
 30
-1.55112687139e-007
 11
7.9000082016
 21
9.99999332428
 31
-1.55112687139e-007
  0
LINE
  8
makerslide
 10
7.9000082016
 20
9.99999332428
 30
-1.55112687139e-007
 11
7.96102666855
 21
9.49743175507
 31
-1.55112687139e-007
  0
LINE
  8
makerslide
 10
7.96102666855
 20
9.49743175507
 30
-1.55112687139e-007
 11
8.14054584503
 21
9.02407169342
 31
-1.55112687139e-007
  0
LINE
  8
makerslide
 10
8.14054584503
 20
9.02407169342
 30
-1.55112687139e-007
 11
8.42813110352
 21
8.60743713379
 31
-1.55112687139e-007
  0
LINE
  8
makerslide
 10
8.42813110352
 20
8.60743713379
 30
-1.55112687139e-007
 11
8.80706882477
 21
8.2717256546
 31
-1.55112687139e-007
  0
LINE
  8
makerslide
 10
8.80706882477
 20
8.2717256546
 30
-1.55112687139e-007
 11
9.25533390045
 21
8.03645706177
 31
-1.55112687139e-007
  0
LINE
  8
makerslide
 10
9.25533390045
 20
8.03645706177
 30
-1.55112687139e-007
 11
9.74687957764
 21
7.91530370712
 31
-1.55112687139e-007
  0
LINE
  8
makerslide
 10
9.74687957764
 20
7.91530370712
 30
-1.55112687139e-007
 11
10.2531347275
 21
7.91530370712
 31
-1.55112687139e-007
  0
LINE
  8
makerslide
 10
10.2531347275
 20
7.91530370712
 30
-1.55112687139e-007
 11
10.7446804047
 21
8.03645706177
 31
-1.55112687139e-007
  0
LINE
  8
makerslide
 10
10.7446804047
 20
8.03645706177
 30
-1.55112687139e-007
 11
11.1929454803
 21
8.2717256546
 31
-1.55112687139e-007
  0
LINE
  8
makerslide
 10
11.1929454803
 20
8.2717256546
 30
-1.55112687139e-007
 11
11.5718832016
 21
8.60743713379
 31
-1.55112687139e-007
  0
LINE
  8
makerslide
 10
11.5718832016
 20
8.60743713379
 30
-1.55112687139e-007
 11
11.8594684601
 21
9.02407169342
 31
-1.55112687139e-007
  0
LINE
  8
makerslide
 10
11.8594684601
 20
9.02407169342
 30
-1.55112687139e-007
 11
12.0389871597
 21
9.49743175507
 31
-1.55112687139e-007
  0
LINE
  8
makerslide
 10
12.1000061035
 20
9.99999332428
 30
-1.55112687139e-007
 11
12.0389871597
 21
9.49743175507
 31
-1.55112687139e-007
  0
LINE
  8
makerslide
 10
12.1000061035
 20
-10.000002861
 30
-1.55112687139e-007
 11
12.0389871597
 21
-9.49744129181
 31
-1.55112687139e-007
  0
LINE
  8
makerslide
 10
12.0389871597
 20
-9.49744129181
 30
-1.55112687139e-007
 11
11.859462738
 21
-9.02408123016
 31
-1.55112687139e-007
  0
LINE
  8
makerslide
 10
11.859462738
 20
-9.02408123016
 30
-1.55112687139e-007
 11
11.5718774796
 21
-8.60744571686
 31
-1.55112687139e-007
  0
LINE
  8
makerslide
 10
11.5718774796
 20
-8.60744571686
 30
-1.55112687139e-007
 11
11.1929454803
 21
-8.27173519135
 31
-1.55112687139e-007
  0
LINE
  8
makerslide
 10
11.1929454803
 20
-8.27173519135
 30
-1.55112687139e-007
 11
10.7446746826
 21
-8.03646564484
 31
-1.55112687139e-007
  0
LINE
  8
makerslide
 10
10.7446746826
 20
-8.03646564484
 30
-1.55112687139e-007
 11
10.2531347275
 21
-7.91531276703
 31
-1.55112687139e-007
  0
LINE
  8
makerslide
 10
10.2531347275
 20
-7.91531276703
 30
-1.55112687139e-007
 11
9.74687957764
 21
-7.91531276703
 31
-1.55112687139e-007
  0
LINE
  8
makerslide
 10
9.74687957764
 20
-7.91531276703
 30
-1.55112687139e-007
 11
9.25533390045
 21
-8.03646564484
 31
-1.55112687139e-007
  0
LINE
  8
makerslide
 10
9.25533390045
 20
-8.03646564484
 30
-1.55112687139e-007
 11
8.80706882477
 21
-8.27173519135
 31
-1.55112687139e-007
  0
LINE
  8
makerslide
 10
8.80706882477
 20
-8.27173519135
 30
-1.55112687139e-007
 11
8.42813110352
 21
-8.60744571686
 31
-1.55112687139e-007
  0
LINE
  8
makerslide
 10
8.42813110352
 20
-8.60744571686
 30
-1.55112687139e-007
 11
8.14054584503
 21
-9.02408123016
 31
-1.55112687139e-007
  0
LINE
  8
makerslide
 10
8.14054584503
 20
-9.02408123016
 30
-1.55112687139e-007
 11
7.96102666855
 21
-9.49744129181
 31
-1.55112687139e-007
  0
LINE
  8
makerslide
 10
7.96102666855
 20
-9.49744129181
 30
-1.55112687139e-007
 11
7.9000082016
 21
-10.000002861
 31
-1.55112687139e-007
  0
LINE
  8
makerslide
 10
7.9000082016
 20
-10.000002861
 30
-1.55112687139e-007
 11
7.96102666855
 21
-10.5025644302
 31
-1.55112687139e-007
  0
LINE
  8
makerslide
 10
7.96102666855
 20
-10.5025644302
 30
-1.55112687139e-007
 11
8.14054584503
 21
-10.9759244919
 31
-1.55112687139e-007
  0
LINE
  8
makerslide
 10
8.14054584503
 20
-10.9759244919
 30
-1.55112687139e-007
 11
8.42813110352
 21
-11.3925590515
 31
-1.55112687139e-007
  0
LINE
  8
makerslide
 10
8.42813110352
 20
-11.3925590515
 30
-1.55112687139e-007
 11
8.80706882477
 21
-11.7282705307
 31
-1.55112687139e-007
  0
LINE
  8
makerslide
 10
8.80706882477
 20
-11.7282705307
 30
-1.55112687139e-007
 11
9.25533390045
 21
-11.9635391235
 31
-1.55112687139e-007
  0
LINE
  8
makerslide
 10
9.25533390045
 20
-11.9635391235
 30
-1.55112687139e-007
 11
9.74687957764
 21
-12.0846920013
 31
-1.55112687139e-007
  0
LINE
  8
makerslide
 10
9.74687957764
 20
-12.0846920013
 30
-1.55112687139e-007
 11
10.2531347275
 21
-12.0846920013
 31
-1.55112687139e-007
  0
LINE
  8
makerslide
 10
10.2531347275
 20
-12.0846920013
 30
-1.55112687139e-007
 11
10.7446804047
 21
-11.9635391235
 31
-1.55112687139e-007
  0
LINE
  8
makerslide
 10
10.7446804047
 20
-11.9635391235
 30
-1.55112687139e-007
 11
11.1929454803
 21
-11.7282705307
 31
-1.55112687139e-007
  0
LINE
  8
makerslide
 10
11.1929454803
 20
-11.7282705307
 30
-1.55112687139e-007
 11
11.5718832016
 21
-11.3925590515
 31
-1.55112687139e-007
  0
LINE
  8
makerslide
 10
11.5718832016
 20
-11.3925590515
 30
-1.55112687139e-007
 11
11.8594684601
 21
-10.9759244919
 31
-1.55112687139e-007
  0
LINE
  8
makerslide
 10
11.8594684601
 20
-10.9759244919
 30
-1.55112687139e-007
 11
12.0389871597
 21
-10.5025644302
 31
-1.55112687139e-007
  0
LINE
  8
makerslide
 10
12.1000061035
 20
-10.000002861
 30
-1.55112687139e-007
 11
12.0389871597
 21
-10.5025644302
 31
-1.55112687139e-007
  0
LINE
  8
makerslide
 10
22.3750019073
 20
-19.9999980927
 30
5.63993288039e-015
 11
20.0000019073
 21
-19.9999980927
 31
5.63993288039e-015
  0
LINE
  8
makerslide
 10
1.0000025034
 20
-19.9999980927
 30
5.63993288039e-015
 11
6.70000267029
 21
-19.9999980927
 31
5.63993288039e-015
  0
LINE
  8
makerslide
 10
13.3000059128
 20
-19.9999980927
 30
5.63993288039e-015
 11
17.1250019073
 21
-19.9999980927
 31
5.63993288039e-015
  0
LINE
  8
makerslide
 10
16.0000038147
 20
-17.9999980927
 30
5.63993288039e-015
 11
13.000005722
 21
-17.9999980927
 31
5.63993288039e-015
  0
LINE
  8
makerslide
 10
7.00000238419
 20
-17.9999980927
 30
5.63993288039e-015
 11
4.00000429153
 21
-17.9999980927
 31
5.63993288039e-015
  0
LINE
  8
makerslide
 10
18.0000038147
 20
-16.0
 30
5.63993288039e-015
 11
17.0606651306
 21
-16.0
 31
5.63993288039e-015
  0
LINE
  8
makerslide
 10
2.93934321404
 20
-16.0
 30
5.63993288039e-015
 11
2.00000500679
 21
-16.0
 31
5.63993288039e-015
  0
LINE
  8
makerslide
 10
7.0606637001
 20
-13.999994278
 30
5.63993288039e-015
 11
9.70000171661
 21
-13.999994278
 31
5.63993288039e-015
  0
LINE
  8
makerslide
 10
10.3000011444
 20
-13.999994278
 30
5.63993288039e-015
 11
12.9393444061
 21
-13.999994278
 31
5.63993288039e-015
  0
LINE
  8
makerslide
 10
2.00000500679
 20
-12.9999952316
 30
5.63993288039e-015
 11
0.300002872944
 21
-12.9999952316
 31
5.63993288039e-015
  0
LINE
  8
makerslide
 10
3.02791590912e-006
 20
19.0000019073
 30
5.63993288039e-015
 11
3.02791590912e-006
 21
13.3000040054
 31
5.63993288039e-015
  0
LINE
  8
makerslide
 10
3.02791590912e-006
 20
6.70000123978
 30
5.63993288039e-015
 11
3.02791590912e-006
 21
-6.69999837875
 31
5.63993288039e-015
  0
LINE
  8
makerslide
 10
3.02791590912e-006
 20
-13.2999954224
 30
5.63993288039e-015
 11
3.02791590912e-006
 21
-18.9999980927
 31
5.63993288039e-015
  0
LINE
  8
makerslide
 10
10.3000011444
 20
14.0000038147
 30
5.63993288039e-015
 11
10.0000009537
 21
13.700003624
 31
5.63993288039e-015
  0
LINE
  8
makerslide
 10
6.30000305176
 20
10.0
 30
5.63993288039e-015
 11
6.00000333786
 21
9.69999980927
 31
5.63993288039e-015
  0
LINE
  8
makerslide
 10
17.7714500427
 20
20.9464492798
 30
5.63993288039e-015
 11
19.6464500427
 21
22.8214492798
 31
5.63993288039e-015
  0
LINE
  8
makerslide
 10
6.00000333786
 20
-9.69999694824
 30
5.63993288039e-015
 11
6.30000305176
 21
-9.9999961853
 31
5.63993288039e-015
  0
LINE
  8
makerslide
 10
10.0000009537
 20
-13.6999950409
 30
5.63993288039e-015
 11
10.3000011444
 21
-13.999994278
 31
5.63993288039e-015
  0
LINE
  8
makerslide
 10
17.7714500427
 20
-20.9464454651
 30
5.63993288039e-015
 11
19.6464500427
 21
-22.8214435577
 31
5.63993288039e-015
  0
LINE
  8
makerslide
 10
2.00000500679
 20
-16.0
 30
5.63993288039e-015
 11
2.00000500679
 21
-12.9999952316
 31
5.63993288039e-015
  0
LINE
  8
makerslide
 10
2.00000500679
 20
-6.99999809265
 30
5.63993288039e-015
 11
2.00000500679
 21
-4.0
 31
5.63993288039e-015
  0
LINE
  8
makerslide
 10
2.00000500679
 20
-2.50000071526
 30
5.63993288039e-015
 11
2.00000500679
 21
2.50000286102
 31
5.63993288039e-015
  0
LINE
  8
makerslide
 10
2.00000500679
 20
4.00000238419
 30
5.63993288039e-015
 11
2.00000500679
 21
7.00000095367
 31
5.63993288039e-015
  0
LINE
  8
makerslide
 10
2.00000500679
 20
13.0000038147
 30
5.63993288039e-015
 11
2.00000500679
 21
16.0000019073
 31
5.63993288039e-015
  0
LINE
  8
makerslide
 10
16.0000038147
 20
17.0606632233
 30
5.63993288039e-015
 11
12.9393444061
 21
14.0000038147
 31
5.63993288039e-015
  0
LINE
  8
makerslide
 10
6.00000333786
 20
7.06066226959
 30
5.63993288039e-015
 11
2.93934321404
 21
4.00000238419
 31
5.63993288039e-015
  0
LINE
  8
makerslide
 10
2.93934321404
 20
-4.0
 30
5.63993288039e-015
 11
6.00000333786
 21
-7.06065940857
 31
5.63993288039e-015
  0
LINE
  8
makerslide
 10
12.9393444061
 20
-13.999994278
 30
5.63993288039e-015
 11
16.0000038147
 21
-17.0606536865
 31
5.63993288039e-015
  0
LINE
  8
makerslide
 10
4.00000429153
 20
-17.9999980927
 30
5.63993288039e-015
 11
4.00000429153
 21
-17.0606536865
 31
5.63993288039e-015
  0
LINE
  8
makerslide
 10
4.00000429153
 20
17.0606632233
 30
5.63993288039e-015
 11
4.00000429153
 21
18.0000019073
 31
5.63993288039e-015
  0
LINE
  8
makerslide
 10
3.56066560745
 20
2.50000286102
 30
5.63993288039e-015
 11
7.0606637001
 21
6.00000143051
 31
5.63993288039e-015
  0
LINE
  8
makerslide
 10
14.0000047684
 20
12.9393424988
 30
5.63993288039e-015
 11
17.0606651306
 21
16.0000019073
 31
5.63993288039e-015
  0
LINE
  8
makerslide
 10
0.300002872944
 20
-6.99999809265
 30
5.63993288039e-015
 11
2.00000500679
 21
-6.99999809265
 31
5.63993288039e-015
  0
LINE
  8
makerslide
 10
17.0606651306
 20
-16.0
 30
5.63993288039e-015
 11
14.0000047684
 21
-12.9393396378
 31
5.63993288039e-015
  0
LINE
  8
makerslide
 10
7.0606637001
 20
-5.99999904633
 30
5.63993288039e-015
 11
3.56066560745
 21
-2.50000071526
 31
5.63993288039e-015
  0
LINE
  8
makerslide
 10
6.00000333786
 20
12.9393424988
 30
5.63993288039e-015
 11
6.00000333786
 21
10.2999992371
 31
5.63993288039e-015
  0
LINE
  8
makerslide
 10
6.00000333786
 20
9.69999980927
 30
5.63993288039e-015
 11
6.00000333786
 21
7.06066226959
 31
5.63993288039e-015
  0
LINE
  8
makerslide
 10
6.00000333786
 20
-7.06065940857
 30
5.63993288039e-015
 11
6.00000333786
 21
-9.69999694824
 31
5.63993288039e-015
  0
LINE
  8
makerslide
 10
6.00000333786
 20
-10.299996376
 30
5.63993288039e-015
 11
6.00000333786
 21
-12.9393396378
 31
5.63993288039e-015
  0
LINE
  8
makerslide
 10
13.7000055313
 20
10.0
 30
5.63993288039e-015
 11
14.0000047684
 21
10.2999992371
 31
5.63993288039e-015
  0
LINE
  8
makerslide
 10
12.9393444061
 20
-5.99999904633
 30
5.63993288039e-015
 11
7.0606637001
 21
-5.99999904633
 31
5.63993288039e-015
  0
LINE
  8
makerslide
 10
7.00000238419
 20
-19.6999969482
 30
5.63993288039e-015
 11
7.00000238419
 21
-17.9999980927
 31
5.63993288039e-015
  0
LINE
  8
makerslide
 10
7.00000238419
 20
18.0000019073
 30
5.63993288039e-015
 11
7.00000238419
 21
19.7000007629
 31
5.63993288039e-015
  0
LINE
  8
makerslide
 10
2.00000500679
 20
-4.0
 30
5.63993288039e-015
 11
2.93934321404
 21
-4.0
 31
5.63993288039e-015
  0
LINE
  8
makerslide
 10
17.0606651306
 20
-4.0
 30
5.63993288039e-015
 11
18.0000038147
 21
-4.0
 31
5.63993288039e-015
  0
LINE
  8
makerslide
 10
18.0000038147
 20
-2.50000071526
 30
5.63993288039e-015
 11
16.4393424988
 21
-2.50000071526
 31
5.63993288039e-015
  0
LINE
  8
makerslide
 10
3.56066560745
 20
-2.50000071526
 30
5.63993288039e-015
 11
2.00000500679
 21
-2.50000071526
 31
5.63993288039e-015
  0
LINE
  8
makerslide
 10
19.7000026703
 20
-9.9999961853
 30
5.63993288039e-015
 11
20.0000019073
 21
-10.299996376
 31
5.63993288039e-015
  0
LINE
  8
makerslide
 10
13.000005722
 20
19.7000007629
 30
5.63993288039e-015
 11
13.000005722
 21
18.0000019073
 31
5.63993288039e-015
  0
LINE
  8
makerslide
 10
13.000005722
 20
-17.9999980927
 30
5.63993288039e-015
 11
13.000005722
 21
-19.6999969482
 31
5.63993288039e-015
  0
LINE
  8
makerslide
 10
14.0000047684
 20
-12.9393396378
 30
5.63993288039e-015
 11
14.0000047684
 21
-7.06065940857
 31
5.63993288039e-015
  0
LINE
  8
makerslide
 10
14.0000047684
 20
7.06066226959
 30
5.63993288039e-015
 11
14.0000047684
 21
9.69999980927
 31
5.63993288039e-015
  0
LINE
  8
makerslide
 10
14.0000047684
 20
10.2999992371
 30
5.63993288039e-015
 11
14.0000047684
 21
12.9393424988
 31
5.63993288039e-015
  0
LINE
  8
makerslide
 10
6.30000305176
 20
-9.9999961853
 30
5.63993288039e-015
 11
6.00000333786
 21
-10.299996376
 31
5.63993288039e-015
  0
LINE
  8
makerslide
 10
2.00000500679
 20
2.50000286102
 30
5.63993288039e-015
 11
3.56066560745
 21
2.50000286102
 31
5.63993288039e-015
  0
LINE
  8
makerslide
 10
16.4393424988
 20
2.50000286102
 30
5.63993288039e-015
 11
18.0000038147
 21
2.50000286102
 31
5.63993288039e-015
  0
LINE
  8
makerslide
 10
6.00000333786
 20
10.2999992371
 30
5.63993288039e-015
 11
6.30000305176
 21
10.0
 31
5.63993288039e-015
  0
LINE
  8
makerslide
 10
16.0000038147
 20
18.0000019073
 30
5.63993288039e-015
 11
16.0000038147
 21
17.0606632233
 31
5.63993288039e-015
  0
LINE
  8
makerslide
 10
16.0000038147
 20
-17.0606536865
 30
5.63993288039e-015
 11
16.0000038147
 21
-17.9999980927
 31
5.63993288039e-015
  0
LINE
  8
makerslide
 10
18.0000038147
 20
4.00000238419
 30
5.63993288039e-015
 11
17.0606651306
 21
4.00000238419
 31
5.63993288039e-015
  0
LINE
  8
makerslide
 10
2.93934321404
 20
4.00000238419
 30
5.63993288039e-015
 11
2.00000500679
 21
4.00000238419
 31
5.63993288039e-015
  0
LINE
  8
makerslide
 10
17.6250019073
 20
-20.4999980927
 30
5.63993288039e-015
 11
17.6250019073
 21
-20.5928878784
 31
5.63993288039e-015
  0
LINE
  8
makerslide
 10
17.6250019073
 20
20.5
 30
5.63993288039e-015
 11
17.6250019073
 21
20.5928974152
 31
5.63993288039e-015
  0
LINE
  8
makerslide
 10
18.0000038147
 20
16.0000019073
 30
5.63993288039e-015
 11
18.0000038147
 21
13.0000038147
 31
5.63993288039e-015
  0
LINE
  8
makerslide
 10
18.0000038147
 20
7.00000095367
 30
5.63993288039e-015
 11
18.0000038147
 21
4.00000238419
 31
5.63993288039e-015
  0
LINE
  8
makerslide
 10
18.0000038147
 20
2.50000286102
 30
5.63993288039e-015
 11
18.0000038147
 21
-2.50000071526
 31
5.63993288039e-015
  0
LINE
  8
makerslide
 10
18.0000038147
 20
-4.0
 30
5.63993288039e-015
 11
18.0000038147
 21
-16.0
 31
5.63993288039e-015
  0
LINE
  8
makerslide
 10
16.4393424988
 20
-2.50000071526
 30
5.63993288039e-015
 11
12.9393444061
 21
-5.99999904633
 31
5.63993288039e-015
  0
LINE
  8
makerslide
 10
6.00000333786
 20
-12.9393396378
 30
5.63993288039e-015
 11
2.93934321404
 21
-16.0
 31
5.63993288039e-015
  0
LINE
  8
makerslide
 10
4.00000429153
 20
-17.0606536865
 30
5.63993288039e-015
 11
7.0606637001
 21
-13.999994278
 31
5.63993288039e-015
  0
LINE
  8
makerslide
 10
14.0000047684
 20
-7.06065940857
 30
5.63993288039e-015
 11
17.0606651306
 21
-4.0
 31
5.63993288039e-015
  0
LINE
  8
makerslide
 10
7.0606637001
 20
6.00000143051
 30
5.63993288039e-015
 11
12.9393444061
 21
6.00000143051
 31
5.63993288039e-015
  0
LINE
  8
makerslide
 10
19.7000026703
 20
7.00000095367
 30
5.63993288039e-015
 11
18.0000038147
 21
7.00000095367
 31
5.63993288039e-015
  0
LINE
  8
makerslide
 10
2.00000500679
 20
7.00000095367
 30
5.63993288039e-015
 11
0.300002872944
 21
7.00000095367
 31
5.63993288039e-015
  0
LINE
  8
makerslide
 10
2.93934321404
 20
16.0000019073
 30
5.63993288039e-015
 11
6.00000333786
 21
12.9393424988
 31
5.63993288039e-015
  0
LINE
  8
makerslide
 10
12.9393444061
 20
6.00000143051
 30
5.63993288039e-015
 11
16.4393424988
 21
2.50000286102
 31
5.63993288039e-015
  0
LINE
  8
makerslide
 10
17.0606651306
 20
4.00000238419
 30
5.63993288039e-015
 11
14.0000047684
 21
7.06066226959
 31
5.63993288039e-015
  0
LINE
  8
makerslide
 10
7.0606637001
 20
14.0000038147
 30
5.63993288039e-015
 11
4.00000429153
 21
17.0606632233
 31
5.63993288039e-015
  0
LINE
  8
makerslide
 10
20.0000019073
 20
-19.9999980927
 30
5.63993288039e-015
 11
20.0000019073
 21
-10.299996376
 31
5.63993288039e-015
  0
LINE
  8
makerslide
 10
20.0000019073
 20
-9.69999694824
 30
5.63993288039e-015
 11
20.0000019073
 21
6.70000123978
 31
5.63993288039e-015
  0
LINE
  8
makerslide
 10
20.0000019073
 20
13.3000040054
 30
5.63993288039e-015
 11
20.0000019073
 21
20.0
 31
5.63993288039e-015
  0
LINE
  8
makerslide
 10
9.70000171661
 20
-13.999994278
 30
5.63993288039e-015
 11
10.0000009537
 21
-13.6999950409
 31
5.63993288039e-015
  0
LINE
  8
makerslide
 10
14.0000047684
 20
9.69999980927
 30
5.63993288039e-015
 11
13.7000055313
 21
10.0
 31
5.63993288039e-015
  0
LINE
  8
makerslide
 10
10.0000009537
 20
13.700003624
 30
5.63993288039e-015
 11
9.70000171661
 21
14.0000038147
 31
5.63993288039e-015
  0
LINE
  8
makerslide
 10
22.3750019073
 20
20.5928974152
 30
5.63993288039e-015
 11
22.3750019073
 21
20.0
 31
5.63993288039e-015
  0
LINE
  8
makerslide
 10
22.3750019073
 20
-20.5928878784
 30
5.63993288039e-015
 11
22.3750019073
 21
-19.9999980927
 31
5.63993288039e-015
  0
LINE
  8
makerslide
 10
20.0000019073
 20
-9.69999694824
 30
5.63993288039e-015
 11
19.7000026703
 21
-9.9999961853
 31
5.63993288039e-015
  0
LINE
  8
makerslide
 10
0.300002872944
 20
13.0000038147
 30
5.63993288039e-015
 11
2.00000500679
 21
13.0000038147
 31
5.63993288039e-015
  0
LINE
  8
makerslide
 10
18.0000038147
 20
13.0000038147
 30
5.63993288039e-015
 11
19.7000026703
 21
13.0000038147
 31
5.63993288039e-015
  0
LINE
  8
makerslide
 10
12.9393444061
 20
14.0000038147
 30
5.63993288039e-015
 11
10.3000011444
 21
14.0000038147
 31
5.63993288039e-015
  0
LINE
  8
makerslide
 10
9.70000171661
 20
14.0000038147
 30
5.63993288039e-015
 11
7.0606637001
 21
14.0000038147
 31
5.63993288039e-015
  0
LINE
  8
makerslide
 10
2.00000500679
 20
16.0000019073
 30
5.63993288039e-015
 11
2.93934321404
 21
16.0000019073
 31
5.63993288039e-015
  0
LINE
  8
makerslide
 10
17.0606651306
 20
16.0000019073
 30
5.63993288039e-015
 11
18.0000038147
 21
16.0000019073
 31
5.63993288039e-015
  0
LINE
  8
makerslide
 10
4.00000429153
 20
18.0000019073
 30
5.63993288039e-015
 11
7.00000238419
 21
18.0000019073
 31
5.63993288039e-015
  0
LINE
  8
makerslide
 10
13.000005722
 20
18.0000019073
 30
5.63993288039e-015
 11
16.0000038147
 21
18.0000019073
 31
5.63993288039e-015
  0
LINE
  8
makerslide
 10
22.3750019073
 20
20.0
 30
5.63993288039e-015
 11
20.0000019073
 21
20.0
 31
5.63993288039e-015
  0
LINE
  8
makerslide
 10
17.1250019073
 20
20.0
 30
5.63993288039e-015
 11
13.3000059128
 21
20.0
 31
5.63993288039e-015
  0
LINE
  8
makerslide
 10
6.70000267029
 20
20.0
 30
5.63993288039e-015
 11
1.0000025034
 21
20.0
 31
5.63993288039e-015
  0
LINE
  8
makerslide
 10
20.353559494
 20
-22.8214435577
 30
5.63993288039e-015
 11
22.228553772
 21
-20.9464454651
 31
5.63993288039e-015
  0
LINE
  8
makerslide
 10
20.353559494
 20
22.8214492798
 30
5.63993288039e-015
 11
22.228553772
 21
20.9464492798
 31
5.63993288039e-015
  0
LINE
  8
makerslide
 10
13.0000238419
 20
-19.7000045776
 30
-1.55112687139e-007
 11
13.0402164459
 21
-19.8500061035
 31
-1.55112687139e-007
  0
LINE
  8
makerslide
 10
13.0402164459
 20
-19.8500061035
 30
-1.55112687139e-007
 11
13.1500205994
 21
-19.9598121643
 31
-1.55112687139e-007
  0
LINE
  8
makerslide
 10
13.1500205994
 20
-19.9598121643
 30
-1.55112687139e-007
 11
13.3000240326
 21
-20.0000038147
 31
-1.55112687139e-007
  0
LINE
  8
makerslide
 10
13.3000240326
 20
-20.0000038147
 30
-1.55112687139e-007
 11
13.3000240326
 21
-20.0000038147
 31
-1.55112687139e-007
  0
LINE
  8
makerslide
 10
6.70001173019
 20
-20.0000038147
 30
-1.55112687139e-007
 11
6.85001182556
 21
-19.9598121643
 31
-1.55112687139e-007
  0
LINE
  8
makerslide
 10
6.85001182556
 20
-19.9598121643
 30
-1.55112687139e-007
 11
6.95981931686
 21
-19.8500061035
 31
-1.55112687139e-007
  0
LINE
  8
makerslide
 10
6.95981931686
 20
-19.8500061035
 30
-1.55112687139e-007
 11
7.00001192093
 21
-19.7000045776
 31
-1.55112687139e-007
  0
LINE
  8
makerslide
 10
7.00001192093
 20
-19.7000045776
 30
-1.55112687139e-007
 11
7.00001192093
 21
-19.7000045776
 31
-1.55112687139e-007
  0
LINE
  8
makerslide
 10
0.300015002489
 20
-13.0000009537
 30
-1.55112687139e-007
 11
0.150015071034
 21
-13.0401935577
 31
-1.55112687139e-007
  0
LINE
  8
makerslide
 10
0.150015071034
 20
-13.0401935577
 30
-1.55112687139e-007
 11
0.0402076952159
 21
-13.1499977112
 31
-1.55112687139e-007
  0
LINE
  8
makerslide
 10
0.0402076952159
 20
-13.1499977112
 30
-1.55112687139e-007
 11
1.51395797729e-005
 21
-13.3000011444
 31
-1.55112687139e-007
  0
LINE
  8
makerslide
 10
1.51395797729e-005
 20
-13.3000011444
 30
-1.55112687139e-007
 11
1.51395797729e-005
 21
-13.3000011444
 31
-1.55112687139e-007
  0
LINE
  8
makerslide
 10
1.51395797729e-005
 20
-6.7000041008
 30
-1.55112687139e-007
 11
0.0402076952159
 21
-6.85000705719
 31
-1.55112687139e-007
  0
LINE
  8
makerslide
 10
0.0402076952159
 20
-6.85000705719
 30
-1.55112687139e-007
 11
0.150015071034
 21
-6.95981168747
 31
-1.55112687139e-007
  0
LINE
  8
makerslide
 10
0.150015071034
 20
-6.95981168747
 30
-1.55112687139e-007
 11
0.300015002489
 21
-7.00000429153
 31
-1.55112687139e-007
  0
LINE
  8
makerslide
 10
0.300015002489
 20
-7.00000429153
 30
-1.55112687139e-007
 11
0.300015002489
 21
-7.00000429153
 31
-1.55112687139e-007
  0
LINE
  8
makerslide
 10
0.300015002489
 20
6.99999523163
 30
-1.55112687139e-007
 11
0.150015071034
 21
6.95980262756
 31
-1.55112687139e-007
  0
LINE
  8
makerslide
 10
0.150015071034
 20
6.95980262756
 30
-1.55112687139e-007
 11
0.0402076952159
 21
6.84999799728
 31
-1.55112687139e-007
  0
LINE
  8
makerslide
 10
0.0402076952159
 20
6.84999799728
 30
-1.55112687139e-007
 11
1.51395797729e-005
 21
6.69999504089
 31
-1.55112687139e-007
  0
LINE
  8
makerslide
 10
1.51395797729e-005
 20
6.69999504089
 30
-1.55112687139e-007
 11
1.51395797729e-005
 21
6.69999504089
 31
-1.55112687139e-007
  0
LINE
  8
makerslide
 10
1.51395797729e-005
 20
13.2999982834
 30
-1.55112687139e-007
 11
0.0402076952159
 21
13.1499948502
 31
-1.55112687139e-007
  0
LINE
  8
makerslide
 10
0.0402076952159
 20
13.1499948502
 30
-1.55112687139e-007
 11
0.150015071034
 21
13.0401906967
 31
-1.55112687139e-007
  0
LINE
  8
makerslide
 10
0.150015071034
 20
13.0401906967
 30
-1.55112687139e-007
 11
0.300015002489
 21
12.9999980927
 31
-1.55112687139e-007
  0
LINE
  8
makerslide
 10
0.300015002489
 20
12.9999980927
 30
-1.55112687139e-007
 11
0.300015002489
 21
12.9999980927
 31
-1.55112687139e-007
  0
LINE
  8
makerslide
 10
13.3000240326
 20
19.999994278
 30
-1.55112687139e-007
 11
13.1500205994
 21
19.9598026276
 31
-1.55112687139e-007
  0
LINE
  8
makerslide
 10
13.1500205994
 20
19.9598026276
 30
-1.55112687139e-007
 11
13.0402164459
 21
19.8499984741
 31
-1.55112687139e-007
  0
LINE
  8
makerslide
 10
13.0402164459
 20
19.8499984741
 30
-1.55112687139e-007
 11
13.0000238419
 21
19.6999950409
 31
-1.55112687139e-007
  0
LINE
  8
makerslide
 10
13.0000238419
 20
19.6999950409
 30
-1.55112687139e-007
 11
13.0000238419
 21
19.6999950409
 31
-1.55112687139e-007
  0
LINE
  8
makerslide
 10
19.7000198364
 20
12.9999980927
 30
-1.55112687139e-007
 11
19.8500232697
 21
13.0401906967
 31
-1.55112687139e-007
  0
LINE
  8
makerslide
 10
19.8500232697
 20
13.0401906967
 30
-1.55112687139e-007
 11
19.9598274231
 21
13.1499948502
 31
-1.55112687139e-007
  0
LINE
  8
makerslide
 10
19.9598274231
 20
13.1499948502
 30
-1.55112687139e-007
 11
20.0000209808
 21
13.2999982834
 31
-1.55112687139e-007
  0
LINE
  8
makerslide
 10
20.0000209808
 20
13.2999982834
 30
-1.55112687139e-007
 11
20.0000209808
 21
13.2999982834
 31
-1.55112687139e-007
  0
LINE
  8
makerslide
 10
20.0000209808
 20
6.69999504089
 30
-1.55112687139e-007
 11
19.9598274231
 21
6.84999799728
 31
-1.55112687139e-007
  0
LINE
  8
makerslide
 10
19.9598274231
 20
6.84999799728
 30
-1.55112687139e-007
 11
19.8500232697
 21
6.95980262756
 31
-1.55112687139e-007
  0
LINE
  8
makerslide
 10
19.8500232697
 20
6.95980262756
 30
-1.55112687139e-007
 11
19.7000198364
 21
6.99999523163
 31
-1.55112687139e-007
  0
LINE
  8
makerslide
 10
19.7000198364
 20
6.99999523163
 30
-1.55112687139e-007
 11
19.7000198364
 21
6.99999523163
 31
-1.55112687139e-007
  0
LINE
  8
makerslide
 10
7.00001192093
 20
19.6999950409
 30
-1.55112687139e-007
 11
6.95981931686
 21
19.8499984741
 31
-1.55112687139e-007
  0
LINE
  8
makerslide
 10
6.95981931686
 20
19.8499984741
 30
-1.55112687139e-007
 11
6.85001182556
 21
19.9598026276
 31
-1.55112687139e-007
  0
LINE
  8
makerslide
 10
6.85001182556
 20
19.9598026276
 30
-1.55112687139e-007
 11
6.70001173019
 21
19.999994278
 31
-1.55112687139e-007
  0
LINE
  8
makerslide
 10
6.70001173019
 20
19.999994278
 30
-1.55112687139e-007
 11
6.70001173019
 21
19.999994278
 31
-1.55112687139e-007
  0
LINE
  8
makerslide
 10
22.2285614014
 20
-20.9464454651
 30
-1.55112687139e-007
 11
22.3080196381
 21
-20.8428974152
 31
-1.55112687139e-007
  0
LINE
  8
makerslide
 10
22.3080196381
 20
-20.8428974152
 30
-1.55112687139e-007
 11
22.3579730988
 21
-20.7223014832
 31
-1.55112687139e-007
  0
LINE
  8
makerslide
 10
22.3579730988
 20
-20.7223014832
 30
-1.55112687139e-007
 11
22.3750095367
 21
-20.5928936005
 31
-1.55112687139e-007
  0
LINE
  8
makerslide
 10
22.3750095367
 20
-20.5928936005
 30
-1.55112687139e-007
 11
22.3750095367
 21
-20.5928936005
 31
-1.55112687139e-007
  0
LINE
  8
makerslide
 10
19.6464500427
 20
-22.8214530945
 30
-1.55112687139e-007
 11
19.870595932
 21
-22.9508590698
 31
-1.55112687139e-007
  0
LINE
  8
makerslide
 10
19.870595932
 20
-22.9508590698
 30
-1.55112687139e-007
 11
20.12940979
 21
-22.9508590698
 31
-1.55112687139e-007
  0
LINE
  8
makerslide
 10
20.12940979
 20
-22.9508590698
 30
-1.55112687139e-007
 11
20.353553772
 21
-22.8214530945
 31
-1.55112687139e-007
  0
LINE
  8
makerslide
 10
20.353553772
 20
-22.8214530945
 30
-1.55112687139e-007
 11
20.353553772
 21
-22.8214530945
 31
-1.55112687139e-007
  0
LINE
  8
makerslide
 10
17.6250209808
 20
-20.5928936005
 30
-1.55112687139e-007
 11
17.6420555115
 21
-20.7223014832
 31
-1.55112687139e-007
  0
LINE
  8
makerslide
 10
17.6420555115
 20
-20.7223014832
 30
-1.55112687139e-007
 11
17.6920089722
 21
-20.8428974152
 31
-1.55112687139e-007
  0
LINE
  8
makerslide
 10
17.6920089722
 20
-20.8428974152
 30
-1.55112687139e-007
 11
17.7714691162
 21
-20.9464454651
 31
-1.55112687139e-007
  0
LINE
  8
makerslide
 10
17.7714691162
 20
-20.9464454651
 30
-1.55112687139e-007
 11
17.7714691162
 21
-20.9464454651
 31
-1.55112687139e-007
  0
LINE
  8
makerslide
 10
17.7714691162
 20
20.9464416504
 30
-1.55112687139e-007
 11
17.6920089722
 21
20.8428936005
 31
-1.55112687139e-007
  0
LINE
  8
makerslide
 10
17.6920089722
 20
20.8428936005
 30
-1.55112687139e-007
 11
17.6420555115
 21
20.7222976685
 31
-1.55112687139e-007
  0
LINE
  8
makerslide
 10
17.6420555115
 20
20.7222976685
 30
-1.55112687139e-007
 11
17.6250209808
 21
20.5928916931
 31
-1.55112687139e-007
  0
LINE
  8
makerslide
 10
17.6250209808
 20
20.5928916931
 30
-1.55112687139e-007
 11
17.6250209808
 21
20.5928916931
 31
-1.55112687139e-007
  0
LINE
  8
makerslide
 10
20.353553772
 20
22.8214435577
 30
-1.55112687139e-007
 11
20.12940979
 21
22.9508571625
 31
-1.55112687139e-007
  0
LINE
  8
makerslide
 10
20.12940979
 20
22.9508571625
 30
-1.55112687139e-007
 11
19.870595932
 21
22.9508571625
 31
-1.55112687139e-007
  0
LINE
  8
makerslide
 10
19.870595932
 20
22.9508571625
 30
-1.55112687139e-007
 11
19.6464500427
 21
22.8214435577
 31
-1.55112687139e-007
  0
LINE
  8
makerslide
 10
19.6464500427
 20
22.8214435577
 30
-1.55112687139e-007
 11
19.6464500427
 21
22.8214435577
 31
-1.55112687139e-007
  0
LINE
  8
makerslide
 10
22.3750095367
 20
20.5928916931
 30
-1.55112687139e-007
 11
22.3579730988
 21
20.7222976685
 31
-1.55112687139e-007
  0
LINE
  8
makerslide
 10
22.3579730988
 20
20.7222976685
 30
-1.55112687139e-007
 11
22.3080196381
 21
20.8428936005
 31
-1.55112687139e-007
  0
LINE
  8
makerslide
 10
22.3080196381
 20
20.8428936005
 30
-1.55112687139e-007
 11
22.2285614014
 21
20.9464416504
 31
-1.55112687139e-007
  0
LINE
  8
makerslide
 10
22.2285614014
 20
20.9464416504
 30
-1.55112687139e-007
 11
22.2285614014
 21
20.9464416504
 31
-1.55112687139e-007
  0
LINE
  8
makerslide
 10
17.6250076294
 20
-20.5000038147
 30
-1.55112687139e-007
 11
17.5580177307
 21
-20.25
 31
-1.55112687139e-007
  0
LINE
  8
makerslide
 10
17.5580177307
 20
-20.25
 30
-1.55112687139e-007
 11
17.3750114441
 21
-20.0669937134
 31
-1.55112687139e-007
  0
LINE
  8
makerslide
 10
17.3750114441
 20
-20.0669937134
 30
-1.55112687139e-007
 11
17.1250076294
 21
-20.0000038147
 31
-1.55112687139e-007
  0
LINE
  8
makerslide
 10
17.1250076294
 20
-20.0000038147
 30
-1.55112687139e-007
 11
17.1250076294
 21
-20.0000038147
 31
-1.55112687139e-007
  0
LINE
  8
makerslide
 10
17.1250076294
 20
19.999994278
 30
-1.55112687139e-007
 11
17.3750114441
 21
20.0669841766
 31
-1.55112687139e-007
  0
LINE
  8
makerslide
 10
17.3750114441
 20
20.0669841766
 30
-1.55112687139e-007
 11
17.5580177307
 21
20.2499923706
 31
-1.55112687139e-007
  0
LINE
  8
makerslide
 10
17.5580177307
 20
20.2499923706
 30
-1.55112687139e-007
 11
17.6250076294
 21
20.499994278
 31
-1.55112687139e-007
  0
LINE
  8
makerslide
 10
17.6250076294
 20
20.499994278
 30
-1.55112687139e-007
 11
17.6250076294
 21
20.499994278
 31
-1.55112687139e-007
  0
LINE
  8
makerslide
 10
-3.02791590912e-006
 20
-19.0000038147
 30
5.63993288039e-015
 11
0.0761157497764
 21
-19.3826904297
 31
5.63993288039e-015
  0
LINE
  8
makerslide
 10
0.0761157497764
 20
-19.3826904297
 30
5.63993288039e-015
 11
0.292890310287
 21
-19.707113266
 31
5.63993288039e-015
  0
LINE
  8
makerslide
 10
0.292890310287
 20
-19.707113266
 30
5.63993288039e-015
 11
0.617313325405
 21
-19.9238815308
 31
5.63993288039e-015
  0
LINE
  8
makerslide
 10
0.617313325405
 20
-19.9238815308
 30
5.63993288039e-015
 11
0.999996483326
 21
-20.0000038147
 31
5.63993288039e-015
  0
LINE
  8
makerslide
 10
0.999996483326
 20
19.999994278
 30
-1.55112687139e-007
 11
0.617313325405
 21
19.923871994
 31
-1.55112687139e-007
  0
LINE
  8
makerslide
 10
0.617313325405
 20
19.923871994
 30
-1.55112687139e-007
 11
0.292890310287
 21
19.7071037292
 31
-1.55112687139e-007
  0
LINE
  8
makerslide
 10
0.292890310287
 20
19.7071037292
 30
-1.55112687139e-007
 11
0.0761157497764
 21
19.3826808929
 31
-1.55112687139e-007
  0
LINE
  8
makerslide
 10
0.0761157497764
 20
19.3826808929
 30
-1.55112687139e-007
 11
-3.02791590912e-006
 21
18.999994278
 31
-1.55112687139e-007
  0
LINE
  8
makerslide
 10
-3.02791590912e-006
 20
18.999994278
 30
-1.55112687139e-007
 11
-3.02791590912e-006
 21
18.999994278
 31
-1.55112687139e-007
  0
ENDSEC
  0
EOF
