  0
SECTION
  2
BLOCKS
  0
ENDSEC
  0
SECTION
  2
ENTITIES
  0
LINE
  8
0
 10
0
 11
0
 20
0
 21
934
  0
LINE
  8
0
 10
0
 11
1790
 20
934
 21
934
  0
LINE
  8
0
 10
1790
 11
1790
 20
934
 21
0
  0
LINE
  8
0
 10
1790
 11
101.55
 20
0
 21
0
  0
LINE
  8
0
 10
101.55
 11
101.55
 20
0
 21
2.45
  0
LINE
  8
0
 10
101.55
 11
101.425
 20
2.45
 21
3.238
  0
LINE
  8
0
 10
101.425
 11
101.063
 20
3.238
 21
3.949
  0
LINE
  8
0
 10
101.063
 11
100.499
 20
3.949
 21
4.513
  0
LINE
  8
0
 10
100.499
 11
99.788
 20
4.513
 21
4.875
  0
LINE
  8
0
 10
99.788
 11
99
 20
4.875
 21
5
  0
LINE
  8
0
 10
99
 11
99.788
 20
5
 21
5.125
  0
LINE
  8
0
 10
99.788
 11
100.499
 20
5.125
 21
5.487
  0
LINE
  8
0
 10
100.499
 11
101.063
 20
5.487
 21
6.051
  0
LINE
  8
0
 10
101.063
 11
101.425
 20
6.051
 21
6.762
  0
LINE
  8
0
 10
101.425
 11
101.55
 20
6.762
 21
7.55
  0
LINE
  8
0
 10
101.55
 11
101.55
 20
7.55
 21
10.45
  0
LINE
  8
0
 10
101.55
 11
101.425
 20
10.45
 21
11.238
  0
LINE
  8
0
 10
101.425
 11
101.063
 20
11.238
 21
11.949
  0
LINE
  8
0
 10
101.063
 11
100.499
 20
11.949
 21
12.513
  0
LINE
  8
0
 10
100.499
 11
99.788
 20
12.513
 21
12.875
  0
LINE
  8
0
 10
99.788
 11
99
 20
12.875
 21
13
  0
LINE
  8
0
 10
99
 11
98.212
 20
13
 21
12.875
  0
LINE
  8
0
 10
98.212
 11
97.501
 20
12.875
 21
12.513
  0
LINE
  8
0
 10
97.501
 11
96.937
 20
12.513
 21
11.949
  0
LINE
  8
0
 10
96.937
 11
96.575
 20
11.949
 21
11.238
  0
LINE
  8
0
 10
96.575
 11
96.45
 20
11.238
 21
10.45
  0
LINE
  8
0
 10
96.45
 11
96.45
 20
10.45
 21
7.55
  0
LINE
  8
0
 10
96.45
 11
96.575
 20
7.55
 21
6.762
  0
LINE
  8
0
 10
96.575
 11
96.937
 20
6.762
 21
6.051
  0
LINE
  8
0
 10
96.937
 11
97.501
 20
6.051
 21
5.487
  0
LINE
  8
0
 10
97.501
 11
98.212
 20
5.487
 21
5.125
  0
LINE
  8
0
 10
98.212
 11
99
 20
5.125
 21
5
  0
LINE
  8
0
 10
99
 11
98.212
 20
5
 21
4.875
  0
LINE
  8
0
 10
98.212
 11
97.501
 20
4.875
 21
4.513
  0
LINE
  8
0
 10
97.501
 11
96.937
 20
4.513
 21
3.949
  0
LINE
  8
0
 10
96.937
 11
96.575
 20
3.949
 21
3.238
  0
LINE
  8
0
 10
96.575
 11
96.45
 20
3.238
 21
2.45
  0
LINE
  8
0
 10
96.45
 11
96.45
 20
2.45
 21
0
  0
LINE
  8
0
 10
96.45
 11
0
 20
0
 21
0
  0
LINE
  8
0
 10
0
 11
0
 20
959.4
 21
1226.4
  0
LINE
  8
0
 10
0
 11
18
 20
1226.4
 21
1226.4
  0
LINE
  8
0
 10
18
 11
18
 20
1226.4
 21
1206.4
  0
LINE
  8
0
 10
18
 11
1542
 20
1206.4
 21
1206.4
  0
LINE
  8
0
 10
1542
 11
1542
 20
1206.4
 21
1226.4
  0
LINE
  8
0
 10
1542
 11
1790
 20
1226.4
 21
1226.4
  0
LINE
  8
0
 10
1790
 11
1790
 20
1226.4
 21
959.4
  0
LINE
  8
0
 10
1790
 11
0
 20
959.4
 21
959.4
  0
LINE
  8
0
 10
0
 11
0
 20
1251.8
 21
1518.8
  0
LINE
  8
0
 10
0
 11
1790
 20
1518.8
 21
1518.8
  0
LINE
  8
0
 10
1790
 11
1790
 20
1518.8
 21
1251.8
  0
LINE
  8
0
 10
1790
 11
0
 20
1251.8
 21
1251.8
  0
LINE
  8
0
 10
0
 11
0
 20
1544.2
 21
1811.2
  0
LINE
  8
0
 10
0
 11
934
 20
1811.2
 21
1811.2
  0
LINE
  8
0
 10
934
 11
934
 20
1811.2
 21
1544.2
  0
LINE
  8
0
 10
934
 11
0
 20
1544.2
 21
1544.2
  0
LINE
  8
0
 10
0
 11
0
 20
1836.6
 21
2103.6
  0
LINE
  8
0
 10
0
 11
934
 20
2103.6
 21
2103.6
  0
LINE
  8
0
 10
934
 11
934
 20
2103.6
 21
1836.6
  0
LINE
  8
0
 10
934
 11
0
 20
1836.6
 21
1836.6
  0
LINE
  8
0
 10
0
 11
0
 20
2129
 21
2247
  0
LINE
  8
0
 10
0
 11
1543
 20
2247
 21
2247
  0
LINE
  8
0
 10
1543
 11
1543
 20
2247
 21
2129
  0
LINE
  8
0
 10
1543
 11
0
 20
2129
 21
2129
  0
LINE
  8
0
 10
0
 11
0
 20
2421.4
 21
2669.4
  0
LINE
  8
0
 10
0
 11
934
 20
2669.4
 21
2669.4
  0
LINE
  8
0
 10
934
 11
934
 20
2669.4
 21
2421.4
  0
LINE
  8
0
 10
934
 11
0
 20
2421.4
 21
2421.4
  0
LINE
  8
0
 10
0
 11
0
 20
2713.8
 21
2731.8
  0
LINE
  8
0
 10
0
 11
815
 20
2731.8
 21
2731.8
  0
LINE
  8
0
 10
815
 11
815
 20
2731.8
 21
2713.8
  0
LINE
  8
0
 10
815
 11
0
 20
2713.8
 21
2713.8
  0
LINE
  8
0
 10
5
 11
5.125
 20
99
 21
99.788
  0
LINE
  8
0
 10
5.125
 11
5.487
 20
99.788
 21
100.499
  0
LINE
  8
0
 10
5.487
 11
6.051
 20
100.499
 21
101.063
  0
LINE
  8
0
 10
6.051
 11
6.762
 20
101.063
 21
101.425
  0
LINE
  8
0
 10
6.762
 11
7.55
 20
101.425
 21
101.55
  0
LINE
  8
0
 10
7.55
 11
10.45
 20
101.55
 21
101.55
  0
LINE
  8
0
 10
10.45
 11
11.238
 20
101.55
 21
101.425
  0
LINE
  8
0
 10
11.238
 11
11.949
 20
101.425
 21
101.063
  0
LINE
  8
0
 10
11.949
 11
12.513
 20
101.063
 21
100.499
  0
LINE
  8
0
 10
12.513
 11
12.875
 20
100.499
 21
99.788
  0
LINE
  8
0
 10
12.875
 11
13
 20
99.788
 21
99
  0
LINE
  8
0
 10
13
 11
12.875
 20
99
 21
98.212
  0
LINE
  8
0
 10
12.875
 11
12.513
 20
98.212
 21
97.501
  0
LINE
  8
0
 10
12.513
 11
11.949
 20
97.501
 21
96.937
  0
LINE
  8
0
 10
11.949
 11
11.238
 20
96.937
 21
96.575
  0
LINE
  8
0
 10
11.238
 11
10.45
 20
96.575
 21
96.45
  0
LINE
  8
0
 10
10.45
 11
7.55
 20
96.45
 21
96.45
  0
LINE
  8
0
 10
7.55
 11
6.762
 20
96.45
 21
96.575
  0
LINE
  8
0
 10
6.762
 11
6.051
 20
96.575
 21
96.937
  0
LINE
  8
0
 10
6.051
 11
5.487
 20
96.937
 21
97.501
  0
LINE
  8
0
 10
5.487
 11
5.125
 20
97.501
 21
98.212
  0
LINE
  8
0
 10
5.125
 11
5
 20
98.212
 21
99
  0
LINE
  8
0
 10
5
 11
5.125
 20
344.333
 21
345.121
  0
LINE
  8
0
 10
5.125
 11
5.487
 20
345.121
 21
345.832
  0
LINE
  8
0
 10
5.487
 11
6.051
 20
345.832
 21
346.396
  0
LINE
  8
0
 10
6.051
 11
6.762
 20
346.396
 21
346.758
  0
LINE
  8
0
 10
6.762
 11
7.55
 20
346.758
 21
346.883
  0
LINE
  8
0
 10
7.55
 11
10.45
 20
346.883
 21
346.883
  0
LINE
  8
0
 10
10.45
 11
11.238
 20
346.883
 21
346.758
  0
LINE
  8
0
 10
11.238
 11
11.949
 20
346.758
 21
346.396
  0
LINE
  8
0
 10
11.949
 11
12.513
 20
346.396
 21
345.832
  0
LINE
  8
0
 10
12.513
 11
12.875
 20
345.832
 21
345.121
  0
LINE
  8
0
 10
12.875
 11
13
 20
345.121
 21
344.333
  0
LINE
  8
0
 10
13
 11
12.875
 20
344.333
 21
343.545
  0
LINE
  8
0
 10
12.875
 11
12.513
 20
343.545
 21
342.834
  0
LINE
  8
0
 10
12.513
 11
11.949
 20
342.834
 21
342.27
  0
LINE
  8
0
 10
11.949
 11
11.238
 20
342.27
 21
341.908
  0
LINE
  8
0
 10
11.238
 11
10.45
 20
341.908
 21
341.783
  0
LINE
  8
0
 10
10.45
 11
7.55
 20
341.783
 21
341.783
  0
LINE
  8
0
 10
7.55
 11
6.762
 20
341.783
 21
341.908
  0
LINE
  8
0
 10
6.762
 11
6.051
 20
341.908
 21
342.27
  0
LINE
  8
0
 10
6.051
 11
5.487
 20
342.27
 21
342.834
  0
LINE
  8
0
 10
5.487
 11
5.125
 20
342.834
 21
343.545
  0
LINE
  8
0
 10
5.125
 11
5
 20
343.545
 21
344.333
  0
LINE
  8
0
 10
5
 11
5.125
 20
589.667
 21
590.455
  0
LINE
  8
0
 10
5.125
 11
5.487
 20
590.455
 21
591.166
  0
LINE
  8
0
 10
5.487
 11
6.051
 20
591.166
 21
591.73
  0
LINE
  8
0
 10
6.051
 11
6.762
 20
591.73
 21
592.092
  0
LINE
  8
0
 10
6.762
 11
7.55
 20
592.092
 21
592.217
  0
LINE
  8
0
 10
7.55
 11
10.45
 20
592.217
 21
592.217
  0
LINE
  8
0
 10
10.45
 11
11.238
 20
592.217
 21
592.092
  0
LINE
  8
0
 10
11.238
 11
11.949
 20
592.092
 21
591.73
  0
LINE
  8
0
 10
11.949
 11
12.513
 20
591.73
 21
591.166
  0
LINE
  8
0
 10
12.513
 11
12.875
 20
591.166
 21
590.455
  0
LINE
  8
0
 10
12.875
 11
13
 20
590.455
 21
589.667
  0
LINE
  8
0
 10
13
 11
12.875
 20
589.667
 21
588.879
  0
LINE
  8
0
 10
12.875
 11
12.513
 20
588.879
 21
588.168
  0
LINE
  8
0
 10
12.513
 11
11.949
 20
588.168
 21
587.604
  0
LINE
  8
0
 10
11.949
 11
11.238
 20
587.604
 21
587.242
  0
LINE
  8
0
 10
11.238
 11
10.45
 20
587.242
 21
587.117
  0
LINE
  8
0
 10
10.45
 11
7.55
 20
587.117
 21
587.117
  0
LINE
  8
0
 10
7.55
 11
6.762
 20
587.117
 21
587.242
  0
LINE
  8
0
 10
6.762
 11
6.051
 20
587.242
 21
587.604
  0
LINE
  8
0
 10
6.051
 11
5.487
 20
587.604
 21
588.168
  0
LINE
  8
0
 10
5.487
 11
5.125
 20
588.168
 21
588.879
  0
LINE
  8
0
 10
5.125
 11
5
 20
588.879
 21
589.667
  0
LINE
  8
0
 10
5
 11
5.125
 20
835
 21
835.788
  0
LINE
  8
0
 10
5.125
 11
5.487
 20
835.788
 21
836.499
  0
LINE
  8
0
 10
5.487
 11
6.051
 20
836.499
 21
837.063
  0
LINE
  8
0
 10
6.051
 11
6.762
 20
837.063
 21
837.425
  0
LINE
  8
0
 10
6.762
 11
7.55
 20
837.425
 21
837.55
  0
LINE
  8
0
 10
7.55
 11
10.45
 20
837.55
 21
837.55
  0
LINE
  8
0
 10
10.45
 11
11.238
 20
837.55
 21
837.425
  0
LINE
  8
0
 10
11.238
 11
11.949
 20
837.425
 21
837.063
  0
LINE
  8
0
 10
11.949
 11
12.513
 20
837.063
 21
836.499
  0
LINE
  8
0
 10
12.513
 11
12.875
 20
836.499
 21
835.788
  0
LINE
  8
0
 10
12.875
 11
13
 20
835.788
 21
835
  0
LINE
  8
0
 10
13
 11
12.875
 20
835
 21
834.212
  0
LINE
  8
0
 10
12.875
 11
12.513
 20
834.212
 21
833.501
  0
LINE
  8
0
 10
12.513
 11
11.949
 20
833.501
 21
832.937
  0
LINE
  8
0
 10
11.949
 11
11.238
 20
832.937
 21
832.575
  0
LINE
  8
0
 10
11.238
 11
10.45
 20
832.575
 21
832.45
  0
LINE
  8
0
 10
10.45
 11
7.55
 20
832.45
 21
832.45
  0
LINE
  8
0
 10
7.55
 11
6.762
 20
832.45
 21
832.575
  0
LINE
  8
0
 10
6.762
 11
6.051
 20
832.575
 21
832.937
  0
LINE
  8
0
 10
6.051
 11
5.487
 20
832.937
 21
833.501
  0
LINE
  8
0
 10
5.487
 11
5.125
 20
833.501
 21
834.212
  0
LINE
  8
0
 10
5.125
 11
5
 20
834.212
 21
835
  0
LINE
  8
0
 10
5
 11
5.123
 20
1385.3
 21
1386.08
  0
LINE
  8
0
 10
5.123
 11
5.481
 20
1386.08
 21
1386.78
  0
LINE
  8
0
 10
5.481
 11
6.039
 20
1386.78
 21
1387.34
  0
LINE
  8
0
 10
6.039
 11
6.741
 20
1387.34
 21
1387.7
  0
LINE
  8
0
 10
6.741
 11
7.52
 20
1387.7
 21
1387.82
  0
LINE
  8
0
 10
7.52
 11
10.48
 20
1387.82
 21
1387.82
  0
LINE
  8
0
 10
10.48
 11
11.259
 20
1387.82
 21
1387.7
  0
LINE
  8
0
 10
11.259
 11
11.961
 20
1387.7
 21
1387.34
  0
LINE
  8
0
 10
11.961
 11
12.519
 20
1387.34
 21
1386.78
  0
LINE
  8
0
 10
12.519
 11
12.877
 20
1386.78
 21
1386.08
  0
LINE
  8
0
 10
12.877
 11
13
 20
1386.08
 21
1385.3
  0
LINE
  8
0
 10
13
 11
12.877
 20
1385.3
 21
1384.52
  0
LINE
  8
0
 10
12.877
 11
12.519
 20
1384.52
 21
1383.82
  0
LINE
  8
0
 10
12.519
 11
11.961
 20
1383.82
 21
1383.26
  0
LINE
  8
0
 10
11.961
 11
11.259
 20
1383.26
 21
1382.9
  0
LINE
  8
0
 10
11.259
 11
10.48
 20
1382.9
 21
1382.78
  0
LINE
  8
0
 10
10.48
 11
7.52
 20
1382.78
 21
1382.78
  0
LINE
  8
0
 10
7.52
 11
6.741
 20
1382.78
 21
1382.9
  0
LINE
  8
0
 10
6.741
 11
6.039
 20
1382.9
 21
1383.26
  0
LINE
  8
0
 10
6.039
 11
5.481
 20
1383.26
 21
1383.82
  0
LINE
  8
0
 10
5.481
 11
5.123
 20
1383.82
 21
1384.52
  0
LINE
  8
0
 10
5.123
 11
5
 20
1384.52
 21
1385.3
  0
LINE
  8
0
 10
5
 11
5.123
 20
1677.7
 21
1678.47
  0
LINE
  8
0
 10
5.123
 11
5.478
 20
1678.47
 21
1679.17
  0
LINE
  8
0
 10
5.478
 11
6.033
 20
1679.17
 21
1679.73
  0
LINE
  8
0
 10
6.033
 11
6.731
 20
1679.73
 21
1680.08
  0
LINE
  8
0
 10
6.731
 11
7.505
 20
1680.08
 21
1680.2
  0
LINE
  8
0
 10
7.505
 11
10.495
 20
1680.2
 21
1680.2
  0
LINE
  8
0
 10
10.495
 11
11.269
 20
1680.2
 21
1680.08
  0
LINE
  8
0
 10
11.269
 11
11.967
 20
1680.08
 21
1679.73
  0
LINE
  8
0
 10
11.967
 11
12.522
 20
1679.73
 21
1679.17
  0
LINE
  8
0
 10
12.522
 11
12.877
 20
1679.17
 21
1678.47
  0
LINE
  8
0
 10
12.877
 11
13
 20
1678.47
 21
1677.7
  0
LINE
  8
0
 10
13
 11
12.877
 20
1677.7
 21
1676.93
  0
LINE
  8
0
 10
12.877
 11
12.522
 20
1676.93
 21
1676.23
  0
LINE
  8
0
 10
12.522
 11
11.967
 20
1676.23
 21
1675.67
  0
LINE
  8
0
 10
11.967
 11
11.269
 20
1675.67
 21
1675.32
  0
LINE
  8
0
 10
11.269
 11
10.495
 20
1675.32
 21
1675.19
  0
LINE
  8
0
 10
10.495
 11
7.505
 20
1675.19
 21
1675.19
  0
LINE
  8
0
 10
7.505
 11
6.731
 20
1675.19
 21
1675.32
  0
LINE
  8
0
 10
6.731
 11
6.033
 20
1675.32
 21
1675.67
  0
LINE
  8
0
 10
6.033
 11
5.478
 20
1675.67
 21
1676.23
  0
LINE
  8
0
 10
5.478
 11
5.123
 20
1676.23
 21
1676.93
  0
LINE
  8
0
 10
5.123
 11
5
 20
1676.93
 21
1677.7
  0
LINE
  8
0
 10
5
 11
5.123
 20
1970.1
 21
1970.87
  0
LINE
  8
0
 10
5.123
 11
5.478
 20
1970.87
 21
1971.57
  0
LINE
  8
0
 10
5.478
 11
6.033
 20
1971.57
 21
1972.13
  0
LINE
  8
0
 10
6.033
 11
6.731
 20
1972.13
 21
1972.48
  0
LINE
  8
0
 10
6.731
 11
7.505
 20
1972.48
 21
1972.61
  0
LINE
  8
0
 10
7.505
 11
10.495
 20
1972.61
 21
1972.61
  0
LINE
  8
0
 10
10.495
 11
11.269
 20
1972.61
 21
1972.48
  0
LINE
  8
0
 10
11.269
 11
11.967
 20
1972.48
 21
1972.13
  0
LINE
  8
0
 10
11.967
 11
12.522
 20
1972.13
 21
1971.57
  0
LINE
  8
0
 10
12.522
 11
12.877
 20
1971.57
 21
1970.87
  0
LINE
  8
0
 10
12.877
 11
13
 20
1970.87
 21
1970.1
  0
LINE
  8
0
 10
13
 11
12.877
 20
1970.1
 21
1969.33
  0
LINE
  8
0
 10
12.877
 11
12.522
 20
1969.33
 21
1968.63
  0
LINE
  8
0
 10
12.522
 11
11.967
 20
1968.63
 21
1968.07
  0
LINE
  8
0
 10
11.967
 11
11.269
 20
1968.07
 21
1967.72
  0
LINE
  8
0
 10
11.269
 11
10.495
 20
1967.72
 21
1967.6
  0
LINE
  8
0
 10
10.495
 11
7.505
 20
1967.6
 21
1967.6
  0
LINE
  8
0
 10
7.505
 11
6.731
 20
1967.6
 21
1967.72
  0
LINE
  8
0
 10
6.731
 11
6.033
 20
1967.72
 21
1968.07
  0
LINE
  8
0
 10
6.033
 11
5.478
 20
1968.07
 21
1968.63
  0
LINE
  8
0
 10
5.478
 11
5.123
 20
1968.63
 21
1969.33
  0
LINE
  8
0
 10
5.123
 11
5
 20
1969.33
 21
1970.1
  0
LINE
  8
0
 10
6.502
 11
6.502
 20
1092.8
 21
1093
  0
LINE
  8
0
 10
6.502
 11
6.518
 20
1093
 21
1093.2
  0
LINE
  8
0
 10
6.518
 11
6.549
 20
1093.2
 21
1093.39
  0
LINE
  8
0
 10
6.549
 11
6.596
 20
1093.39
 21
1093.59
  0
LINE
  8
0
 10
6.596
 11
6.658
 20
1093.59
 21
1093.78
  0
LINE
  8
0
 10
6.658
 11
6.735
 20
1093.78
 21
1093.96
  0
LINE
  8
0
 10
6.735
 11
6.827
 20
1093.96
 21
1094.14
  0
LINE
  8
0
 10
6.827
 11
6.932
 20
1094.14
 21
1094.3
  0
LINE
  8
0
 10
6.932
 11
7.05
 20
1094.3
 21
1094.46
  0
LINE
  8
0
 10
7.05
 11
7.18
 20
1094.46
 21
1094.61
  0
LINE
  8
0
 10
7.18
 11
7.322
 20
1094.61
 21
1094.75
  0
LINE
  8
0
 10
7.322
 11
7.475
 20
1094.75
 21
1094.88
  0
LINE
  8
0
 10
7.475
 11
7.637
 20
1094.88
 21
1095
  0
LINE
  8
0
 10
7.637
 11
7.808
 20
1095
 21
1095.1
  0
LINE
  8
0
 10
7.808
 11
7.986
 20
1095.1
 21
1095.18
  0
LINE
  8
0
 10
7.986
 11
8.171
 20
1095.18
 21
1095.26
  0
LINE
  8
0
 10
8.171
 11
8.361
 20
1095.26
 21
1095.32
  0
LINE
  8
0
 10
8.361
 11
8.555
 20
1095.32
 21
1095.36
  0
LINE
  8
0
 10
8.555
 11
8.752
 20
1095.36
 21
1095.39
  0
LINE
  8
0
 10
8.752
 11
8.95
 20
1095.39
 21
1095.4
  0
LINE
  8
0
 10
8.95
 11
9.149
 20
1095.4
 21
1095.4
  0
LINE
  8
0
 10
9.149
 11
9.347
 20
1095.4
 21
1095.38
  0
LINE
  8
0
 10
9.347
 11
9.542
 20
1095.38
 21
1095.34
  0
LINE
  8
0
 10
9.542
 11
9.735
 20
1095.34
 21
1095.29
  0
LINE
  8
0
 10
9.735
 11
9.922
 20
1095.29
 21
1095.22
  0
LINE
  8
0
 10
9.922
 11
10.104
 20
1095.22
 21
1095.14
  0
LINE
  8
0
 10
10.104
 11
10.279
 20
1095.14
 21
1095.05
  0
LINE
  8
0
 10
10.279
 11
10.445
 20
1095.05
 21
1094.94
  0
LINE
  8
0
 10
10.445
 11
10.603
 20
1094.94
 21
1094.82
  0
LINE
  8
0
 10
10.603
 11
10.75
 20
1094.82
 21
1094.68
  0
LINE
  8
0
 10
10.75
 11
10.886
 20
1094.68
 21
1094.54
  0
LINE
  8
0
 10
10.886
 11
11.011
 20
1094.54
 21
1094.39
  0
LINE
  8
0
 10
11.011
 11
11.122
 20
1094.39
 21
1094.22
  0
LINE
  8
0
 10
11.122
 11
11.221
 20
1094.22
 21
1094.05
  0
LINE
  8
0
 10
11.221
 11
11.305
 20
1094.05
 21
1093.87
  0
LINE
  8
0
 10
11.305
 11
11.375
 20
1093.87
 21
1093.68
  0
LINE
  8
0
 10
11.375
 11
11.429
 20
1093.68
 21
1093.49
  0
LINE
  8
0
 10
11.429
 11
11.468
 20
1093.49
 21
1093.3
  0
LINE
  8
0
 10
11.468
 11
11.492
 20
1093.3
 21
1093.1
  0
LINE
  8
0
 10
11.492
 11
11.5
 20
1093.1
 21
1092.9
  0
LINE
  8
0
 10
11.5
 11
11.492
 20
1092.9
 21
1092.7
  0
LINE
  8
0
 10
11.492
 11
11.468
 20
1092.7
 21
1092.5
  0
LINE
  8
0
 10
11.468
 11
11.429
 20
1092.5
 21
1092.31
  0
LINE
  8
0
 10
11.429
 11
11.375
 20
1092.31
 21
1092.12
  0
LINE
  8
0
 10
11.375
 11
11.305
 20
1092.12
 21
1091.93
  0
LINE
  8
0
 10
11.305
 11
11.221
 20
1091.93
 21
1091.75
  0
LINE
  8
0
 10
11.221
 11
11.122
 20
1091.75
 21
1091.58
  0
LINE
  8
0
 10
11.122
 11
11.011
 20
1091.58
 21
1091.41
  0
LINE
  8
0
 10
11.011
 11
10.886
 20
1091.41
 21
1091.26
  0
LINE
  8
0
 10
10.886
 11
10.75
 20
1091.26
 21
1091.12
  0
LINE
  8
0
 10
10.75
 11
10.603
 20
1091.12
 21
1090.98
  0
LINE
  8
0
 10
10.603
 11
10.445
 20
1090.98
 21
1090.86
  0
LINE
  8
0
 10
10.445
 11
10.279
 20
1090.86
 21
1090.75
  0
LINE
  8
0
 10
10.279
 11
10.104
 20
1090.75
 21
1090.66
  0
LINE
  8
0
 10
10.104
 11
9.922
 20
1090.66
 21
1090.58
  0
LINE
  8
0
 10
9.922
 11
9.735
 20
1090.58
 21
1090.51
  0
LINE
  8
0
 10
9.735
 11
9.542
 20
1090.51
 21
1090.46
  0
LINE
  8
0
 10
9.542
 11
9.347
 20
1090.46
 21
1090.42
  0
LINE
  8
0
 10
9.347
 11
9.149
 20
1090.42
 21
1090.4
  0
LINE
  8
0
 10
9.149
 11
8.95
 20
1090.4
 21
1090.4
  0
LINE
  8
0
 10
8.95
 11
8.752
 20
1090.4
 21
1090.41
  0
LINE
  8
0
 10
8.752
 11
8.555
 20
1090.41
 21
1090.44
  0
LINE
  8
0
 10
8.555
 11
8.361
 20
1090.44
 21
1090.48
  0
LINE
  8
0
 10
8.361
 11
8.171
 20
1090.48
 21
1090.54
  0
LINE
  8
0
 10
8.171
 11
7.986
 20
1090.54
 21
1090.62
  0
LINE
  8
0
 10
7.986
 11
7.808
 20
1090.62
 21
1090.7
  0
LINE
  8
0
 10
7.808
 11
7.637
 20
1090.7
 21
1090.8
  0
LINE
  8
0
 10
7.637
 11
7.475
 20
1090.8
 21
1090.92
  0
LINE
  8
0
 10
7.475
 11
7.322
 20
1090.92
 21
1091.05
  0
LINE
  8
0
 10
7.322
 11
7.18
 20
1091.05
 21
1091.19
  0
LINE
  8
0
 10
7.18
 11
7.05
 20
1091.19
 21
1091.34
  0
LINE
  8
0
 10
7.05
 11
6.932
 20
1091.34
 21
1091.5
  0
LINE
  8
0
 10
6.932
 11
6.827
 20
1091.5
 21
1091.66
  0
LINE
  8
0
 10
6.827
 11
6.735
 20
1091.66
 21
1091.84
  0
LINE
  8
0
 10
6.735
 11
6.658
 20
1091.84
 21
1092.02
  0
LINE
  8
0
 10
6.658
 11
6.596
 20
1092.02
 21
1092.21
  0
LINE
  8
0
 10
6.596
 11
6.549
 20
1092.21
 21
1092.41
  0
LINE
  8
0
 10
6.549
 11
6.518
 20
1092.41
 21
1092.6
  0
LINE
  8
0
 10
6.518
 11
6.502
 20
1092.6
 21
1092.8
  0
LINE
  8
0
 10
6.502
 11
6.502
 20
1217.3
 21
1217.5
  0
LINE
  8
0
 10
6.502
 11
6.518
 20
1217.5
 21
1217.7
  0
LINE
  8
0
 10
6.518
 11
6.549
 20
1217.7
 21
1217.89
  0
LINE
  8
0
 10
6.549
 11
6.596
 20
1217.89
 21
1218.09
  0
LINE
  8
0
 10
6.596
 11
6.658
 20
1218.09
 21
1218.28
  0
LINE
  8
0
 10
6.658
 11
6.735
 20
1218.28
 21
1218.46
  0
LINE
  8
0
 10
6.735
 11
6.827
 20
1218.46
 21
1218.64
  0
LINE
  8
0
 10
6.827
 11
6.932
 20
1218.64
 21
1218.8
  0
LINE
  8
0
 10
6.932
 11
7.05
 20
1218.8
 21
1218.96
  0
LINE
  8
0
 10
7.05
 11
7.18
 20
1218.96
 21
1219.11
  0
LINE
  8
0
 10
7.18
 11
7.322
 20
1219.11
 21
1219.25
  0
LINE
  8
0
 10
7.322
 11
7.475
 20
1219.25
 21
1219.38
  0
LINE
  8
0
 10
7.475
 11
7.637
 20
1219.38
 21
1219.5
  0
LINE
  8
0
 10
7.637
 11
7.808
 20
1219.5
 21
1219.6
  0
LINE
  8
0
 10
7.808
 11
7.986
 20
1219.6
 21
1219.68
  0
LINE
  8
0
 10
7.986
 11
8.171
 20
1219.68
 21
1219.76
  0
LINE
  8
0
 10
8.171
 11
8.361
 20
1219.76
 21
1219.82
  0
LINE
  8
0
 10
8.361
 11
8.555
 20
1219.82
 21
1219.86
  0
LINE
  8
0
 10
8.555
 11
8.752
 20
1219.86
 21
1219.89
  0
LINE
  8
0
 10
8.752
 11
8.95
 20
1219.89
 21
1219.9
  0
LINE
  8
0
 10
8.95
 11
9.149
 20
1219.9
 21
1219.9
  0
LINE
  8
0
 10
9.149
 11
9.347
 20
1219.9
 21
1219.88
  0
LINE
  8
0
 10
9.347
 11
9.542
 20
1219.88
 21
1219.84
  0
LINE
  8
0
 10
9.542
 11
9.735
 20
1219.84
 21
1219.79
  0
LINE
  8
0
 10
9.735
 11
9.922
 20
1219.79
 21
1219.72
  0
LINE
  8
0
 10
9.922
 11
10.104
 20
1219.72
 21
1219.64
  0
LINE
  8
0
 10
10.104
 11
10.279
 20
1219.64
 21
1219.55
  0
LINE
  8
0
 10
10.279
 11
10.445
 20
1219.55
 21
1219.44
  0
LINE
  8
0
 10
10.445
 11
10.603
 20
1219.44
 21
1219.32
  0
LINE
  8
0
 10
10.603
 11
10.75
 20
1219.32
 21
1219.18
  0
LINE
  8
0
 10
10.75
 11
10.886
 20
1219.18
 21
1219.04
  0
LINE
  8
0
 10
10.886
 11
11.011
 20
1219.04
 21
1218.89
  0
LINE
  8
0
 10
11.011
 11
11.122
 20
1218.89
 21
1218.72
  0
LINE
  8
0
 10
11.122
 11
11.221
 20
1218.72
 21
1218.55
  0
LINE
  8
0
 10
11.221
 11
11.305
 20
1218.55
 21
1218.37
  0
LINE
  8
0
 10
11.305
 11
11.375
 20
1218.37
 21
1218.18
  0
LINE
  8
0
 10
11.375
 11
11.429
 20
1218.18
 21
1217.99
  0
LINE
  8
0
 10
11.429
 11
11.468
 20
1217.99
 21
1217.8
  0
LINE
  8
0
 10
11.468
 11
11.492
 20
1217.8
 21
1217.6
  0
LINE
  8
0
 10
11.492
 11
11.5
 20
1217.6
 21
1217.4
  0
LINE
  8
0
 10
11.5
 11
11.492
 20
1217.4
 21
1217.2
  0
LINE
  8
0
 10
11.492
 11
11.468
 20
1217.2
 21
1217
  0
LINE
  8
0
 10
11.468
 11
11.429
 20
1217
 21
1216.81
  0
LINE
  8
0
 10
11.429
 11
11.375
 20
1216.81
 21
1216.62
  0
LINE
  8
0
 10
11.375
 11
11.305
 20
1216.62
 21
1216.43
  0
LINE
  8
0
 10
11.305
 11
11.221
 20
1216.43
 21
1216.25
  0
LINE
  8
0
 10
11.221
 11
11.122
 20
1216.25
 21
1216.08
  0
LINE
  8
0
 10
11.122
 11
11.011
 20
1216.08
 21
1215.91
  0
LINE
  8
0
 10
11.011
 11
10.886
 20
1215.91
 21
1215.76
  0
LINE
  8
0
 10
10.886
 11
10.75
 20
1215.76
 21
1215.62
  0
LINE
  8
0
 10
10.75
 11
10.603
 20
1215.62
 21
1215.48
  0
LINE
  8
0
 10
10.603
 11
10.445
 20
1215.48
 21
1215.36
  0
LINE
  8
0
 10
10.445
 11
10.279
 20
1215.36
 21
1215.25
  0
LINE
  8
0
 10
10.279
 11
10.104
 20
1215.25
 21
1215.16
  0
LINE
  8
0
 10
10.104
 11
9.922
 20
1215.16
 21
1215.08
  0
LINE
  8
0
 10
9.922
 11
9.735
 20
1215.08
 21
1215.01
  0
LINE
  8
0
 10
9.735
 11
9.542
 20
1215.01
 21
1214.96
  0
LINE
  8
0
 10
9.542
 11
9.347
 20
1214.96
 21
1214.92
  0
LINE
  8
0
 10
9.347
 11
9.149
 20
1214.92
 21
1214.9
  0
LINE
  8
0
 10
9.149
 11
8.95
 20
1214.9
 21
1214.9
  0
LINE
  8
0
 10
8.95
 11
8.752
 20
1214.9
 21
1214.91
  0
LINE
  8
0
 10
8.752
 11
8.555
 20
1214.91
 21
1214.94
  0
LINE
  8
0
 10
8.555
 11
8.361
 20
1214.94
 21
1214.98
  0
LINE
  8
0
 10
8.361
 11
8.171
 20
1214.98
 21
1215.04
  0
LINE
  8
0
 10
8.171
 11
7.986
 20
1215.04
 21
1215.12
  0
LINE
  8
0
 10
7.986
 11
7.808
 20
1215.12
 21
1215.2
  0
LINE
  8
0
 10
7.808
 11
7.637
 20
1215.2
 21
1215.3
  0
LINE
  8
0
 10
7.637
 11
7.475
 20
1215.3
 21
1215.42
  0
LINE
  8
0
 10
7.475
 11
7.322
 20
1215.42
 21
1215.55
  0
LINE
  8
0
 10
7.322
 11
7.18
 20
1215.55
 21
1215.69
  0
LINE
  8
0
 10
7.18
 11
7.05
 20
1215.69
 21
1215.84
  0
LINE
  8
0
 10
7.05
 11
6.932
 20
1215.84
 21
1216
  0
LINE
  8
0
 10
6.932
 11
6.827
 20
1216
 21
1216.16
  0
LINE
  8
0
 10
6.827
 11
6.735
 20
1216.16
 21
1216.34
  0
LINE
  8
0
 10
6.735
 11
6.658
 20
1216.34
 21
1216.52
  0
LINE
  8
0
 10
6.658
 11
6.596
 20
1216.52
 21
1216.71
  0
LINE
  8
0
 10
6.596
 11
6.549
 20
1216.71
 21
1216.91
  0
LINE
  8
0
 10
6.549
 11
6.518
 20
1216.91
 21
1217.1
  0
LINE
  8
0
 10
6.518
 11
6.502
 20
1217.1
 21
1217.3
  0
LINE
  8
0
 10
6.502
 11
6.502
 20
2722.7
 21
2722.9
  0
LINE
  8
0
 10
6.502
 11
6.518
 20
2722.9
 21
2723.1
  0
LINE
  8
0
 10
6.518
 11
6.549
 20
2723.1
 21
2723.29
  0
LINE
  8
0
 10
6.549
 11
6.596
 20
2723.29
 21
2723.49
  0
LINE
  8
0
 10
6.596
 11
6.658
 20
2723.49
 21
2723.68
  0
LINE
  8
0
 10
6.658
 11
6.735
 20
2723.68
 21
2723.86
  0
LINE
  8
0
 10
6.735
 11
6.827
 20
2723.86
 21
2724.04
  0
LINE
  8
0
 10
6.827
 11
6.932
 20
2724.04
 21
2724.2
  0
LINE
  8
0
 10
6.932
 11
7.05
 20
2724.2
 21
2724.36
  0
LINE
  8
0
 10
7.05
 11
7.18
 20
2724.36
 21
2724.51
  0
LINE
  8
0
 10
7.18
 11
7.322
 20
2724.51
 21
2724.65
  0
LINE
  8
0
 10
7.322
 11
7.475
 20
2724.65
 21
2724.78
  0
LINE
  8
0
 10
7.475
 11
7.637
 20
2724.78
 21
2724.9
  0
LINE
  8
0
 10
7.637
 11
7.808
 20
2724.9
 21
2725
  0
LINE
  8
0
 10
7.808
 11
7.986
 20
2725
 21
2725.09
  0
LINE
  8
0
 10
7.986
 11
8.171
 20
2725.09
 21
2725.16
  0
LINE
  8
0
 10
8.171
 11
8.361
 20
2725.16
 21
2725.22
  0
LINE
  8
0
 10
8.361
 11
8.555
 20
2725.22
 21
2725.26
  0
LINE
  8
0
 10
8.555
 11
8.752
 20
2725.26
 21
2725.29
  0
LINE
  8
0
 10
8.752
 11
8.95
 20
2725.29
 21
2725.3
  0
LINE
  8
0
 10
8.95
 11
9.149
 20
2725.3
 21
2725.3
  0
LINE
  8
0
 10
9.149
 11
9.347
 20
2725.3
 21
2725.28
  0
LINE
  8
0
 10
9.347
 11
9.542
 20
2725.28
 21
2725.24
  0
LINE
  8
0
 10
9.542
 11
9.735
 20
2725.24
 21
2725.19
  0
LINE
  8
0
 10
9.735
 11
9.922
 20
2725.19
 21
2725.12
  0
LINE
  8
0
 10
9.922
 11
10.104
 20
2725.12
 21
2725.04
  0
LINE
  8
0
 10
10.104
 11
10.279
 20
2725.04
 21
2724.95
  0
LINE
  8
0
 10
10.279
 11
10.445
 20
2724.95
 21
2724.84
  0
LINE
  8
0
 10
10.445
 11
10.603
 20
2724.84
 21
2724.72
  0
LINE
  8
0
 10
10.603
 11
10.75
 20
2724.72
 21
2724.59
  0
LINE
  8
0
 10
10.75
 11
10.886
 20
2724.59
 21
2724.44
  0
LINE
  8
0
 10
10.886
 11
11.011
 20
2724.44
 21
2724.29
  0
LINE
  8
0
 10
11.011
 11
11.122
 20
2724.29
 21
2724.12
  0
LINE
  8
0
 10
11.122
 11
11.221
 20
2724.12
 21
2723.95
  0
LINE
  8
0
 10
11.221
 11
11.305
 20
2723.95
 21
2723.77
  0
LINE
  8
0
 10
11.305
 11
11.375
 20
2723.77
 21
2723.58
  0
LINE
  8
0
 10
11.375
 11
11.429
 20
2723.58
 21
2723.39
  0
LINE
  8
0
 10
11.429
 11
11.468
 20
2723.39
 21
2723.2
  0
LINE
  8
0
 10
11.468
 11
11.492
 20
2723.2
 21
2723
  0
LINE
  8
0
 10
11.492
 11
11.5
 20
2723
 21
2722.8
  0
LINE
  8
0
 10
11.5
 11
11.492
 20
2722.8
 21
2722.6
  0
LINE
  8
0
 10
11.492
 11
11.468
 20
2722.6
 21
2722.4
  0
LINE
  8
0
 10
11.468
 11
11.429
 20
2722.4
 21
2722.21
  0
LINE
  8
0
 10
11.429
 11
11.375
 20
2722.21
 21
2722.02
  0
LINE
  8
0
 10
11.375
 11
11.305
 20
2722.02
 21
2721.83
  0
LINE
  8
0
 10
11.305
 11
11.221
 20
2721.83
 21
2721.65
  0
LINE
  8
0
 10
11.221
 11
11.122
 20
2721.65
 21
2721.48
  0
LINE
  8
0
 10
11.122
 11
11.011
 20
2721.48
 21
2721.31
  0
LINE
  8
0
 10
11.011
 11
10.886
 20
2721.31
 21
2721.16
  0
LINE
  8
0
 10
10.886
 11
10.75
 20
2721.16
 21
2721.01
  0
LINE
  8
0
 10
10.75
 11
10.603
 20
2721.01
 21
2720.88
  0
LINE
  8
0
 10
10.603
 11
10.445
 20
2720.88
 21
2720.76
  0
LINE
  8
0
 10
10.445
 11
10.279
 20
2720.76
 21
2720.65
  0
LINE
  8
0
 10
10.279
 11
10.104
 20
2720.65
 21
2720.56
  0
LINE
  8
0
 10
10.104
 11
9.922
 20
2720.56
 21
2720.48
  0
LINE
  8
0
 10
9.922
 11
9.735
 20
2720.48
 21
2720.41
  0
LINE
  8
0
 10
9.735
 11
9.542
 20
2720.41
 21
2720.36
  0
LINE
  8
0
 10
9.542
 11
9.347
 20
2720.36
 21
2720.32
  0
LINE
  8
0
 10
9.347
 11
9.149
 20
2720.32
 21
2720.3
  0
LINE
  8
0
 10
9.149
 11
8.95
 20
2720.3
 21
2720.3
  0
LINE
  8
0
 10
8.95
 11
8.752
 20
2720.3
 21
2720.31
  0
LINE
  8
0
 10
8.752
 11
8.555
 20
2720.31
 21
2720.34
  0
LINE
  8
0
 10
8.555
 11
8.361
 20
2720.34
 21
2720.38
  0
LINE
  8
0
 10
8.361
 11
8.171
 20
2720.38
 21
2720.44
  0
LINE
  8
0
 10
8.171
 11
7.986
 20
2720.44
 21
2720.51
  0
LINE
  8
0
 10
7.986
 11
7.808
 20
2720.51
 21
2720.6
  0
LINE
  8
0
 10
7.808
 11
7.637
 20
2720.6
 21
2720.7
  0
LINE
  8
0
 10
7.637
 11
7.475
 20
2720.7
 21
2720.82
  0
LINE
  8
0
 10
7.475
 11
7.322
 20
2720.82
 21
2720.95
  0
LINE
  8
0
 10
7.322
 11
7.18
 20
2720.95
 21
2721.09
  0
LINE
  8
0
 10
7.18
 11
7.05
 20
2721.09
 21
2721.24
  0
LINE
  8
0
 10
7.05
 11
6.932
 20
2721.24
 21
2721.4
  0
LINE
  8
0
 10
6.932
 11
6.827
 20
2721.4
 21
2721.56
  0
LINE
  8
0
 10
6.827
 11
6.735
 20
2721.56
 21
2721.74
  0
LINE
  8
0
 10
6.735
 11
6.658
 20
2721.74
 21
2721.92
  0
LINE
  8
0
 10
6.658
 11
6.596
 20
2721.92
 21
2722.11
  0
LINE
  8
0
 10
6.596
 11
6.549
 20
2722.11
 21
2722.31
  0
LINE
  8
0
 10
6.549
 11
6.518
 20
2722.31
 21
2722.5
  0
LINE
  8
0
 10
6.518
 11
6.502
 20
2722.5
 21
2722.7
  0
LINE
  8
0
 10
50
 11
50
 20
1122.4
 21
1178.4
  0
LINE
  8
0
 10
50
 11
50.098
 20
1178.4
 21
1179.02
  0
LINE
  8
0
 10
50.098
 11
50.382
 20
1179.02
 21
1179.58
  0
LINE
  8
0
 10
50.382
 11
50.824
 20
1179.58
 21
1180.02
  0
LINE
  8
0
 10
50.824
 11
51.382
 20
1180.02
 21
1180.3
  0
LINE
  8
0
 10
51.382
 11
52
 20
1180.3
 21
1180.4
  0
LINE
  8
0
 10
52
 11
52.618
 20
1180.4
 21
1180.3
  0
LINE
  8
0
 10
52.618
 11
53.176
 20
1180.3
 21
1180.02
  0
LINE
  8
0
 10
53.176
 11
53.618
 20
1180.02
 21
1179.58
  0
LINE
  8
0
 10
53.618
 11
53.902
 20
1179.58
 21
1179.02
  0
LINE
  8
0
 10
53.902
 11
54
 20
1179.02
 21
1178.4
  0
LINE
  8
0
 10
54
 11
54
 20
1178.4
 21
1122.4
  0
LINE
  8
0
 10
54
 11
53.902
 20
1122.4
 21
1121.78
  0
LINE
  8
0
 10
53.902
 11
53.618
 20
1121.78
 21
1121.22
  0
LINE
  8
0
 10
53.618
 11
53.176
 20
1121.22
 21
1120.78
  0
LINE
  8
0
 10
53.176
 11
52.618
 20
1120.78
 21
1120.5
  0
LINE
  8
0
 10
52.618
 11
52
 20
1120.5
 21
1120.4
  0
LINE
  8
0
 10
52
 11
51.382
 20
1120.4
 21
1120.5
  0
LINE
  8
0
 10
51.382
 11
50.824
 20
1120.5
 21
1120.78
  0
LINE
  8
0
 10
50.824
 11
50.382
 20
1120.78
 21
1121.22
  0
LINE
  8
0
 10
50.382
 11
50.098
 20
1121.22
 21
1121.78
  0
LINE
  8
0
 10
50.098
 11
50
 20
1121.78
 21
1122.4
  0
LINE
  8
0
 10
80.248
 11
80.248
 20
1122.4
 21
1178.4
  0
LINE
  8
0
 10
80.248
 11
80.346
 20
1178.4
 21
1179.02
  0
LINE
  8
0
 10
80.346
 11
80.63
 20
1179.02
 21
1179.58
  0
LINE
  8
0
 10
80.63
 11
81.072
 20
1179.58
 21
1180.02
  0
LINE
  8
0
 10
81.072
 11
81.63
 20
1180.02
 21
1180.3
  0
LINE
  8
0
 10
81.63
 11
82.248
 20
1180.3
 21
1180.4
  0
LINE
  8
0
 10
82.248
 11
82.866
 20
1180.4
 21
1180.3
  0
LINE
  8
0
 10
82.866
 11
83.424
 20
1180.3
 21
1180.02
  0
LINE
  8
0
 10
83.424
 11
83.866
 20
1180.02
 21
1179.58
  0
LINE
  8
0
 10
83.866
 11
84.15
 20
1179.58
 21
1179.02
  0
LINE
  8
0
 10
84.15
 11
84.248
 20
1179.02
 21
1178.4
  0
LINE
  8
0
 10
84.248
 11
84.248
 20
1178.4
 21
1122.4
  0
LINE
  8
0
 10
84.248
 11
84.15
 20
1122.4
 21
1121.78
  0
LINE
  8
0
 10
84.15
 11
83.866
 20
1121.78
 21
1121.22
  0
LINE
  8
0
 10
83.866
 11
83.424
 20
1121.22
 21
1120.78
  0
LINE
  8
0
 10
83.424
 11
82.866
 20
1120.78
 21
1120.5
  0
LINE
  8
0
 10
82.866
 11
82.248
 20
1120.5
 21
1120.4
  0
LINE
  8
0
 10
82.248
 11
81.63
 20
1120.4
 21
1120.5
  0
LINE
  8
0
 10
81.63
 11
81.072
 20
1120.5
 21
1120.78
  0
LINE
  8
0
 10
81.072
 11
80.63
 20
1120.78
 21
1121.22
  0
LINE
  8
0
 10
80.63
 11
80.346
 20
1121.22
 21
1121.78
  0
LINE
  8
0
 10
80.346
 11
80.248
 20
1121.78
 21
1122.4
  0
LINE
  8
0
 10
96.45
 11
96.45
 20
7.55
 21
10.45
  0
LINE
  8
0
 10
96.45
 11
96.575
 20
10.45
 21
11.238
  0
LINE
  8
0
 10
96.575
 11
96.937
 20
11.238
 21
11.949
  0
LINE
  8
0
 10
96.937
 11
97.501
 20
11.949
 21
12.513
  0
LINE
  8
0
 10
97.501
 11
98.212
 20
12.513
 21
12.875
  0
LINE
  8
0
 10
98.212
 11
99
 20
12.875
 21
13
  0
LINE
  8
0
 10
99
 11
99.788
 20
13
 21
12.875
  0
LINE
  8
0
 10
99.788
 11
100.499
 20
12.875
 21
12.513
  0
LINE
  8
0
 10
100.499
 11
101.063
 20
12.513
 21
11.949
  0
LINE
  8
0
 10
101.063
 11
101.425
 20
11.949
 21
11.238
  0
LINE
  8
0
 10
101.425
 11
101.55
 20
11.238
 21
10.45
  0
LINE
  8
0
 10
101.55
 11
101.55
 20
10.45
 21
7.55
  0
LINE
  8
0
 10
101.55
 11
101.425
 20
7.55
 21
6.762
  0
LINE
  8
0
 10
101.425
 11
101.063
 20
6.762
 21
6.051
  0
LINE
  8
0
 10
101.063
 11
100.499
 20
6.051
 21
5.487
  0
LINE
  8
0
 10
100.499
 11
99.788
 20
5.487
 21
5.125
  0
LINE
  8
0
 10
99.788
 11
99
 20
5.125
 21
5
  0
LINE
  8
0
 10
99
 11
98.212
 20
5
 21
5.125
  0
LINE
  8
0
 10
98.212
 11
97.501
 20
5.125
 21
5.487
  0
LINE
  8
0
 10
97.501
 11
96.937
 20
5.487
 21
6.051
  0
LINE
  8
0
 10
96.937
 11
96.575
 20
6.051
 21
6.762
  0
LINE
  8
0
 10
96.575
 11
96.45
 20
6.762
 21
7.55
  0
LINE
  8
0
 10
96.45
 11
96.45
 20
923.55
 21
926.45
  0
LINE
  8
0
 10
96.45
 11
96.575
 20
926.45
 21
927.238
  0
LINE
  8
0
 10
96.575
 11
96.937
 20
927.238
 21
927.949
  0
LINE
  8
0
 10
96.937
 11
97.501
 20
927.949
 21
928.513
  0
LINE
  8
0
 10
97.501
 11
98.212
 20
928.513
 21
928.875
  0
LINE
  8
0
 10
98.212
 11
99
 20
928.875
 21
929
  0
LINE
  8
0
 10
99
 11
99.788
 20
929
 21
928.875
  0
LINE
  8
0
 10
99.788
 11
100.499
 20
928.875
 21
928.513
  0
LINE
  8
0
 10
100.499
 11
101.063
 20
928.513
 21
927.949
  0
LINE
  8
0
 10
101.063
 11
101.425
 20
927.949
 21
927.238
  0
LINE
  8
0
 10
101.425
 11
101.55
 20
927.238
 21
926.45
  0
LINE
  8
0
 10
101.55
 11
101.55
 20
926.45
 21
923.55
  0
LINE
  8
0
 10
101.55
 11
101.425
 20
923.55
 21
922.762
  0
LINE
  8
0
 10
101.425
 11
101.063
 20
922.762
 21
922.051
  0
LINE
  8
0
 10
101.063
 11
100.499
 20
922.051
 21
921.487
  0
LINE
  8
0
 10
100.499
 11
99.788
 20
921.487
 21
921.125
  0
LINE
  8
0
 10
99.788
 11
99
 20
921.125
 21
921
  0
LINE
  8
0
 10
99
 11
98.212
 20
921
 21
921.125
  0
LINE
  8
0
 10
98.212
 11
97.501
 20
921.125
 21
921.487
  0
LINE
  8
0
 10
97.501
 11
96.937
 20
921.487
 21
922.051
  0
LINE
  8
0
 10
96.937
 11
96.575
 20
922.051
 21
922.762
  0
LINE
  8
0
 10
96.575
 11
96.45
 20
922.762
 21
923.55
  0
LINE
  8
0
 10
96.48
 11
96.48
 20
1259.32
 21
1262.28
  0
LINE
  8
0
 10
96.48
 11
96.603
 20
1262.28
 21
1263.06
  0
LINE
  8
0
 10
96.603
 11
96.961
 20
1263.06
 21
1263.76
  0
LINE
  8
0
 10
96.961
 11
97.519
 20
1263.76
 21
1264.32
  0
LINE
  8
0
 10
97.519
 11
98.221
 20
1264.32
 21
1264.68
  0
LINE
  8
0
 10
98.221
 11
99
 20
1264.68
 21
1264.8
  0
LINE
  8
0
 10
99
 11
99.779
 20
1264.8
 21
1264.68
  0
LINE
  8
0
 10
99.779
 11
100.481
 20
1264.68
 21
1264.32
  0
LINE
  8
0
 10
100.481
 11
101.039
 20
1264.32
 21
1263.76
  0
LINE
  8
0
 10
101.039
 11
101.397
 20
1263.76
 21
1263.06
  0
LINE
  8
0
 10
101.397
 11
101.52
 20
1263.06
 21
1262.28
  0
LINE
  8
0
 10
101.52
 11
101.52
 20
1262.28
 21
1259.32
  0
LINE
  8
0
 10
101.52
 11
101.397
 20
1259.32
 21
1258.54
  0
LINE
  8
0
 10
101.397
 11
101.039
 20
1258.54
 21
1257.84
  0
LINE
  8
0
 10
101.039
 11
100.481
 20
1257.84
 21
1257.28
  0
LINE
  8
0
 10
100.481
 11
99.779
 20
1257.28
 21
1256.92
  0
LINE
  8
0
 10
99.779
 11
99
 20
1256.92
 21
1256.8
  0
LINE
  8
0
 10
99
 11
98.221
 20
1256.8
 21
1256.92
  0
LINE
  8
0
 10
98.221
 11
97.519
 20
1256.92
 21
1257.28
  0
LINE
  8
0
 10
97.519
 11
96.961
 20
1257.28
 21
1257.84
  0
LINE
  8
0
 10
96.961
 11
96.603
 20
1257.84
 21
1258.54
  0
LINE
  8
0
 10
96.603
 11
96.48
 20
1258.54
 21
1259.32
  0
LINE
  8
0
 10
96.48
 11
96.48
 20
1508.32
 21
1511.28
  0
LINE
  8
0
 10
96.48
 11
96.603
 20
1511.28
 21
1512.06
  0
LINE
  8
0
 10
96.603
 11
96.961
 20
1512.06
 21
1512.76
  0
LINE
  8
0
 10
96.961
 11
97.519
 20
1512.76
 21
1513.32
  0
LINE
  8
0
 10
97.519
 11
98.221
 20
1513.32
 21
1513.68
  0
LINE
  8
0
 10
98.221
 11
99
 20
1513.68
 21
1513.8
  0
LINE
  8
0
 10
99
 11
99.779
 20
1513.8
 21
1513.68
  0
LINE
  8
0
 10
99.779
 11
100.481
 20
1513.68
 21
1513.32
  0
LINE
  8
0
 10
100.481
 11
101.039
 20
1513.32
 21
1512.76
  0
LINE
  8
0
 10
101.039
 11
101.397
 20
1512.76
 21
1512.06
  0
LINE
  8
0
 10
101.397
 11
101.52
 20
1512.06
 21
1511.28
  0
LINE
  8
0
 10
101.52
 11
101.52
 20
1511.28
 21
1508.32
  0
LINE
  8
0
 10
101.52
 11
101.397
 20
1508.32
 21
1507.54
  0
LINE
  8
0
 10
101.397
 11
101.039
 20
1507.54
 21
1506.84
  0
LINE
  8
0
 10
101.039
 11
100.481
 20
1506.84
 21
1506.28
  0
LINE
  8
0
 10
100.481
 11
99.779
 20
1506.28
 21
1505.92
  0
LINE
  8
0
 10
99.779
 11
99
 20
1505.92
 21
1505.8
  0
LINE
  8
0
 10
99
 11
98.221
 20
1505.8
 21
1505.92
  0
LINE
  8
0
 10
98.221
 11
97.519
 20
1505.92
 21
1506.28
  0
LINE
  8
0
 10
97.519
 11
96.961
 20
1506.28
 21
1506.84
  0
LINE
  8
0
 10
96.961
 11
96.603
 20
1506.84
 21
1507.54
  0
LINE
  8
0
 10
96.603
 11
96.48
 20
1507.54
 21
1508.32
  0
LINE
  8
0
 10
96.502
 11
96.502
 20
968.301
 21
968.499
  0
LINE
  8
0
 10
96.502
 11
96.518
 20
968.499
 21
968.698
  0
LINE
  8
0
 10
96.518
 11
96.549
 20
968.698
 21
968.894
  0
LINE
  8
0
 10
96.549
 11
96.596
 20
968.894
 21
969.087
  0
LINE
  8
0
 10
96.596
 11
96.658
 20
969.087
 21
969.276
  0
LINE
  8
0
 10
96.658
 11
96.735
 20
969.276
 21
969.459
  0
LINE
  8
0
 10
96.735
 11
96.827
 20
969.459
 21
969.636
  0
LINE
  8
0
 10
96.827
 11
96.932
 20
969.636
 21
969.804
  0
LINE
  8
0
 10
96.932
 11
97.05
 20
969.804
 21
969.964
  0
LINE
  8
0
 10
97.05
 11
97.18
 20
969.964
 21
970.114
  0
LINE
  8
0
 10
97.18
 11
97.322
 20
970.114
 21
970.253
  0
LINE
  8
0
 10
97.322
 11
97.475
 20
970.253
 21
970.381
  0
LINE
  8
0
 10
97.475
 11
97.637
 20
970.381
 21
970.496
  0
LINE
  8
0
 10
97.637
 11
97.808
 20
970.496
 21
970.597
  0
LINE
  8
0
 10
97.808
 11
97.986
 20
970.597
 21
970.685
  0
LINE
  8
0
 10
97.986
 11
98.171
 20
970.685
 21
970.759
  0
LINE
  8
0
 10
98.171
 11
98.361
 20
970.759
 21
970.817
  0
LINE
  8
0
 10
98.361
 11
98.555
 20
970.817
 21
970.86
  0
LINE
  8
0
 10
98.555
 11
98.752
 20
970.86
 21
970.888
  0
LINE
  8
0
 10
98.752
 11
98.95
 20
970.888
 21
970.9
  0
LINE
  8
0
 10
98.95
 11
99.149
 20
970.9
 21
970.896
  0
LINE
  8
0
 10
99.149
 11
99.347
 20
970.896
 21
970.876
  0
LINE
  8
0
 10
99.347
 11
99.542
 20
970.876
 21
970.84
  0
LINE
  8
0
 10
99.542
 11
99.735
 20
970.84
 21
970.79
  0
LINE
  8
0
 10
99.735
 11
99.922
 20
970.79
 21
970.724
  0
LINE
  8
0
 10
99.922
 11
100.104
 20
970.724
 21
970.643
  0
LINE
  8
0
 10
100.104
 11
100.279
 20
970.643
 21
970.548
  0
LINE
  8
0
 10
100.279
 11
100.445
 20
970.548
 21
970.44
  0
LINE
  8
0
 10
100.445
 11
100.603
 20
970.44
 21
970.319
  0
LINE
  8
0
 10
100.603
 11
100.75
 20
970.319
 21
970.185
  0
LINE
  8
0
 10
100.75
 11
100.886
 20
970.185
 21
970.041
  0
LINE
  8
0
 10
100.886
 11
101.011
 20
970.041
 21
969.886
  0
LINE
  8
0
 10
101.011
 11
101.122
 20
969.886
 21
969.721
  0
LINE
  8
0
 10
101.122
 11
101.221
 20
969.721
 21
969.548
  0
LINE
  8
0
 10
101.221
 11
101.305
 20
969.548
 21
969.368
  0
LINE
  8
0
 10
101.305
 11
101.375
 20
969.368
 21
969.182
  0
LINE
  8
0
 10
101.375
 11
101.429
 20
969.182
 21
968.991
  0
LINE
  8
0
 10
101.429
 11
101.468
 20
968.991
 21
968.796
  0
LINE
  8
0
 10
101.468
 11
101.492
 20
968.796
 21
968.599
  0
LINE
  8
0
 10
101.492
 11
101.5
 20
968.599
 21
968.4
  0
LINE
  8
0
 10
101.5
 11
101.492
 20
968.4
 21
968.201
  0
LINE
  8
0
 10
101.492
 11
101.468
 20
968.201
 21
968.004
  0
LINE
  8
0
 10
101.468
 11
101.429
 20
968.004
 21
967.809
  0
LINE
  8
0
 10
101.429
 11
101.375
 20
967.809
 21
967.618
  0
LINE
  8
0
 10
101.375
 11
101.305
 20
967.618
 21
967.432
  0
LINE
  8
0
 10
101.305
 11
101.221
 20
967.432
 21
967.252
  0
LINE
  8
0
 10
101.221
 11
101.122
 20
967.252
 21
967.079
  0
LINE
  8
0
 10
101.122
 11
101.011
 20
967.079
 21
966.914
  0
LINE
  8
0
 10
101.011
 11
100.886
 20
966.914
 21
966.759
  0
LINE
  8
0
 10
100.886
 11
100.75
 20
966.759
 21
966.615
  0
LINE
  8
0
 10
100.75
 11
100.603
 20
966.615
 21
966.481
  0
LINE
  8
0
 10
100.603
 11
100.445
 20
966.481
 21
966.36
  0
LINE
  8
0
 10
100.445
 11
100.279
 20
966.36
 21
966.252
  0
LINE
  8
0
 10
100.279
 11
100.104
 20
966.252
 21
966.157
  0
LINE
  8
0
 10
100.104
 11
99.922
 20
966.157
 21
966.076
  0
LINE
  8
0
 10
99.922
 11
99.735
 20
966.076
 21
966.01
  0
LINE
  8
0
 10
99.735
 11
99.542
 20
966.01
 21
965.96
  0
LINE
  8
0
 10
99.542
 11
99.347
 20
965.96
 21
965.924
  0
LINE
  8
0
 10
99.347
 11
99.149
 20
965.924
 21
965.904
  0
LINE
  8
0
 10
99.149
 11
98.95
 20
965.904
 21
965.9
  0
LINE
  8
0
 10
98.95
 11
98.752
 20
965.9
 21
965.912
  0
LINE
  8
0
 10
98.752
 11
98.555
 20
965.912
 21
965.94
  0
LINE
  8
0
 10
98.555
 11
98.361
 20
965.94
 21
965.983
  0
LINE
  8
0
 10
98.361
 11
98.171
 20
965.983
 21
966.041
  0
LINE
  8
0
 10
98.171
 11
97.986
 20
966.041
 21
966.115
  0
LINE
  8
0
 10
97.986
 11
97.808
 20
966.115
 21
966.203
  0
LINE
  8
0
 10
97.808
 11
97.637
 20
966.203
 21
966.304
  0
LINE
  8
0
 10
97.637
 11
97.475
 20
966.304
 21
966.419
  0
LINE
  8
0
 10
97.475
 11
97.322
 20
966.419
 21
966.547
  0
LINE
  8
0
 10
97.322
 11
97.18
 20
966.547
 21
966.686
  0
LINE
  8
0
 10
97.18
 11
97.05
 20
966.686
 21
966.836
  0
LINE
  8
0
 10
97.05
 11
96.932
 20
966.836
 21
966.996
  0
LINE
  8
0
 10
96.932
 11
96.827
 20
966.996
 21
967.164
  0
LINE
  8
0
 10
96.827
 11
96.735
 20
967.164
 21
967.341
  0
LINE
  8
0
 10
96.735
 11
96.658
 20
967.341
 21
967.524
  0
LINE
  8
0
 10
96.658
 11
96.596
 20
967.524
 21
967.713
  0
LINE
  8
0
 10
96.596
 11
96.549
 20
967.713
 21
967.906
  0
LINE
  8
0
 10
96.549
 11
96.518
 20
967.906
 21
968.102
  0
LINE
  8
0
 10
96.518
 11
96.502
 20
968.102
 21
968.301
  0
LINE
  8
0
 10
96.502
 11
96.502
 20
1197.3
 21
1197.5
  0
LINE
  8
0
 10
96.502
 11
96.518
 20
1197.5
 21
1197.7
  0
LINE
  8
0
 10
96.518
 11
96.549
 20
1197.7
 21
1197.89
  0
LINE
  8
0
 10
96.549
 11
96.596
 20
1197.89
 21
1198.09
  0
LINE
  8
0
 10
96.596
 11
96.658
 20
1198.09
 21
1198.28
  0
LINE
  8
0
 10
96.658
 11
96.735
 20
1198.28
 21
1198.46
  0
LINE
  8
0
 10
96.735
 11
96.827
 20
1198.46
 21
1198.64
  0
LINE
  8
0
 10
96.827
 11
96.932
 20
1198.64
 21
1198.8
  0
LINE
  8
0
 10
96.932
 11
97.05
 20
1198.8
 21
1198.96
  0
LINE
  8
0
 10
97.05
 11
97.18
 20
1198.96
 21
1199.11
  0
LINE
  8
0
 10
97.18
 11
97.322
 20
1199.11
 21
1199.25
  0
LINE
  8
0
 10
97.322
 11
97.475
 20
1199.25
 21
1199.38
  0
LINE
  8
0
 10
97.475
 11
97.637
 20
1199.38
 21
1199.5
  0
LINE
  8
0
 10
97.637
 11
97.808
 20
1199.5
 21
1199.6
  0
LINE
  8
0
 10
97.808
 11
97.986
 20
1199.6
 21
1199.68
  0
LINE
  8
0
 10
97.986
 11
98.171
 20
1199.68
 21
1199.76
  0
LINE
  8
0
 10
98.171
 11
98.361
 20
1199.76
 21
1199.82
  0
LINE
  8
0
 10
98.361
 11
98.555
 20
1199.82
 21
1199.86
  0
LINE
  8
0
 10
98.555
 11
98.752
 20
1199.86
 21
1199.89
  0
LINE
  8
0
 10
98.752
 11
98.95
 20
1199.89
 21
1199.9
  0
LINE
  8
0
 10
98.95
 11
99.149
 20
1199.9
 21
1199.9
  0
LINE
  8
0
 10
99.149
 11
99.347
 20
1199.9
 21
1199.88
  0
LINE
  8
0
 10
99.347
 11
99.542
 20
1199.88
 21
1199.84
  0
LINE
  8
0
 10
99.542
 11
99.735
 20
1199.84
 21
1199.79
  0
LINE
  8
0
 10
99.735
 11
99.922
 20
1199.79
 21
1199.72
  0
LINE
  8
0
 10
99.922
 11
100.104
 20
1199.72
 21
1199.64
  0
LINE
  8
0
 10
100.104
 11
100.279
 20
1199.64
 21
1199.55
  0
LINE
  8
0
 10
100.279
 11
100.445
 20
1199.55
 21
1199.44
  0
LINE
  8
0
 10
100.445
 11
100.603
 20
1199.44
 21
1199.32
  0
LINE
  8
0
 10
100.603
 11
100.75
 20
1199.32
 21
1199.18
  0
LINE
  8
0
 10
100.75
 11
100.886
 20
1199.18
 21
1199.04
  0
LINE
  8
0
 10
100.886
 11
101.011
 20
1199.04
 21
1198.89
  0
LINE
  8
0
 10
101.011
 11
101.122
 20
1198.89
 21
1198.72
  0
LINE
  8
0
 10
101.122
 11
101.221
 20
1198.72
 21
1198.55
  0
LINE
  8
0
 10
101.221
 11
101.305
 20
1198.55
 21
1198.37
  0
LINE
  8
0
 10
101.305
 11
101.375
 20
1198.37
 21
1198.18
  0
LINE
  8
0
 10
101.375
 11
101.429
 20
1198.18
 21
1197.99
  0
LINE
  8
0
 10
101.429
 11
101.468
 20
1197.99
 21
1197.8
  0
LINE
  8
0
 10
101.468
 11
101.492
 20
1197.8
 21
1197.6
  0
LINE
  8
0
 10
101.492
 11
101.5
 20
1197.6
 21
1197.4
  0
LINE
  8
0
 10
101.5
 11
101.492
 20
1197.4
 21
1197.2
  0
LINE
  8
0
 10
101.492
 11
101.468
 20
1197.2
 21
1197
  0
LINE
  8
0
 10
101.468
 11
101.429
 20
1197
 21
1196.81
  0
LINE
  8
0
 10
101.429
 11
101.375
 20
1196.81
 21
1196.62
  0
LINE
  8
0
 10
101.375
 11
101.305
 20
1196.62
 21
1196.43
  0
LINE
  8
0
 10
101.305
 11
101.221
 20
1196.43
 21
1196.25
  0
LINE
  8
0
 10
101.221
 11
101.122
 20
1196.25
 21
1196.08
  0
LINE
  8
0
 10
101.122
 11
101.011
 20
1196.08
 21
1195.91
  0
LINE
  8
0
 10
101.011
 11
100.886
 20
1195.91
 21
1195.76
  0
LINE
  8
0
 10
100.886
 11
100.75
 20
1195.76
 21
1195.62
  0
LINE
  8
0
 10
100.75
 11
100.603
 20
1195.62
 21
1195.48
  0
LINE
  8
0
 10
100.603
 11
100.445
 20
1195.48
 21
1195.36
  0
LINE
  8
0
 10
100.445
 11
100.279
 20
1195.36
 21
1195.25
  0
LINE
  8
0
 10
100.279
 11
100.104
 20
1195.25
 21
1195.16
  0
LINE
  8
0
 10
100.104
 11
99.922
 20
1195.16
 21
1195.08
  0
LINE
  8
0
 10
99.922
 11
99.735
 20
1195.08
 21
1195.01
  0
LINE
  8
0
 10
99.735
 11
99.542
 20
1195.01
 21
1194.96
  0
LINE
  8
0
 10
99.542
 11
99.347
 20
1194.96
 21
1194.92
  0
LINE
  8
0
 10
99.347
 11
99.149
 20
1194.92
 21
1194.9
  0
LINE
  8
0
 10
99.149
 11
98.95
 20
1194.9
 21
1194.9
  0
LINE
  8
0
 10
98.95
 11
98.752
 20
1194.9
 21
1194.91
  0
LINE
  8
0
 10
98.752
 11
98.555
 20
1194.91
 21
1194.94
  0
LINE
  8
0
 10
98.555
 11
98.361
 20
1194.94
 21
1194.98
  0
LINE
  8
0
 10
98.361
 11
98.171
 20
1194.98
 21
1195.04
  0
LINE
  8
0
 10
98.171
 11
97.986
 20
1195.04
 21
1195.12
  0
LINE
  8
0
 10
97.986
 11
97.808
 20
1195.12
 21
1195.2
  0
LINE
  8
0
 10
97.808
 11
97.637
 20
1195.2
 21
1195.3
  0
LINE
  8
0
 10
97.637
 11
97.475
 20
1195.3
 21
1195.42
  0
LINE
  8
0
 10
97.475
 11
97.322
 20
1195.42
 21
1195.55
  0
LINE
  8
0
 10
97.322
 11
97.18
 20
1195.55
 21
1195.69
  0
LINE
  8
0
 10
97.18
 11
97.05
 20
1195.69
 21
1195.84
  0
LINE
  8
0
 10
97.05
 11
96.932
 20
1195.84
 21
1196
  0
LINE
  8
0
 10
96.932
 11
96.827
 20
1196
 21
1196.16
  0
LINE
  8
0
 10
96.827
 11
96.735
 20
1196.16
 21
1196.34
  0
LINE
  8
0
 10
96.735
 11
96.658
 20
1196.34
 21
1196.52
  0
LINE
  8
0
 10
96.658
 11
96.596
 20
1196.52
 21
1196.71
  0
LINE
  8
0
 10
96.596
 11
96.549
 20
1196.71
 21
1196.91
  0
LINE
  8
0
 10
96.549
 11
96.518
 20
1196.91
 21
1197.1
  0
LINE
  8
0
 10
96.518
 11
96.502
 20
1197.1
 21
1197.3
  0
LINE
  8
0
 10
96.502
 11
96.502
 20
2137.9
 21
2138.1
  0
LINE
  8
0
 10
96.502
 11
96.518
 20
2138.1
 21
2138.3
  0
LINE
  8
0
 10
96.518
 11
96.549
 20
2138.3
 21
2138.49
  0
LINE
  8
0
 10
96.549
 11
96.596
 20
2138.49
 21
2138.69
  0
LINE
  8
0
 10
96.596
 11
96.658
 20
2138.69
 21
2138.88
  0
LINE
  8
0
 10
96.658
 11
96.735
 20
2138.88
 21
2139.06
  0
LINE
  8
0
 10
96.735
 11
96.827
 20
2139.06
 21
2139.24
  0
LINE
  8
0
 10
96.827
 11
96.932
 20
2139.24
 21
2139.4
  0
LINE
  8
0
 10
96.932
 11
97.05
 20
2139.4
 21
2139.56
  0
LINE
  8
0
 10
97.05
 11
97.18
 20
2139.56
 21
2139.71
  0
LINE
  8
0
 10
97.18
 11
97.322
 20
2139.71
 21
2139.85
  0
LINE
  8
0
 10
97.322
 11
97.475
 20
2139.85
 21
2139.98
  0
LINE
  8
0
 10
97.475
 11
97.637
 20
2139.98
 21
2140.1
  0
LINE
  8
0
 10
97.637
 11
97.808
 20
2140.1
 21
2140.2
  0
LINE
  8
0
 10
97.808
 11
97.986
 20
2140.2
 21
2140.28
  0
LINE
  8
0
 10
97.986
 11
98.171
 20
2140.28
 21
2140.36
  0
LINE
  8
0
 10
98.171
 11
98.361
 20
2140.36
 21
2140.42
  0
LINE
  8
0
 10
98.361
 11
98.555
 20
2140.42
 21
2140.46
  0
LINE
  8
0
 10
98.555
 11
98.752
 20
2140.46
 21
2140.49
  0
LINE
  8
0
 10
98.752
 11
98.95
 20
2140.49
 21
2140.5
  0
LINE
  8
0
 10
98.95
 11
99.149
 20
2140.5
 21
2140.5
  0
LINE
  8
0
 10
99.149
 11
99.347
 20
2140.5
 21
2140.48
  0
LINE
  8
0
 10
99.347
 11
99.542
 20
2140.48
 21
2140.44
  0
LINE
  8
0
 10
99.542
 11
99.735
 20
2140.44
 21
2140.39
  0
LINE
  8
0
 10
99.735
 11
99.922
 20
2140.39
 21
2140.32
  0
LINE
  8
0
 10
99.922
 11
100.104
 20
2140.32
 21
2140.24
  0
LINE
  8
0
 10
100.104
 11
100.279
 20
2140.24
 21
2140.15
  0
LINE
  8
0
 10
100.279
 11
100.445
 20
2140.15
 21
2140.04
  0
LINE
  8
0
 10
100.445
 11
100.603
 20
2140.04
 21
2139.92
  0
LINE
  8
0
 10
100.603
 11
100.75
 20
2139.92
 21
2139.78
  0
LINE
  8
0
 10
100.75
 11
100.886
 20
2139.78
 21
2139.64
  0
LINE
  8
0
 10
100.886
 11
101.011
 20
2139.64
 21
2139.49
  0
LINE
  8
0
 10
101.011
 11
101.122
 20
2139.49
 21
2139.32
  0
LINE
  8
0
 10
101.122
 11
101.221
 20
2139.32
 21
2139.15
  0
LINE
  8
0
 10
101.221
 11
101.305
 20
2139.15
 21
2138.97
  0
LINE
  8
0
 10
101.305
 11
101.375
 20
2138.97
 21
2138.78
  0
LINE
  8
0
 10
101.375
 11
101.429
 20
2138.78
 21
2138.59
  0
LINE
  8
0
 10
101.429
 11
101.468
 20
2138.59
 21
2138.4
  0
LINE
  8
0
 10
101.468
 11
101.492
 20
2138.4
 21
2138.2
  0
LINE
  8
0
 10
101.492
 11
101.5
 20
2138.2
 21
2138
  0
LINE
  8
0
 10
101.5
 11
101.492
 20
2138
 21
2137.8
  0
LINE
  8
0
 10
101.492
 11
101.468
 20
2137.8
 21
2137.6
  0
LINE
  8
0
 10
101.468
 11
101.429
 20
2137.6
 21
2137.41
  0
LINE
  8
0
 10
101.429
 11
101.375
 20
2137.41
 21
2137.22
  0
LINE
  8
0
 10
101.375
 11
101.305
 20
2137.22
 21
2137.03
  0
LINE
  8
0
 10
101.305
 11
101.221
 20
2137.03
 21
2136.85
  0
LINE
  8
0
 10
101.221
 11
101.122
 20
2136.85
 21
2136.68
  0
LINE
  8
0
 10
101.122
 11
101.011
 20
2136.68
 21
2136.51
  0
LINE
  8
0
 10
101.011
 11
100.886
 20
2136.51
 21
2136.36
  0
LINE
  8
0
 10
100.886
 11
100.75
 20
2136.36
 21
2136.22
  0
LINE
  8
0
 10
100.75
 11
100.603
 20
2136.22
 21
2136.08
  0
LINE
  8
0
 10
100.603
 11
100.445
 20
2136.08
 21
2135.96
  0
LINE
  8
0
 10
100.445
 11
100.279
 20
2135.96
 21
2135.85
  0
LINE
  8
0
 10
100.279
 11
100.104
 20
2135.85
 21
2135.76
  0
LINE
  8
0
 10
100.104
 11
99.922
 20
2135.76
 21
2135.68
  0
LINE
  8
0
 10
99.922
 11
99.735
 20
2135.68
 21
2135.61
  0
LINE
  8
0
 10
99.735
 11
99.542
 20
2135.61
 21
2135.56
  0
LINE
  8
0
 10
99.542
 11
99.347
 20
2135.56
 21
2135.52
  0
LINE
  8
0
 10
99.347
 11
99.149
 20
2135.52
 21
2135.5
  0
LINE
  8
0
 10
99.149
 11
98.95
 20
2135.5
 21
2135.5
  0
LINE
  8
0
 10
98.95
 11
98.752
 20
2135.5
 21
2135.51
  0
LINE
  8
0
 10
98.752
 11
98.555
 20
2135.51
 21
2135.54
  0
LINE
  8
0
 10
98.555
 11
98.361
 20
2135.54
 21
2135.58
  0
LINE
  8
0
 10
98.361
 11
98.171
 20
2135.58
 21
2135.64
  0
LINE
  8
0
 10
98.171
 11
97.986
 20
2135.64
 21
2135.72
  0
LINE
  8
0
 10
97.986
 11
97.808
 20
2135.72
 21
2135.8
  0
LINE
  8
0
 10
97.808
 11
97.637
 20
2135.8
 21
2135.9
  0
LINE
  8
0
 10
97.637
 11
97.475
 20
2135.9
 21
2136.02
  0
LINE
  8
0
 10
97.475
 11
97.322
 20
2136.02
 21
2136.15
  0
LINE
  8
0
 10
97.322
 11
97.18
 20
2136.15
 21
2136.29
  0
LINE
  8
0
 10
97.18
 11
97.05
 20
2136.29
 21
2136.44
  0
LINE
  8
0
 10
97.05
 11
96.932
 20
2136.44
 21
2136.6
  0
LINE
  8
0
 10
96.932
 11
96.827
 20
2136.6
 21
2136.76
  0
LINE
  8
0
 10
96.827
 11
96.735
 20
2136.76
 21
2136.94
  0
LINE
  8
0
 10
96.735
 11
96.658
 20
2136.94
 21
2137.12
  0
LINE
  8
0
 10
96.658
 11
96.596
 20
2137.12
 21
2137.31
  0
LINE
  8
0
 10
96.596
 11
96.549
 20
2137.31
 21
2137.51
  0
LINE
  8
0
 10
96.549
 11
96.518
 20
2137.51
 21
2137.7
  0
LINE
  8
0
 10
96.518
 11
96.502
 20
2137.7
 21
2137.9
  0
LINE
  8
0
 10
96.502
 11
96.502
 20
2237.9
 21
2238.1
  0
LINE
  8
0
 10
96.502
 11
96.518
 20
2238.1
 21
2238.3
  0
LINE
  8
0
 10
96.518
 11
96.549
 20
2238.3
 21
2238.49
  0
LINE
  8
0
 10
96.549
 11
96.596
 20
2238.49
 21
2238.69
  0
LINE
  8
0
 10
96.596
 11
96.658
 20
2238.69
 21
2238.88
  0
LINE
  8
0
 10
96.658
 11
96.735
 20
2238.88
 21
2239.06
  0
LINE
  8
0
 10
96.735
 11
96.827
 20
2239.06
 21
2239.24
  0
LINE
  8
0
 10
96.827
 11
96.932
 20
2239.24
 21
2239.4
  0
LINE
  8
0
 10
96.932
 11
97.05
 20
2239.4
 21
2239.56
  0
LINE
  8
0
 10
97.05
 11
97.18
 20
2239.56
 21
2239.71
  0
LINE
  8
0
 10
97.18
 11
97.322
 20
2239.71
 21
2239.85
  0
LINE
  8
0
 10
97.322
 11
97.475
 20
2239.85
 21
2239.98
  0
LINE
  8
0
 10
97.475
 11
97.637
 20
2239.98
 21
2240.1
  0
LINE
  8
0
 10
97.637
 11
97.808
 20
2240.1
 21
2240.2
  0
LINE
  8
0
 10
97.808
 11
97.986
 20
2240.2
 21
2240.28
  0
LINE
  8
0
 10
97.986
 11
98.171
 20
2240.28
 21
2240.36
  0
LINE
  8
0
 10
98.171
 11
98.361
 20
2240.36
 21
2240.42
  0
LINE
  8
0
 10
98.361
 11
98.555
 20
2240.42
 21
2240.46
  0
LINE
  8
0
 10
98.555
 11
98.752
 20
2240.46
 21
2240.49
  0
LINE
  8
0
 10
98.752
 11
98.95
 20
2240.49
 21
2240.5
  0
LINE
  8
0
 10
98.95
 11
99.149
 20
2240.5
 21
2240.5
  0
LINE
  8
0
 10
99.149
 11
99.347
 20
2240.5
 21
2240.48
  0
LINE
  8
0
 10
99.347
 11
99.542
 20
2240.48
 21
2240.44
  0
LINE
  8
0
 10
99.542
 11
99.735
 20
2240.44
 21
2240.39
  0
LINE
  8
0
 10
99.735
 11
99.922
 20
2240.39
 21
2240.32
  0
LINE
  8
0
 10
99.922
 11
100.104
 20
2240.32
 21
2240.24
  0
LINE
  8
0
 10
100.104
 11
100.279
 20
2240.24
 21
2240.15
  0
LINE
  8
0
 10
100.279
 11
100.445
 20
2240.15
 21
2240.04
  0
LINE
  8
0
 10
100.445
 11
100.603
 20
2240.04
 21
2239.92
  0
LINE
  8
0
 10
100.603
 11
100.75
 20
2239.92
 21
2239.78
  0
LINE
  8
0
 10
100.75
 11
100.886
 20
2239.78
 21
2239.64
  0
LINE
  8
0
 10
100.886
 11
101.011
 20
2239.64
 21
2239.49
  0
LINE
  8
0
 10
101.011
 11
101.122
 20
2239.49
 21
2239.32
  0
LINE
  8
0
 10
101.122
 11
101.221
 20
2239.32
 21
2239.15
  0
LINE
  8
0
 10
101.221
 11
101.305
 20
2239.15
 21
2238.97
  0
LINE
  8
0
 10
101.305
 11
101.375
 20
2238.97
 21
2238.78
  0
LINE
  8
0
 10
101.375
 11
101.429
 20
2238.78
 21
2238.59
  0
LINE
  8
0
 10
101.429
 11
101.468
 20
2238.59
 21
2238.4
  0
LINE
  8
0
 10
101.468
 11
101.492
 20
2238.4
 21
2238.2
  0
LINE
  8
0
 10
101.492
 11
101.5
 20
2238.2
 21
2238
  0
LINE
  8
0
 10
101.5
 11
101.492
 20
2238
 21
2237.8
  0
LINE
  8
0
 10
101.492
 11
101.468
 20
2237.8
 21
2237.6
  0
LINE
  8
0
 10
101.468
 11
101.429
 20
2237.6
 21
2237.41
  0
LINE
  8
0
 10
101.429
 11
101.375
 20
2237.41
 21
2237.22
  0
LINE
  8
0
 10
101.375
 11
101.305
 20
2237.22
 21
2237.03
  0
LINE
  8
0
 10
101.305
 11
101.221
 20
2237.03
 21
2236.85
  0
LINE
  8
0
 10
101.221
 11
101.122
 20
2236.85
 21
2236.68
  0
LINE
  8
0
 10
101.122
 11
101.011
 20
2236.68
 21
2236.51
  0
LINE
  8
0
 10
101.011
 11
100.886
 20
2236.51
 21
2236.36
  0
LINE
  8
0
 10
100.886
 11
100.75
 20
2236.36
 21
2236.22
  0
LINE
  8
0
 10
100.75
 11
100.603
 20
2236.22
 21
2236.08
  0
LINE
  8
0
 10
100.603
 11
100.445
 20
2236.08
 21
2235.96
  0
LINE
  8
0
 10
100.445
 11
100.279
 20
2235.96
 21
2235.85
  0
LINE
  8
0
 10
100.279
 11
100.104
 20
2235.85
 21
2235.76
  0
LINE
  8
0
 10
100.104
 11
99.922
 20
2235.76
 21
2235.68
  0
LINE
  8
0
 10
99.922
 11
99.735
 20
2235.68
 21
2235.61
  0
LINE
  8
0
 10
99.735
 11
99.542
 20
2235.61
 21
2235.56
  0
LINE
  8
0
 10
99.542
 11
99.347
 20
2235.56
 21
2235.52
  0
LINE
  8
0
 10
99.347
 11
99.149
 20
2235.52
 21
2235.5
  0
LINE
  8
0
 10
99.149
 11
98.95
 20
2235.5
 21
2235.5
  0
LINE
  8
0
 10
98.95
 11
98.752
 20
2235.5
 21
2235.51
  0
LINE
  8
0
 10
98.752
 11
98.555
 20
2235.51
 21
2235.54
  0
LINE
  8
0
 10
98.555
 11
98.361
 20
2235.54
 21
2235.58
  0
LINE
  8
0
 10
98.361
 11
98.171
 20
2235.58
 21
2235.64
  0
LINE
  8
0
 10
98.171
 11
97.986
 20
2235.64
 21
2235.72
  0
LINE
  8
0
 10
97.986
 11
97.808
 20
2235.72
 21
2235.8
  0
LINE
  8
0
 10
97.808
 11
97.637
 20
2235.8
 21
2235.9
  0
LINE
  8
0
 10
97.637
 11
97.475
 20
2235.9
 21
2236.02
  0
LINE
  8
0
 10
97.475
 11
97.322
 20
2236.02
 21
2236.15
  0
LINE
  8
0
 10
97.322
 11
97.18
 20
2236.15
 21
2236.29
  0
LINE
  8
0
 10
97.18
 11
97.05
 20
2236.29
 21
2236.44
  0
LINE
  8
0
 10
97.05
 11
96.932
 20
2236.44
 21
2236.6
  0
LINE
  8
0
 10
96.932
 11
96.827
 20
2236.6
 21
2236.76
  0
LINE
  8
0
 10
96.827
 11
96.735
 20
2236.76
 21
2236.94
  0
LINE
  8
0
 10
96.735
 11
96.658
 20
2236.94
 21
2237.12
  0
LINE
  8
0
 10
96.658
 11
96.596
 20
2237.12
 21
2237.31
  0
LINE
  8
0
 10
96.596
 11
96.549
 20
2237.31
 21
2237.51
  0
LINE
  8
0
 10
96.549
 11
96.518
 20
2237.51
 21
2237.7
  0
LINE
  8
0
 10
96.518
 11
96.502
 20
2237.7
 21
2237.9
  0
LINE
  8
0
 10
97.495
 11
97.495
 20
1551.7
 21
1554.69
  0
LINE
  8
0
 10
97.495
 11
97.618
 20
1554.69
 21
1555.47
  0
LINE
  8
0
 10
97.618
 11
97.973
 20
1555.47
 21
1556.17
  0
LINE
  8
0
 10
97.973
 11
98.528
 20
1556.17
 21
1556.72
  0
LINE
  8
0
 10
98.528
 11
99.226
 20
1556.72
 21
1557.08
  0
LINE
  8
0
 10
99.226
 11
100
 20
1557.08
 21
1557.2
  0
LINE
  8
0
 10
100
 11
100.774
 20
1557.2
 21
1557.08
  0
LINE
  8
0
 10
100.774
 11
101.472
 20
1557.08
 21
1556.72
  0
LINE
  8
0
 10
101.472
 11
102.027
 20
1556.72
 21
1556.17
  0
LINE
  8
0
 10
102.027
 11
102.382
 20
1556.17
 21
1555.47
  0
LINE
  8
0
 10
102.382
 11
102.505
 20
1555.47
 21
1554.69
  0
LINE
  8
0
 10
102.505
 11
102.505
 20
1554.69
 21
1551.7
  0
LINE
  8
0
 10
102.505
 11
102.382
 20
1551.7
 21
1550.93
  0
LINE
  8
0
 10
102.382
 11
102.027
 20
1550.93
 21
1550.23
  0
LINE
  8
0
 10
102.027
 11
101.472
 20
1550.23
 21
1549.68
  0
LINE
  8
0
 10
101.472
 11
100.774
 20
1549.68
 21
1549.32
  0
LINE
  8
0
 10
100.774
 11
100
 20
1549.32
 21
1549.2
  0
LINE
  8
0
 10
100
 11
99.226
 20
1549.2
 21
1549.32
  0
LINE
  8
0
 10
99.226
 11
98.528
 20
1549.32
 21
1549.68
  0
LINE
  8
0
 10
98.528
 11
97.973
 20
1549.68
 21
1550.23
  0
LINE
  8
0
 10
97.973
 11
97.618
 20
1550.23
 21
1550.93
  0
LINE
  8
0
 10
97.618
 11
97.495
 20
1550.93
 21
1551.7
  0
LINE
  8
0
 10
97.495
 11
97.495
 20
1800.7
 21
1803.69
  0
LINE
  8
0
 10
97.495
 11
97.618
 20
1803.69
 21
1804.47
  0
LINE
  8
0
 10
97.618
 11
97.973
 20
1804.47
 21
1805.17
  0
LINE
  8
0
 10
97.973
 11
98.528
 20
1805.17
 21
1805.72
  0
LINE
  8
0
 10
98.528
 11
99.226
 20
1805.72
 21
1806.08
  0
LINE
  8
0
 10
99.226
 11
100
 20
1806.08
 21
1806.2
  0
LINE
  8
0
 10
100
 11
100.774
 20
1806.2
 21
1806.08
  0
LINE
  8
0
 10
100.774
 11
101.472
 20
1806.08
 21
1805.72
  0
LINE
  8
0
 10
101.472
 11
102.027
 20
1805.72
 21
1805.17
  0
LINE
  8
0
 10
102.027
 11
102.382
 20
1805.17
 21
1804.47
  0
LINE
  8
0
 10
102.382
 11
102.505
 20
1804.47
 21
1803.69
  0
LINE
  8
0
 10
102.505
 11
102.505
 20
1803.69
 21
1800.7
  0
LINE
  8
0
 10
102.505
 11
102.382
 20
1800.7
 21
1799.93
  0
LINE
  8
0
 10
102.382
 11
102.027
 20
1799.93
 21
1799.23
  0
LINE
  8
0
 10
102.027
 11
101.472
 20
1799.23
 21
1798.68
  0
LINE
  8
0
 10
101.472
 11
100.774
 20
1798.68
 21
1798.32
  0
LINE
  8
0
 10
100.774
 11
100
 20
1798.32
 21
1798.2
  0
LINE
  8
0
 10
100
 11
99.226
 20
1798.2
 21
1798.32
  0
LINE
  8
0
 10
99.226
 11
98.528
 20
1798.32
 21
1798.68
  0
LINE
  8
0
 10
98.528
 11
97.973
 20
1798.68
 21
1799.23
  0
LINE
  8
0
 10
97.973
 11
97.618
 20
1799.23
 21
1799.93
  0
LINE
  8
0
 10
97.618
 11
97.495
 20
1799.93
 21
1800.7
  0
LINE
  8
0
 10
97.495
 11
97.495
 20
1844.11
 21
1847.1
  0
LINE
  8
0
 10
97.495
 11
97.618
 20
1847.1
 21
1847.87
  0
LINE
  8
0
 10
97.618
 11
97.973
 20
1847.87
 21
1848.57
  0
LINE
  8
0
 10
97.973
 11
98.528
 20
1848.57
 21
1849.12
  0
LINE
  8
0
 10
98.528
 11
99.226
 20
1849.12
 21
1849.48
  0
LINE
  8
0
 10
99.226
 11
100
 20
1849.48
 21
1849.6
  0
LINE
  8
0
 10
100
 11
100.774
 20
1849.6
 21
1849.48
  0
LINE
  8
0
 10
100.774
 11
101.472
 20
1849.48
 21
1849.12
  0
LINE
  8
0
 10
101.472
 11
102.027
 20
1849.12
 21
1848.57
  0
LINE
  8
0
 10
102.027
 11
102.382
 20
1848.57
 21
1847.87
  0
LINE
  8
0
 10
102.382
 11
102.505
 20
1847.87
 21
1847.1
  0
LINE
  8
0
 10
102.505
 11
102.505
 20
1847.1
 21
1844.11
  0
LINE
  8
0
 10
102.505
 11
102.382
 20
1844.11
 21
1843.33
  0
LINE
  8
0
 10
102.382
 11
102.027
 20
1843.33
 21
1842.63
  0
LINE
  8
0
 10
102.027
 11
101.472
 20
1842.63
 21
1842.08
  0
LINE
  8
0
 10
101.472
 11
100.774
 20
1842.08
 21
1841.72
  0
LINE
  8
0
 10
100.774
 11
100
 20
1841.72
 21
1841.6
  0
LINE
  8
0
 10
100
 11
99.226
 20
1841.6
 21
1841.72
  0
LINE
  8
0
 10
99.226
 11
98.528
 20
1841.72
 21
1842.08
  0
LINE
  8
0
 10
98.528
 11
97.973
 20
1842.08
 21
1842.63
  0
LINE
  8
0
 10
97.973
 11
97.618
 20
1842.63
 21
1843.33
  0
LINE
  8
0
 10
97.618
 11
97.495
 20
1843.33
 21
1844.11
  0
LINE
  8
0
 10
97.495
 11
97.495
 20
2093.11
 21
2096.1
  0
LINE
  8
0
 10
97.495
 11
97.618
 20
2096.1
 21
2096.87
  0
LINE
  8
0
 10
97.618
 11
97.973
 20
2096.87
 21
2097.57
  0
LINE
  8
0
 10
97.973
 11
98.528
 20
2097.57
 21
2098.12
  0
LINE
  8
0
 10
98.528
 11
99.226
 20
2098.12
 21
2098.48
  0
LINE
  8
0
 10
99.226
 11
100
 20
2098.48
 21
2098.6
  0
LINE
  8
0
 10
100
 11
100.774
 20
2098.6
 21
2098.48
  0
LINE
  8
0
 10
100.774
 11
101.472
 20
2098.48
 21
2098.12
  0
LINE
  8
0
 10
101.472
 11
102.027
 20
2098.12
 21
2097.57
  0
LINE
  8
0
 10
102.027
 11
102.382
 20
2097.57
 21
2096.87
  0
LINE
  8
0
 10
102.382
 11
102.505
 20
2096.87
 21
2096.1
  0
LINE
  8
0
 10
102.505
 11
102.505
 20
2096.1
 21
2093.11
  0
LINE
  8
0
 10
102.505
 11
102.382
 20
2093.11
 21
2092.33
  0
LINE
  8
0
 10
102.382
 11
102.027
 20
2092.33
 21
2091.63
  0
LINE
  8
0
 10
102.027
 11
101.472
 20
2091.63
 21
2091.08
  0
LINE
  8
0
 10
101.472
 11
100.774
 20
2091.08
 21
2090.72
  0
LINE
  8
0
 10
100.774
 11
100
 20
2090.72
 21
2090.6
  0
LINE
  8
0
 10
100
 11
99.226
 20
2090.6
 21
2090.72
  0
LINE
  8
0
 10
99.226
 11
98.528
 20
2090.72
 21
2091.08
  0
LINE
  8
0
 10
98.528
 11
97.973
 20
2091.08
 21
2091.63
  0
LINE
  8
0
 10
97.973
 11
97.618
 20
2091.63
 21
2092.33
  0
LINE
  8
0
 10
97.618
 11
97.495
 20
2092.33
 21
2093.11
  0
LINE
  8
0
 10
97.502
 11
97.502
 20
2430.3
 21
2430.5
  0
LINE
  8
0
 10
97.502
 11
97.518
 20
2430.5
 21
2430.7
  0
LINE
  8
0
 10
97.518
 11
97.549
 20
2430.7
 21
2430.89
  0
LINE
  8
0
 10
97.549
 11
97.596
 20
2430.89
 21
2431.09
  0
LINE
  8
0
 10
97.596
 11
97.658
 20
2431.09
 21
2431.28
  0
LINE
  8
0
 10
97.658
 11
97.735
 20
2431.28
 21
2431.46
  0
LINE
  8
0
 10
97.735
 11
97.827
 20
2431.46
 21
2431.64
  0
LINE
  8
0
 10
97.827
 11
97.932
 20
2431.64
 21
2431.8
  0
LINE
  8
0
 10
97.932
 11
98.05
 20
2431.8
 21
2431.96
  0
LINE
  8
0
 10
98.05
 11
98.18
 20
2431.96
 21
2432.11
  0
LINE
  8
0
 10
98.18
 11
98.322
 20
2432.11
 21
2432.25
  0
LINE
  8
0
 10
98.322
 11
98.475
 20
2432.25
 21
2432.38
  0
LINE
  8
0
 10
98.475
 11
98.637
 20
2432.38
 21
2432.5
  0
LINE
  8
0
 10
98.637
 11
98.808
 20
2432.5
 21
2432.6
  0
LINE
  8
0
 10
98.808
 11
98.986
 20
2432.6
 21
2432.68
  0
LINE
  8
0
 10
98.986
 11
99.171
 20
2432.68
 21
2432.76
  0
LINE
  8
0
 10
99.171
 11
99.361
 20
2432.76
 21
2432.82
  0
LINE
  8
0
 10
99.361
 11
99.555
 20
2432.82
 21
2432.86
  0
LINE
  8
0
 10
99.555
 11
99.752
 20
2432.86
 21
2432.89
  0
LINE
  8
0
 10
99.752
 11
99.95
 20
2432.89
 21
2432.9
  0
LINE
  8
0
 10
99.95
 11
100.149
 20
2432.9
 21
2432.9
  0
LINE
  8
0
 10
100.149
 11
100.347
 20
2432.9
 21
2432.88
  0
LINE
  8
0
 10
100.347
 11
100.542
 20
2432.88
 21
2432.84
  0
LINE
  8
0
 10
100.542
 11
100.735
 20
2432.84
 21
2432.79
  0
LINE
  8
0
 10
100.735
 11
100.922
 20
2432.79
 21
2432.72
  0
LINE
  8
0
 10
100.922
 11
101.104
 20
2432.72
 21
2432.64
  0
LINE
  8
0
 10
101.104
 11
101.279
 20
2432.64
 21
2432.55
  0
LINE
  8
0
 10
101.279
 11
101.445
 20
2432.55
 21
2432.44
  0
LINE
  8
0
 10
101.445
 11
101.603
 20
2432.44
 21
2432.32
  0
LINE
  8
0
 10
101.603
 11
101.75
 20
2432.32
 21
2432.18
  0
LINE
  8
0
 10
101.75
 11
101.886
 20
2432.18
 21
2432.04
  0
LINE
  8
0
 10
101.886
 11
102.011
 20
2432.04
 21
2431.89
  0
LINE
  8
0
 10
102.011
 11
102.122
 20
2431.89
 21
2431.72
  0
LINE
  8
0
 10
102.122
 11
102.221
 20
2431.72
 21
2431.55
  0
LINE
  8
0
 10
102.221
 11
102.305
 20
2431.55
 21
2431.37
  0
LINE
  8
0
 10
102.305
 11
102.375
 20
2431.37
 21
2431.18
  0
LINE
  8
0
 10
102.375
 11
102.429
 20
2431.18
 21
2430.99
  0
LINE
  8
0
 10
102.429
 11
102.468
 20
2430.99
 21
2430.8
  0
LINE
  8
0
 10
102.468
 11
102.492
 20
2430.8
 21
2430.6
  0
LINE
  8
0
 10
102.492
 11
102.5
 20
2430.6
 21
2430.4
  0
LINE
  8
0
 10
102.5
 11
102.492
 20
2430.4
 21
2430.2
  0
LINE
  8
0
 10
102.492
 11
102.468
 20
2430.2
 21
2430
  0
LINE
  8
0
 10
102.468
 11
102.429
 20
2430
 21
2429.81
  0
LINE
  8
0
 10
102.429
 11
102.375
 20
2429.81
 21
2429.62
  0
LINE
  8
0
 10
102.375
 11
102.305
 20
2429.62
 21
2429.43
  0
LINE
  8
0
 10
102.305
 11
102.221
 20
2429.43
 21
2429.25
  0
LINE
  8
0
 10
102.221
 11
102.122
 20
2429.25
 21
2429.08
  0
LINE
  8
0
 10
102.122
 11
102.011
 20
2429.08
 21
2428.91
  0
LINE
  8
0
 10
102.011
 11
101.886
 20
2428.91
 21
2428.76
  0
LINE
  8
0
 10
101.886
 11
101.75
 20
2428.76
 21
2428.62
  0
LINE
  8
0
 10
101.75
 11
101.603
 20
2428.62
 21
2428.48
  0
LINE
  8
0
 10
101.603
 11
101.445
 20
2428.48
 21
2428.36
  0
LINE
  8
0
 10
101.445
 11
101.279
 20
2428.36
 21
2428.25
  0
LINE
  8
0
 10
101.279
 11
101.104
 20
2428.25
 21
2428.16
  0
LINE
  8
0
 10
101.104
 11
100.922
 20
2428.16
 21
2428.08
  0
LINE
  8
0
 10
100.922
 11
100.735
 20
2428.08
 21
2428.01
  0
LINE
  8
0
 10
100.735
 11
100.542
 20
2428.01
 21
2427.96
  0
LINE
  8
0
 10
100.542
 11
100.347
 20
2427.96
 21
2427.92
  0
LINE
  8
0
 10
100.347
 11
100.149
 20
2427.92
 21
2427.9
  0
LINE
  8
0
 10
100.149
 11
99.95
 20
2427.9
 21
2427.9
  0
LINE
  8
0
 10
99.95
 11
99.752
 20
2427.9
 21
2427.91
  0
LINE
  8
0
 10
99.752
 11
99.555
 20
2427.91
 21
2427.94
  0
LINE
  8
0
 10
99.555
 11
99.361
 20
2427.94
 21
2427.98
  0
LINE
  8
0
 10
99.361
 11
99.171
 20
2427.98
 21
2428.04
  0
LINE
  8
0
 10
99.171
 11
98.986
 20
2428.04
 21
2428.12
  0
LINE
  8
0
 10
98.986
 11
98.808
 20
2428.12
 21
2428.2
  0
LINE
  8
0
 10
98.808
 11
98.637
 20
2428.2
 21
2428.3
  0
LINE
  8
0
 10
98.637
 11
98.475
 20
2428.3
 21
2428.42
  0
LINE
  8
0
 10
98.475
 11
98.322
 20
2428.42
 21
2428.55
  0
LINE
  8
0
 10
98.322
 11
98.18
 20
2428.55
 21
2428.69
  0
LINE
  8
0
 10
98.18
 11
98.05
 20
2428.69
 21
2428.84
  0
LINE
  8
0
 10
98.05
 11
97.932
 20
2428.84
 21
2429
  0
LINE
  8
0
 10
97.932
 11
97.827
 20
2429
 21
2429.16
  0
LINE
  8
0
 10
97.827
 11
97.735
 20
2429.16
 21
2429.34
  0
LINE
  8
0
 10
97.735
 11
97.658
 20
2429.34
 21
2429.52
  0
LINE
  8
0
 10
97.658
 11
97.596
 20
2429.52
 21
2429.71
  0
LINE
  8
0
 10
97.596
 11
97.549
 20
2429.71
 21
2429.91
  0
LINE
  8
0
 10
97.549
 11
97.518
 20
2429.91
 21
2430.1
  0
LINE
  8
0
 10
97.518
 11
97.502
 20
2430.1
 21
2430.3
  0
LINE
  8
0
 10
97.502
 11
97.502
 20
2660.3
 21
2660.5
  0
LINE
  8
0
 10
97.502
 11
97.518
 20
2660.5
 21
2660.7
  0
LINE
  8
0
 10
97.518
 11
97.549
 20
2660.7
 21
2660.89
  0
LINE
  8
0
 10
97.549
 11
97.596
 20
2660.89
 21
2661.09
  0
LINE
  8
0
 10
97.596
 11
97.658
 20
2661.09
 21
2661.28
  0
LINE
  8
0
 10
97.658
 11
97.735
 20
2661.28
 21
2661.46
  0
LINE
  8
0
 10
97.735
 11
97.827
 20
2661.46
 21
2661.64
  0
LINE
  8
0
 10
97.827
 11
97.932
 20
2661.64
 21
2661.8
  0
LINE
  8
0
 10
97.932
 11
98.05
 20
2661.8
 21
2661.96
  0
LINE
  8
0
 10
98.05
 11
98.18
 20
2661.96
 21
2662.11
  0
LINE
  8
0
 10
98.18
 11
98.322
 20
2662.11
 21
2662.25
  0
LINE
  8
0
 10
98.322
 11
98.475
 20
2662.25
 21
2662.38
  0
LINE
  8
0
 10
98.475
 11
98.637
 20
2662.38
 21
2662.5
  0
LINE
  8
0
 10
98.637
 11
98.808
 20
2662.5
 21
2662.6
  0
LINE
  8
0
 10
98.808
 11
98.986
 20
2662.6
 21
2662.68
  0
LINE
  8
0
 10
98.986
 11
99.171
 20
2662.68
 21
2662.76
  0
LINE
  8
0
 10
99.171
 11
99.361
 20
2662.76
 21
2662.82
  0
LINE
  8
0
 10
99.361
 11
99.555
 20
2662.82
 21
2662.86
  0
LINE
  8
0
 10
99.555
 11
99.752
 20
2662.86
 21
2662.89
  0
LINE
  8
0
 10
99.752
 11
99.95
 20
2662.89
 21
2662.9
  0
LINE
  8
0
 10
99.95
 11
100.149
 20
2662.9
 21
2662.9
  0
LINE
  8
0
 10
100.149
 11
100.347
 20
2662.9
 21
2662.88
  0
LINE
  8
0
 10
100.347
 11
100.542
 20
2662.88
 21
2662.84
  0
LINE
  8
0
 10
100.542
 11
100.735
 20
2662.84
 21
2662.79
  0
LINE
  8
0
 10
100.735
 11
100.922
 20
2662.79
 21
2662.72
  0
LINE
  8
0
 10
100.922
 11
101.104
 20
2662.72
 21
2662.64
  0
LINE
  8
0
 10
101.104
 11
101.279
 20
2662.64
 21
2662.55
  0
LINE
  8
0
 10
101.279
 11
101.445
 20
2662.55
 21
2662.44
  0
LINE
  8
0
 10
101.445
 11
101.603
 20
2662.44
 21
2662.32
  0
LINE
  8
0
 10
101.603
 11
101.75
 20
2662.32
 21
2662.18
  0
LINE
  8
0
 10
101.75
 11
101.886
 20
2662.18
 21
2662.04
  0
LINE
  8
0
 10
101.886
 11
102.011
 20
2662.04
 21
2661.89
  0
LINE
  8
0
 10
102.011
 11
102.122
 20
2661.89
 21
2661.72
  0
LINE
  8
0
 10
102.122
 11
102.221
 20
2661.72
 21
2661.55
  0
LINE
  8
0
 10
102.221
 11
102.305
 20
2661.55
 21
2661.37
  0
LINE
  8
0
 10
102.305
 11
102.375
 20
2661.37
 21
2661.18
  0
LINE
  8
0
 10
102.375
 11
102.429
 20
2661.18
 21
2660.99
  0
LINE
  8
0
 10
102.429
 11
102.468
 20
2660.99
 21
2660.8
  0
LINE
  8
0
 10
102.468
 11
102.492
 20
2660.8
 21
2660.6
  0
LINE
  8
0
 10
102.492
 11
102.5
 20
2660.6
 21
2660.4
  0
LINE
  8
0
 10
102.5
 11
102.492
 20
2660.4
 21
2660.2
  0
LINE
  8
0
 10
102.492
 11
102.468
 20
2660.2
 21
2660
  0
LINE
  8
0
 10
102.468
 11
102.429
 20
2660
 21
2659.81
  0
LINE
  8
0
 10
102.429
 11
102.375
 20
2659.81
 21
2659.62
  0
LINE
  8
0
 10
102.375
 11
102.305
 20
2659.62
 21
2659.43
  0
LINE
  8
0
 10
102.305
 11
102.221
 20
2659.43
 21
2659.25
  0
LINE
  8
0
 10
102.221
 11
102.122
 20
2659.25
 21
2659.08
  0
LINE
  8
0
 10
102.122
 11
102.011
 20
2659.08
 21
2658.91
  0
LINE
  8
0
 10
102.011
 11
101.886
 20
2658.91
 21
2658.76
  0
LINE
  8
0
 10
101.886
 11
101.75
 20
2658.76
 21
2658.62
  0
LINE
  8
0
 10
101.75
 11
101.603
 20
2658.62
 21
2658.48
  0
LINE
  8
0
 10
101.603
 11
101.445
 20
2658.48
 21
2658.36
  0
LINE
  8
0
 10
101.445
 11
101.279
 20
2658.36
 21
2658.25
  0
LINE
  8
0
 10
101.279
 11
101.104
 20
2658.25
 21
2658.16
  0
LINE
  8
0
 10
101.104
 11
100.922
 20
2658.16
 21
2658.08
  0
LINE
  8
0
 10
100.922
 11
100.735
 20
2658.08
 21
2658.01
  0
LINE
  8
0
 10
100.735
 11
100.542
 20
2658.01
 21
2657.96
  0
LINE
  8
0
 10
100.542
 11
100.347
 20
2657.96
 21
2657.92
  0
LINE
  8
0
 10
100.347
 11
100.149
 20
2657.92
 21
2657.9
  0
LINE
  8
0
 10
100.149
 11
99.95
 20
2657.9
 21
2657.9
  0
LINE
  8
0
 10
99.95
 11
99.752
 20
2657.9
 21
2657.91
  0
LINE
  8
0
 10
99.752
 11
99.555
 20
2657.91
 21
2657.94
  0
LINE
  8
0
 10
99.555
 11
99.361
 20
2657.94
 21
2657.98
  0
LINE
  8
0
 10
99.361
 11
99.171
 20
2657.98
 21
2658.04
  0
LINE
  8
0
 10
99.171
 11
98.986
 20
2658.04
 21
2658.12
  0
LINE
  8
0
 10
98.986
 11
98.808
 20
2658.12
 21
2658.2
  0
LINE
  8
0
 10
98.808
 11
98.637
 20
2658.2
 21
2658.3
  0
LINE
  8
0
 10
98.637
 11
98.475
 20
2658.3
 21
2658.42
  0
LINE
  8
0
 10
98.475
 11
98.322
 20
2658.42
 21
2658.55
  0
LINE
  8
0
 10
98.322
 11
98.18
 20
2658.55
 21
2658.69
  0
LINE
  8
0
 10
98.18
 11
98.05
 20
2658.69
 21
2658.84
  0
LINE
  8
0
 10
98.05
 11
97.932
 20
2658.84
 21
2659
  0
LINE
  8
0
 10
97.932
 11
97.827
 20
2659
 21
2659.16
  0
LINE
  8
0
 10
97.827
 11
97.735
 20
2659.16
 21
2659.34
  0
LINE
  8
0
 10
97.735
 11
97.658
 20
2659.34
 21
2659.52
  0
LINE
  8
0
 10
97.658
 11
97.596
 20
2659.52
 21
2659.71
  0
LINE
  8
0
 10
97.596
 11
97.549
 20
2659.71
 21
2659.91
  0
LINE
  8
0
 10
97.549
 11
97.518
 20
2659.91
 21
2660.1
  0
LINE
  8
0
 10
97.518
 11
97.502
 20
2660.1
 21
2660.3
  0
LINE
  8
0
 10
110.496
 11
110.496
 20
1122.4
 21
1178.4
  0
LINE
  8
0
 10
110.496
 11
110.594
 20
1178.4
 21
1179.02
  0
LINE
  8
0
 10
110.594
 11
110.878
 20
1179.02
 21
1179.58
  0
LINE
  8
0
 10
110.878
 11
111.32
 20
1179.58
 21
1180.02
  0
LINE
  8
0
 10
111.32
 11
111.878
 20
1180.02
 21
1180.3
  0
LINE
  8
0
 10
111.878
 11
112.496
 20
1180.3
 21
1180.4
  0
LINE
  8
0
 10
112.496
 11
113.114
 20
1180.4
 21
1180.3
  0
LINE
  8
0
 10
113.114
 11
113.672
 20
1180.3
 21
1180.02
  0
LINE
  8
0
 10
113.672
 11
114.114
 20
1180.02
 21
1179.58
  0
LINE
  8
0
 10
114.114
 11
114.398
 20
1179.58
 21
1179.02
  0
LINE
  8
0
 10
114.398
 11
114.496
 20
1179.02
 21
1178.4
  0
LINE
  8
0
 10
114.496
 11
114.496
 20
1178.4
 21
1122.4
  0
LINE
  8
0
 10
114.496
 11
114.398
 20
1122.4
 21
1121.78
  0
LINE
  8
0
 10
114.398
 11
114.114
 20
1121.78
 21
1121.22
  0
LINE
  8
0
 10
114.114
 11
113.672
 20
1121.22
 21
1120.78
  0
LINE
  8
0
 10
113.672
 11
113.114
 20
1120.78
 21
1120.5
  0
LINE
  8
0
 10
113.114
 11
112.496
 20
1120.5
 21
1120.4
  0
LINE
  8
0
 10
112.496
 11
111.878
 20
1120.4
 21
1120.5
  0
LINE
  8
0
 10
111.878
 11
111.32
 20
1120.5
 21
1120.78
  0
LINE
  8
0
 10
111.32
 11
110.878
 20
1120.78
 21
1121.22
  0
LINE
  8
0
 10
110.878
 11
110.594
 20
1121.22
 21
1121.78
  0
LINE
  8
0
 10
110.594
 11
110.496
 20
1121.78
 21
1122.4
  0
LINE
  8
0
 10
140.744
 11
140.744
 20
1122.4
 21
1178.4
  0
LINE
  8
0
 10
140.744
 11
140.842
 20
1178.4
 21
1179.02
  0
LINE
  8
0
 10
140.842
 11
141.126
 20
1179.02
 21
1179.58
  0
LINE
  8
0
 10
141.126
 11
141.568
 20
1179.58
 21
1180.02
  0
LINE
  8
0
 10
141.568
 11
142.126
 20
1180.02
 21
1180.3
  0
LINE
  8
0
 10
142.126
 11
142.744
 20
1180.3
 21
1180.4
  0
LINE
  8
0
 10
142.744
 11
143.362
 20
1180.4
 21
1180.3
  0
LINE
  8
0
 10
143.362
 11
143.92
 20
1180.3
 21
1180.02
  0
LINE
  8
0
 10
143.92
 11
144.362
 20
1180.02
 21
1179.58
  0
LINE
  8
0
 10
144.362
 11
144.646
 20
1179.58
 21
1179.02
  0
LINE
  8
0
 10
144.646
 11
144.744
 20
1179.02
 21
1178.4
  0
LINE
  8
0
 10
144.744
 11
144.744
 20
1178.4
 21
1122.4
  0
LINE
  8
0
 10
144.744
 11
144.646
 20
1122.4
 21
1121.78
  0
LINE
  8
0
 10
144.646
 11
144.362
 20
1121.78
 21
1121.22
  0
LINE
  8
0
 10
144.362
 11
143.92
 20
1121.22
 21
1120.78
  0
LINE
  8
0
 10
143.92
 11
143.362
 20
1120.78
 21
1120.5
  0
LINE
  8
0
 10
143.362
 11
142.744
 20
1120.5
 21
1120.4
  0
LINE
  8
0
 10
142.744
 11
142.126
 20
1120.4
 21
1120.5
  0
LINE
  8
0
 10
142.126
 11
141.568
 20
1120.5
 21
1120.78
  0
LINE
  8
0
 10
141.568
 11
141.126
 20
1120.78
 21
1121.22
  0
LINE
  8
0
 10
141.126
 11
140.842
 20
1121.22
 21
1121.78
  0
LINE
  8
0
 10
140.842
 11
140.744
 20
1121.78
 21
1122.4
  0
LINE
  8
0
 10
170.992
 11
170.992
 20
1122.4
 21
1178.4
  0
LINE
  8
0
 10
170.992
 11
171.09
 20
1178.4
 21
1179.02
  0
LINE
  8
0
 10
171.09
 11
171.374
 20
1179.02
 21
1179.58
  0
LINE
  8
0
 10
171.374
 11
171.816
 20
1179.58
 21
1180.02
  0
LINE
  8
0
 10
171.816
 11
172.374
 20
1180.02
 21
1180.3
  0
LINE
  8
0
 10
172.374
 11
172.992
 20
1180.3
 21
1180.4
  0
LINE
  8
0
 10
172.992
 11
173.61
 20
1180.4
 21
1180.3
  0
LINE
  8
0
 10
173.61
 11
174.168
 20
1180.3
 21
1180.02
  0
LINE
  8
0
 10
174.168
 11
174.61
 20
1180.02
 21
1179.58
  0
LINE
  8
0
 10
174.61
 11
174.894
 20
1179.58
 21
1179.02
  0
LINE
  8
0
 10
174.894
 11
174.992
 20
1179.02
 21
1178.4
  0
LINE
  8
0
 10
174.992
 11
174.992
 20
1178.4
 21
1122.4
  0
LINE
  8
0
 10
174.992
 11
174.894
 20
1122.4
 21
1121.78
  0
LINE
  8
0
 10
174.894
 11
174.61
 20
1121.78
 21
1121.22
  0
LINE
  8
0
 10
174.61
 11
174.168
 20
1121.22
 21
1120.78
  0
LINE
  8
0
 10
174.168
 11
173.61
 20
1120.78
 21
1120.5
  0
LINE
  8
0
 10
173.61
 11
172.992
 20
1120.5
 21
1120.4
  0
LINE
  8
0
 10
172.992
 11
172.374
 20
1120.4
 21
1120.5
  0
LINE
  8
0
 10
172.374
 11
171.816
 20
1120.5
 21
1120.78
  0
LINE
  8
0
 10
171.816
 11
171.374
 20
1120.78
 21
1121.22
  0
LINE
  8
0
 10
171.374
 11
171.09
 20
1121.22
 21
1121.78
  0
LINE
  8
0
 10
171.09
 11
170.992
 20
1121.78
 21
1122.4
  0
LINE
  8
0
 10
201.24
 11
201.24
 20
1122.4
 21
1178.4
  0
LINE
  8
0
 10
201.24
 11
201.338
 20
1178.4
 21
1179.02
  0
LINE
  8
0
 10
201.338
 11
201.622
 20
1179.02
 21
1179.58
  0
LINE
  8
0
 10
201.622
 11
202.064
 20
1179.58
 21
1180.02
  0
LINE
  8
0
 10
202.064
 11
202.622
 20
1180.02
 21
1180.3
  0
LINE
  8
0
 10
202.622
 11
203.24
 20
1180.3
 21
1180.4
  0
LINE
  8
0
 10
203.24
 11
203.858
 20
1180.4
 21
1180.3
  0
LINE
  8
0
 10
203.858
 11
204.416
 20
1180.3
 21
1180.02
  0
LINE
  8
0
 10
204.416
 11
204.858
 20
1180.02
 21
1179.58
  0
LINE
  8
0
 10
204.858
 11
205.142
 20
1179.58
 21
1179.02
  0
LINE
  8
0
 10
205.142
 11
205.24
 20
1179.02
 21
1178.4
  0
LINE
  8
0
 10
205.24
 11
205.24
 20
1178.4
 21
1122.4
  0
LINE
  8
0
 10
205.24
 11
205.142
 20
1122.4
 21
1121.78
  0
LINE
  8
0
 10
205.142
 11
204.858
 20
1121.78
 21
1121.22
  0
LINE
  8
0
 10
204.858
 11
204.416
 20
1121.22
 21
1120.78
  0
LINE
  8
0
 10
204.416
 11
203.858
 20
1120.78
 21
1120.5
  0
LINE
  8
0
 10
203.858
 11
203.24
 20
1120.5
 21
1120.4
  0
LINE
  8
0
 10
203.24
 11
202.622
 20
1120.4
 21
1120.5
  0
LINE
  8
0
 10
202.622
 11
202.064
 20
1120.5
 21
1120.78
  0
LINE
  8
0
 10
202.064
 11
201.622
 20
1120.78
 21
1121.22
  0
LINE
  8
0
 10
201.622
 11
201.338
 20
1121.22
 21
1121.78
  0
LINE
  8
0
 10
201.338
 11
201.24
 20
1121.78
 21
1122.4
  0
LINE
  8
0
 10
231.488
 11
231.488
 20
1122.4
 21
1178.4
  0
LINE
  8
0
 10
231.488
 11
231.586
 20
1178.4
 21
1179.02
  0
LINE
  8
0
 10
231.586
 11
231.87
 20
1179.02
 21
1179.58
  0
LINE
  8
0
 10
231.87
 11
232.312
 20
1179.58
 21
1180.02
  0
LINE
  8
0
 10
232.312
 11
232.87
 20
1180.02
 21
1180.3
  0
LINE
  8
0
 10
232.87
 11
233.488
 20
1180.3
 21
1180.4
  0
LINE
  8
0
 10
233.488
 11
234.106
 20
1180.4
 21
1180.3
  0
LINE
  8
0
 10
234.106
 11
234.664
 20
1180.3
 21
1180.02
  0
LINE
  8
0
 10
234.664
 11
235.106
 20
1180.02
 21
1179.58
  0
LINE
  8
0
 10
235.106
 11
235.39
 20
1179.58
 21
1179.02
  0
LINE
  8
0
 10
235.39
 11
235.488
 20
1179.02
 21
1178.4
  0
LINE
  8
0
 10
235.488
 11
235.488
 20
1178.4
 21
1122.4
  0
LINE
  8
0
 10
235.488
 11
235.39
 20
1122.4
 21
1121.78
  0
LINE
  8
0
 10
235.39
 11
235.106
 20
1121.78
 21
1121.22
  0
LINE
  8
0
 10
235.106
 11
234.664
 20
1121.22
 21
1120.78
  0
LINE
  8
0
 10
234.664
 11
234.106
 20
1120.78
 21
1120.5
  0
LINE
  8
0
 10
234.106
 11
233.488
 20
1120.5
 21
1120.4
  0
LINE
  8
0
 10
233.488
 11
232.87
 20
1120.4
 21
1120.5
  0
LINE
  8
0
 10
232.87
 11
232.312
 20
1120.5
 21
1120.78
  0
LINE
  8
0
 10
232.312
 11
231.87
 20
1120.78
 21
1121.22
  0
LINE
  8
0
 10
231.87
 11
231.586
 20
1121.22
 21
1121.78
  0
LINE
  8
0
 10
231.586
 11
231.488
 20
1121.78
 21
1122.4
  0
LINE
  8
0
 10
261.736
 11
261.736
 20
1122.4
 21
1178.4
  0
LINE
  8
0
 10
261.736
 11
261.834
 20
1178.4
 21
1179.02
  0
LINE
  8
0
 10
261.834
 11
262.118
 20
1179.02
 21
1179.58
  0
LINE
  8
0
 10
262.118
 11
262.56
 20
1179.58
 21
1180.02
  0
LINE
  8
0
 10
262.56
 11
263.118
 20
1180.02
 21
1180.3
  0
LINE
  8
0
 10
263.118
 11
263.736
 20
1180.3
 21
1180.4
  0
LINE
  8
0
 10
263.736
 11
264.354
 20
1180.4
 21
1180.3
  0
LINE
  8
0
 10
264.354
 11
264.912
 20
1180.3
 21
1180.02
  0
LINE
  8
0
 10
264.912
 11
265.354
 20
1180.02
 21
1179.58
  0
LINE
  8
0
 10
265.354
 11
265.638
 20
1179.58
 21
1179.02
  0
LINE
  8
0
 10
265.638
 11
265.736
 20
1179.02
 21
1178.4
  0
LINE
  8
0
 10
265.736
 11
265.736
 20
1178.4
 21
1122.4
  0
LINE
  8
0
 10
265.736
 11
265.638
 20
1122.4
 21
1121.78
  0
LINE
  8
0
 10
265.638
 11
265.354
 20
1121.78
 21
1121.22
  0
LINE
  8
0
 10
265.354
 11
264.912
 20
1121.22
 21
1120.78
  0
LINE
  8
0
 10
264.912
 11
264.354
 20
1120.78
 21
1120.5
  0
LINE
  8
0
 10
264.354
 11
263.736
 20
1120.5
 21
1120.4
  0
LINE
  8
0
 10
263.736
 11
263.118
 20
1120.4
 21
1120.5
  0
LINE
  8
0
 10
263.118
 11
262.56
 20
1120.5
 21
1120.78
  0
LINE
  8
0
 10
262.56
 11
262.118
 20
1120.78
 21
1121.22
  0
LINE
  8
0
 10
262.118
 11
261.834
 20
1121.22
 21
1121.78
  0
LINE
  8
0
 10
261.834
 11
261.736
 20
1121.78
 21
1122.4
  0
LINE
  8
0
 10
291.983
 11
291.983
 20
1122.4
 21
1178.4
  0
LINE
  8
0
 10
291.983
 11
292.081
 20
1178.4
 21
1179.02
  0
LINE
  8
0
 10
292.081
 11
292.365
 20
1179.02
 21
1179.58
  0
LINE
  8
0
 10
292.365
 11
292.807
 20
1179.58
 21
1180.02
  0
LINE
  8
0
 10
292.807
 11
293.365
 20
1180.02
 21
1180.3
  0
LINE
  8
0
 10
293.365
 11
293.983
 20
1180.3
 21
1180.4
  0
LINE
  8
0
 10
293.983
 11
294.601
 20
1180.4
 21
1180.3
  0
LINE
  8
0
 10
294.601
 11
295.159
 20
1180.3
 21
1180.02
  0
LINE
  8
0
 10
295.159
 11
295.601
 20
1180.02
 21
1179.58
  0
LINE
  8
0
 10
295.601
 11
295.885
 20
1179.58
 21
1179.02
  0
LINE
  8
0
 10
295.885
 11
295.983
 20
1179.02
 21
1178.4
  0
LINE
  8
0
 10
295.983
 11
295.983
 20
1178.4
 21
1122.4
  0
LINE
  8
0
 10
295.983
 11
295.885
 20
1122.4
 21
1121.78
  0
LINE
  8
0
 10
295.885
 11
295.601
 20
1121.78
 21
1121.22
  0
LINE
  8
0
 10
295.601
 11
295.159
 20
1121.22
 21
1120.78
  0
LINE
  8
0
 10
295.159
 11
294.601
 20
1120.78
 21
1120.5
  0
LINE
  8
0
 10
294.601
 11
293.983
 20
1120.5
 21
1120.4
  0
LINE
  8
0
 10
293.983
 11
293.365
 20
1120.4
 21
1120.5
  0
LINE
  8
0
 10
293.365
 11
292.807
 20
1120.5
 21
1120.78
  0
LINE
  8
0
 10
292.807
 11
292.365
 20
1120.78
 21
1121.22
  0
LINE
  8
0
 10
292.365
 11
292.081
 20
1121.22
 21
1121.78
  0
LINE
  8
0
 10
292.081
 11
291.983
 20
1121.78
 21
1122.4
  0
LINE
  8
0
 10
322.231
 11
322.231
 20
1122.4
 21
1178.4
  0
LINE
  8
0
 10
322.231
 11
322.329
 20
1178.4
 21
1179.02
  0
LINE
  8
0
 10
322.329
 11
322.613
 20
1179.02
 21
1179.58
  0
LINE
  8
0
 10
322.613
 11
323.055
 20
1179.58
 21
1180.02
  0
LINE
  8
0
 10
323.055
 11
323.613
 20
1180.02
 21
1180.3
  0
LINE
  8
0
 10
323.613
 11
324.231
 20
1180.3
 21
1180.4
  0
LINE
  8
0
 10
324.231
 11
324.849
 20
1180.4
 21
1180.3
  0
LINE
  8
0
 10
324.849
 11
325.407
 20
1180.3
 21
1180.02
  0
LINE
  8
0
 10
325.407
 11
325.849
 20
1180.02
 21
1179.58
  0
LINE
  8
0
 10
325.849
 11
326.133
 20
1179.58
 21
1179.02
  0
LINE
  8
0
 10
326.133
 11
326.231
 20
1179.02
 21
1178.4
  0
LINE
  8
0
 10
326.231
 11
326.231
 20
1178.4
 21
1122.4
  0
LINE
  8
0
 10
326.231
 11
326.133
 20
1122.4
 21
1121.78
  0
LINE
  8
0
 10
326.133
 11
325.849
 20
1121.78
 21
1121.22
  0
LINE
  8
0
 10
325.849
 11
325.407
 20
1121.22
 21
1120.78
  0
LINE
  8
0
 10
325.407
 11
324.849
 20
1120.78
 21
1120.5
  0
LINE
  8
0
 10
324.849
 11
324.231
 20
1120.5
 21
1120.4
  0
LINE
  8
0
 10
324.231
 11
323.613
 20
1120.4
 21
1120.5
  0
LINE
  8
0
 10
323.613
 11
323.055
 20
1120.5
 21
1120.78
  0
LINE
  8
0
 10
323.055
 11
322.613
 20
1120.78
 21
1121.22
  0
LINE
  8
0
 10
322.613
 11
322.329
 20
1121.22
 21
1121.78
  0
LINE
  8
0
 10
322.329
 11
322.231
 20
1121.78
 21
1122.4
  0
LINE
  8
0
 10
342.162
 11
342.162
 20
1551.7
 21
1554.69
  0
LINE
  8
0
 10
342.162
 11
342.285
 20
1554.69
 21
1555.47
  0
LINE
  8
0
 10
342.285
 11
342.64
 20
1555.47
 21
1556.17
  0
LINE
  8
0
 10
342.64
 11
343.195
 20
1556.17
 21
1556.72
  0
LINE
  8
0
 10
343.195
 11
343.893
 20
1556.72
 21
1557.08
  0
LINE
  8
0
 10
343.893
 11
344.667
 20
1557.08
 21
1557.2
  0
LINE
  8
0
 10
344.667
 11
345.441
 20
1557.2
 21
1557.08
  0
LINE
  8
0
 10
345.441
 11
346.139
 20
1557.08
 21
1556.72
  0
LINE
  8
0
 10
346.139
 11
346.694
 20
1556.72
 21
1556.17
  0
LINE
  8
0
 10
346.694
 11
347.049
 20
1556.17
 21
1555.47
  0
LINE
  8
0
 10
347.049
 11
347.172
 20
1555.47
 21
1554.69
  0
LINE
  8
0
 10
347.172
 11
347.172
 20
1554.69
 21
1551.7
  0
LINE
  8
0
 10
347.172
 11
347.049
 20
1551.7
 21
1550.93
  0
LINE
  8
0
 10
347.049
 11
346.694
 20
1550.93
 21
1550.23
  0
LINE
  8
0
 10
346.694
 11
346.139
 20
1550.23
 21
1549.68
  0
LINE
  8
0
 10
346.139
 11
345.441
 20
1549.68
 21
1549.32
  0
LINE
  8
0
 10
345.441
 11
344.667
 20
1549.32
 21
1549.2
  0
LINE
  8
0
 10
344.667
 11
343.893
 20
1549.2
 21
1549.32
  0
LINE
  8
0
 10
343.893
 11
343.195
 20
1549.32
 21
1549.68
  0
LINE
  8
0
 10
343.195
 11
342.64
 20
1549.68
 21
1550.23
  0
LINE
  8
0
 10
342.64
 11
342.285
 20
1550.23
 21
1550.93
  0
LINE
  8
0
 10
342.285
 11
342.162
 20
1550.93
 21
1551.7
  0
LINE
  8
0
 10
342.162
 11
342.162
 20
1800.7
 21
1803.69
  0
LINE
  8
0
 10
342.162
 11
342.285
 20
1803.69
 21
1804.47
  0
LINE
  8
0
 10
342.285
 11
342.64
 20
1804.47
 21
1805.17
  0
LINE
  8
0
 10
342.64
 11
343.195
 20
1805.17
 21
1805.72
  0
LINE
  8
0
 10
343.195
 11
343.893
 20
1805.72
 21
1806.08
  0
LINE
  8
0
 10
343.893
 11
344.667
 20
1806.08
 21
1806.2
  0
LINE
  8
0
 10
344.667
 11
345.441
 20
1806.2
 21
1806.08
  0
LINE
  8
0
 10
345.441
 11
346.139
 20
1806.08
 21
1805.72
  0
LINE
  8
0
 10
346.139
 11
346.694
 20
1805.72
 21
1805.17
  0
LINE
  8
0
 10
346.694
 11
347.049
 20
1805.17
 21
1804.47
  0
LINE
  8
0
 10
347.049
 11
347.172
 20
1804.47
 21
1803.69
  0
LINE
  8
0
 10
347.172
 11
347.172
 20
1803.69
 21
1800.7
  0
LINE
  8
0
 10
347.172
 11
347.049
 20
1800.7
 21
1799.93
  0
LINE
  8
0
 10
347.049
 11
346.694
 20
1799.93
 21
1799.23
  0
LINE
  8
0
 10
346.694
 11
346.139
 20
1799.23
 21
1798.68
  0
LINE
  8
0
 10
346.139
 11
345.441
 20
1798.68
 21
1798.32
  0
LINE
  8
0
 10
345.441
 11
344.667
 20
1798.32
 21
1798.2
  0
LINE
  8
0
 10
344.667
 11
343.893
 20
1798.2
 21
1798.32
  0
LINE
  8
0
 10
343.893
 11
343.195
 20
1798.32
 21
1798.68
  0
LINE
  8
0
 10
343.195
 11
342.64
 20
1798.68
 21
1799.23
  0
LINE
  8
0
 10
342.64
 11
342.285
 20
1799.23
 21
1799.93
  0
LINE
  8
0
 10
342.285
 11
342.162
 20
1799.93
 21
1800.7
  0
LINE
  8
0
 10
342.162
 11
342.162
 20
1844.11
 21
1847.1
  0
LINE
  8
0
 10
342.162
 11
342.285
 20
1847.1
 21
1847.87
  0
LINE
  8
0
 10
342.285
 11
342.64
 20
1847.87
 21
1848.57
  0
LINE
  8
0
 10
342.64
 11
343.195
 20
1848.57
 21
1849.12
  0
LINE
  8
0
 10
343.195
 11
343.893
 20
1849.12
 21
1849.48
  0
LINE
  8
0
 10
343.893
 11
344.667
 20
1849.48
 21
1849.6
  0
LINE
  8
0
 10
344.667
 11
345.441
 20
1849.6
 21
1849.48
  0
LINE
  8
0
 10
345.441
 11
346.139
 20
1849.48
 21
1849.12
  0
LINE
  8
0
 10
346.139
 11
346.694
 20
1849.12
 21
1848.57
  0
LINE
  8
0
 10
346.694
 11
347.049
 20
1848.57
 21
1847.87
  0
LINE
  8
0
 10
347.049
 11
347.172
 20
1847.87
 21
1847.1
  0
LINE
  8
0
 10
347.172
 11
347.172
 20
1847.1
 21
1844.11
  0
LINE
  8
0
 10
347.172
 11
347.049
 20
1844.11
 21
1843.33
  0
LINE
  8
0
 10
347.049
 11
346.694
 20
1843.33
 21
1842.63
  0
LINE
  8
0
 10
346.694
 11
346.139
 20
1842.63
 21
1842.08
  0
LINE
  8
0
 10
346.139
 11
345.441
 20
1842.08
 21
1841.72
  0
LINE
  8
0
 10
345.441
 11
344.667
 20
1841.72
 21
1841.6
  0
LINE
  8
0
 10
344.667
 11
343.893
 20
1841.6
 21
1841.72
  0
LINE
  8
0
 10
343.893
 11
343.195
 20
1841.72
 21
1842.08
  0
LINE
  8
0
 10
343.195
 11
342.64
 20
1842.08
 21
1842.63
  0
LINE
  8
0
 10
342.64
 11
342.285
 20
1842.63
 21
1843.33
  0
LINE
  8
0
 10
342.285
 11
342.162
 20
1843.33
 21
1844.11
  0
LINE
  8
0
 10
342.162
 11
342.162
 20
2093.11
 21
2096.1
  0
LINE
  8
0
 10
342.162
 11
342.285
 20
2096.1
 21
2096.87
  0
LINE
  8
0
 10
342.285
 11
342.64
 20
2096.87
 21
2097.57
  0
LINE
  8
0
 10
342.64
 11
343.195
 20
2097.57
 21
2098.12
  0
LINE
  8
0
 10
343.195
 11
343.893
 20
2098.12
 21
2098.48
  0
LINE
  8
0
 10
343.893
 11
344.667
 20
2098.48
 21
2098.6
  0
LINE
  8
0
 10
344.667
 11
345.441
 20
2098.6
 21
2098.48
  0
LINE
  8
0
 10
345.441
 11
346.139
 20
2098.48
 21
2098.12
  0
LINE
  8
0
 10
346.139
 11
346.694
 20
2098.12
 21
2097.57
  0
LINE
  8
0
 10
346.694
 11
347.049
 20
2097.57
 21
2096.87
  0
LINE
  8
0
 10
347.049
 11
347.172
 20
2096.87
 21
2096.1
  0
LINE
  8
0
 10
347.172
 11
347.172
 20
2096.1
 21
2093.11
  0
LINE
  8
0
 10
347.172
 11
347.049
 20
2093.11
 21
2092.33
  0
LINE
  8
0
 10
347.049
 11
346.694
 20
2092.33
 21
2091.63
  0
LINE
  8
0
 10
346.694
 11
346.139
 20
2091.63
 21
2091.08
  0
LINE
  8
0
 10
346.139
 11
345.441
 20
2091.08
 21
2090.72
  0
LINE
  8
0
 10
345.441
 11
344.667
 20
2090.72
 21
2090.6
  0
LINE
  8
0
 10
344.667
 11
343.893
 20
2090.6
 21
2090.72
  0
LINE
  8
0
 10
343.893
 11
343.195
 20
2090.72
 21
2091.08
  0
LINE
  8
0
 10
343.195
 11
342.64
 20
2091.08
 21
2091.63
  0
LINE
  8
0
 10
342.64
 11
342.285
 20
2091.63
 21
2092.33
  0
LINE
  8
0
 10
342.285
 11
342.162
 20
2092.33
 21
2093.11
  0
LINE
  8
0
 10
352.479
 11
352.479
 20
1122.4
 21
1178.4
  0
LINE
  8
0
 10
352.479
 11
352.577
 20
1178.4
 21
1179.02
  0
LINE
  8
0
 10
352.577
 11
352.861
 20
1179.02
 21
1179.58
  0
LINE
  8
0
 10
352.861
 11
353.303
 20
1179.58
 21
1180.02
  0
LINE
  8
0
 10
353.303
 11
353.861
 20
1180.02
 21
1180.3
  0
LINE
  8
0
 10
353.861
 11
354.479
 20
1180.3
 21
1180.4
  0
LINE
  8
0
 10
354.479
 11
355.097
 20
1180.4
 21
1180.3
  0
LINE
  8
0
 10
355.097
 11
355.655
 20
1180.3
 21
1180.02
  0
LINE
  8
0
 10
355.655
 11
356.097
 20
1180.02
 21
1179.58
  0
LINE
  8
0
 10
356.097
 11
356.381
 20
1179.58
 21
1179.02
  0
LINE
  8
0
 10
356.381
 11
356.479
 20
1179.02
 21
1178.4
  0
LINE
  8
0
 10
356.479
 11
356.479
 20
1178.4
 21
1122.4
  0
LINE
  8
0
 10
356.479
 11
356.381
 20
1122.4
 21
1121.78
  0
LINE
  8
0
 10
356.381
 11
356.097
 20
1121.78
 21
1121.22
  0
LINE
  8
0
 10
356.097
 11
355.655
 20
1121.22
 21
1120.78
  0
LINE
  8
0
 10
355.655
 11
355.097
 20
1120.78
 21
1120.5
  0
LINE
  8
0
 10
355.097
 11
354.479
 20
1120.5
 21
1120.4
  0
LINE
  8
0
 10
354.479
 11
353.861
 20
1120.4
 21
1120.5
  0
LINE
  8
0
 10
353.861
 11
353.303
 20
1120.5
 21
1120.78
  0
LINE
  8
0
 10
353.303
 11
352.861
 20
1120.78
 21
1121.22
  0
LINE
  8
0
 10
352.861
 11
352.577
 20
1121.22
 21
1121.78
  0
LINE
  8
0
 10
352.577
 11
352.479
 20
1121.78
 21
1122.4
  0
LINE
  8
0
 10
382.727
 11
382.727
 20
1122.4
 21
1178.4
  0
LINE
  8
0
 10
382.727
 11
382.825
 20
1178.4
 21
1179.02
  0
LINE
  8
0
 10
382.825
 11
383.109
 20
1179.02
 21
1179.58
  0
LINE
  8
0
 10
383.109
 11
383.551
 20
1179.58
 21
1180.02
  0
LINE
  8
0
 10
383.551
 11
384.109
 20
1180.02
 21
1180.3
  0
LINE
  8
0
 10
384.109
 11
384.727
 20
1180.3
 21
1180.4
  0
LINE
  8
0
 10
384.727
 11
385.345
 20
1180.4
 21
1180.3
  0
LINE
  8
0
 10
385.345
 11
385.903
 20
1180.3
 21
1180.02
  0
LINE
  8
0
 10
385.903
 11
386.345
 20
1180.02
 21
1179.58
  0
LINE
  8
0
 10
386.345
 11
386.629
 20
1179.58
 21
1179.02
  0
LINE
  8
0
 10
386.629
 11
386.727
 20
1179.02
 21
1178.4
  0
LINE
  8
0
 10
386.727
 11
386.727
 20
1178.4
 21
1122.4
  0
LINE
  8
0
 10
386.727
 11
386.629
 20
1122.4
 21
1121.78
  0
LINE
  8
0
 10
386.629
 11
386.345
 20
1121.78
 21
1121.22
  0
LINE
  8
0
 10
386.345
 11
385.903
 20
1121.22
 21
1120.78
  0
LINE
  8
0
 10
385.903
 11
385.345
 20
1120.78
 21
1120.5
  0
LINE
  8
0
 10
385.345
 11
384.727
 20
1120.5
 21
1120.4
  0
LINE
  8
0
 10
384.727
 11
384.109
 20
1120.4
 21
1120.5
  0
LINE
  8
0
 10
384.109
 11
383.551
 20
1120.5
 21
1120.78
  0
LINE
  8
0
 10
383.551
 11
383.109
 20
1120.78
 21
1121.22
  0
LINE
  8
0
 10
383.109
 11
382.825
 20
1121.22
 21
1121.78
  0
LINE
  8
0
 10
382.825
 11
382.727
 20
1121.78
 21
1122.4
  0
LINE
  8
0
 10
405.002
 11
405.002
 20
2722.7
 21
2722.9
  0
LINE
  8
0
 10
405.002
 11
405.018
 20
2722.9
 21
2723.1
  0
LINE
  8
0
 10
405.018
 11
405.049
 20
2723.1
 21
2723.29
  0
LINE
  8
0
 10
405.049
 11
405.096
 20
2723.29
 21
2723.49
  0
LINE
  8
0
 10
405.096
 11
405.158
 20
2723.49
 21
2723.68
  0
LINE
  8
0
 10
405.158
 11
405.235
 20
2723.68
 21
2723.86
  0
LINE
  8
0
 10
405.235
 11
405.327
 20
2723.86
 21
2724.04
  0
LINE
  8
0
 10
405.327
 11
405.432
 20
2724.04
 21
2724.2
  0
LINE
  8
0
 10
405.432
 11
405.55
 20
2724.2
 21
2724.36
  0
LINE
  8
0
 10
405.55
 11
405.68
 20
2724.36
 21
2724.51
  0
LINE
  8
0
 10
405.68
 11
405.822
 20
2724.51
 21
2724.65
  0
LINE
  8
0
 10
405.822
 11
405.975
 20
2724.65
 21
2724.78
  0
LINE
  8
0
 10
405.975
 11
406.137
 20
2724.78
 21
2724.9
  0
LINE
  8
0
 10
406.137
 11
406.308
 20
2724.9
 21
2725
  0
LINE
  8
0
 10
406.308
 11
406.486
 20
2725
 21
2725.09
  0
LINE
  8
0
 10
406.486
 11
406.671
 20
2725.09
 21
2725.16
  0
LINE
  8
0
 10
406.671
 11
406.861
 20
2725.16
 21
2725.22
  0
LINE
  8
0
 10
406.861
 11
407.055
 20
2725.22
 21
2725.26
  0
LINE
  8
0
 10
407.055
 11
407.252
 20
2725.26
 21
2725.29
  0
LINE
  8
0
 10
407.252
 11
407.45
 20
2725.29
 21
2725.3
  0
LINE
  8
0
 10
407.45
 11
407.649
 20
2725.3
 21
2725.3
  0
LINE
  8
0
 10
407.649
 11
407.847
 20
2725.3
 21
2725.28
  0
LINE
  8
0
 10
407.847
 11
408.042
 20
2725.28
 21
2725.24
  0
LINE
  8
0
 10
408.042
 11
408.235
 20
2725.24
 21
2725.19
  0
LINE
  8
0
 10
408.235
 11
408.422
 20
2725.19
 21
2725.12
  0
LINE
  8
0
 10
408.422
 11
408.604
 20
2725.12
 21
2725.04
  0
LINE
  8
0
 10
408.604
 11
408.779
 20
2725.04
 21
2724.95
  0
LINE
  8
0
 10
408.779
 11
408.945
 20
2724.95
 21
2724.84
  0
LINE
  8
0
 10
408.945
 11
409.103
 20
2724.84
 21
2724.72
  0
LINE
  8
0
 10
409.103
 11
409.25
 20
2724.72
 21
2724.59
  0
LINE
  8
0
 10
409.25
 11
409.386
 20
2724.59
 21
2724.44
  0
LINE
  8
0
 10
409.386
 11
409.511
 20
2724.44
 21
2724.29
  0
LINE
  8
0
 10
409.511
 11
409.622
 20
2724.29
 21
2724.12
  0
LINE
  8
0
 10
409.622
 11
409.721
 20
2724.12
 21
2723.95
  0
LINE
  8
0
 10
409.721
 11
409.805
 20
2723.95
 21
2723.77
  0
LINE
  8
0
 10
409.805
 11
409.875
 20
2723.77
 21
2723.58
  0
LINE
  8
0
 10
409.875
 11
409.929
 20
2723.58
 21
2723.39
  0
LINE
  8
0
 10
409.929
 11
409.968
 20
2723.39
 21
2723.2
  0
LINE
  8
0
 10
409.968
 11
409.992
 20
2723.2
 21
2723
  0
LINE
  8
0
 10
409.992
 11
410
 20
2723
 21
2722.8
  0
LINE
  8
0
 10
410
 11
409.992
 20
2722.8
 21
2722.6
  0
LINE
  8
0
 10
409.992
 11
409.968
 20
2722.6
 21
2722.4
  0
LINE
  8
0
 10
409.968
 11
409.929
 20
2722.4
 21
2722.21
  0
LINE
  8
0
 10
409.929
 11
409.875
 20
2722.21
 21
2722.02
  0
LINE
  8
0
 10
409.875
 11
409.805
 20
2722.02
 21
2721.83
  0
LINE
  8
0
 10
409.805
 11
409.721
 20
2721.83
 21
2721.65
  0
LINE
  8
0
 10
409.721
 11
409.622
 20
2721.65
 21
2721.48
  0
LINE
  8
0
 10
409.622
 11
409.511
 20
2721.48
 21
2721.31
  0
LINE
  8
0
 10
409.511
 11
409.386
 20
2721.31
 21
2721.16
  0
LINE
  8
0
 10
409.386
 11
409.25
 20
2721.16
 21
2721.01
  0
LINE
  8
0
 10
409.25
 11
409.103
 20
2721.01
 21
2720.88
  0
LINE
  8
0
 10
409.103
 11
408.945
 20
2720.88
 21
2720.76
  0
LINE
  8
0
 10
408.945
 11
408.779
 20
2720.76
 21
2720.65
  0
LINE
  8
0
 10
408.779
 11
408.604
 20
2720.65
 21
2720.56
  0
LINE
  8
0
 10
408.604
 11
408.422
 20
2720.56
 21
2720.48
  0
LINE
  8
0
 10
408.422
 11
408.235
 20
2720.48
 21
2720.41
  0
LINE
  8
0
 10
408.235
 11
408.042
 20
2720.41
 21
2720.36
  0
LINE
  8
0
 10
408.042
 11
407.847
 20
2720.36
 21
2720.32
  0
LINE
  8
0
 10
407.847
 11
407.649
 20
2720.32
 21
2720.3
  0
LINE
  8
0
 10
407.649
 11
407.45
 20
2720.3
 21
2720.3
  0
LINE
  8
0
 10
407.45
 11
407.252
 20
2720.3
 21
2720.31
  0
LINE
  8
0
 10
407.252
 11
407.055
 20
2720.31
 21
2720.34
  0
LINE
  8
0
 10
407.055
 11
406.861
 20
2720.34
 21
2720.38
  0
LINE
  8
0
 10
406.861
 11
406.671
 20
2720.38
 21
2720.44
  0
LINE
  8
0
 10
406.671
 11
406.486
 20
2720.44
 21
2720.51
  0
LINE
  8
0
 10
406.486
 11
406.308
 20
2720.51
 21
2720.6
  0
LINE
  8
0
 10
406.308
 11
406.137
 20
2720.6
 21
2720.7
  0
LINE
  8
0
 10
406.137
 11
405.975
 20
2720.7
 21
2720.82
  0
LINE
  8
0
 10
405.975
 11
405.822
 20
2720.82
 21
2720.95
  0
LINE
  8
0
 10
405.822
 11
405.68
 20
2720.95
 21
2721.09
  0
LINE
  8
0
 10
405.68
 11
405.55
 20
2721.09
 21
2721.24
  0
LINE
  8
0
 10
405.55
 11
405.432
 20
2721.24
 21
2721.4
  0
LINE
  8
0
 10
405.432
 11
405.327
 20
2721.4
 21
2721.56
  0
LINE
  8
0
 10
405.327
 11
405.235
 20
2721.56
 21
2721.74
  0
LINE
  8
0
 10
405.235
 11
405.158
 20
2721.74
 21
2721.92
  0
LINE
  8
0
 10
405.158
 11
405.096
 20
2721.92
 21
2722.11
  0
LINE
  8
0
 10
405.096
 11
405.049
 20
2722.11
 21
2722.31
  0
LINE
  8
0
 10
405.049
 11
405.018
 20
2722.31
 21
2722.5
  0
LINE
  8
0
 10
405.018
 11
405.002
 20
2722.5
 21
2722.7
  0
LINE
  8
0
 10
412.975
 11
412.975
 20
1122.4
 21
1178.4
  0
LINE
  8
0
 10
412.975
 11
413.073
 20
1178.4
 21
1179.02
  0
LINE
  8
0
 10
413.073
 11
413.357
 20
1179.02
 21
1179.58
  0
LINE
  8
0
 10
413.357
 11
413.799
 20
1179.58
 21
1180.02
  0
LINE
  8
0
 10
413.799
 11
414.357
 20
1180.02
 21
1180.3
  0
LINE
  8
0
 10
414.357
 11
414.975
 20
1180.3
 21
1180.4
  0
LINE
  8
0
 10
414.975
 11
415.593
 20
1180.4
 21
1180.3
  0
LINE
  8
0
 10
415.593
 11
416.151
 20
1180.3
 21
1180.02
  0
LINE
  8
0
 10
416.151
 11
416.593
 20
1180.02
 21
1179.58
  0
LINE
  8
0
 10
416.593
 11
416.877
 20
1179.58
 21
1179.02
  0
LINE
  8
0
 10
416.877
 11
416.975
 20
1179.02
 21
1178.4
  0
LINE
  8
0
 10
416.975
 11
416.975
 20
1178.4
 21
1122.4
  0
LINE
  8
0
 10
416.975
 11
416.877
 20
1122.4
 21
1121.78
  0
LINE
  8
0
 10
416.877
 11
416.593
 20
1121.78
 21
1121.22
  0
LINE
  8
0
 10
416.593
 11
416.151
 20
1121.22
 21
1120.78
  0
LINE
  8
0
 10
416.151
 11
415.593
 20
1120.78
 21
1120.5
  0
LINE
  8
0
 10
415.593
 11
414.975
 20
1120.5
 21
1120.4
  0
LINE
  8
0
 10
414.975
 11
414.357
 20
1120.4
 21
1120.5
  0
LINE
  8
0
 10
414.357
 11
413.799
 20
1120.5
 21
1120.78
  0
LINE
  8
0
 10
413.799
 11
413.357
 20
1120.78
 21
1121.22
  0
LINE
  8
0
 10
413.357
 11
413.073
 20
1121.22
 21
1121.78
  0
LINE
  8
0
 10
413.073
 11
412.975
 20
1121.78
 21
1122.4
  0
LINE
  8
0
 10
414.85
 11
414.85
 20
7.55
 21
10.45
  0
LINE
  8
0
 10
414.85
 11
414.975
 20
10.45
 21
11.238
  0
LINE
  8
0
 10
414.975
 11
415.337
 20
11.238
 21
11.949
  0
LINE
  8
0
 10
415.337
 11
415.901
 20
11.949
 21
12.513
  0
LINE
  8
0
 10
415.901
 11
416.612
 20
12.513
 21
12.875
  0
LINE
  8
0
 10
416.612
 11
417.4
 20
12.875
 21
13
  0
LINE
  8
0
 10
417.4
 11
418.188
 20
13
 21
12.875
  0
LINE
  8
0
 10
418.188
 11
418.899
 20
12.875
 21
12.513
  0
LINE
  8
0
 10
418.899
 11
419.463
 20
12.513
 21
11.949
  0
LINE
  8
0
 10
419.463
 11
419.825
 20
11.949
 21
11.238
  0
LINE
  8
0
 10
419.825
 11
419.95
 20
11.238
 21
10.45
  0
LINE
  8
0
 10
419.95
 11
419.95
 20
10.45
 21
7.55
  0
LINE
  8
0
 10
419.95
 11
419.825
 20
7.55
 21
6.762
  0
LINE
  8
0
 10
419.825
 11
419.463
 20
6.762
 21
6.051
  0
LINE
  8
0
 10
419.463
 11
418.899
 20
6.051
 21
5.487
  0
LINE
  8
0
 10
418.899
 11
418.188
 20
5.487
 21
5.125
  0
LINE
  8
0
 10
418.188
 11
417.4
 20
5.125
 21
5
  0
LINE
  8
0
 10
417.4
 11
416.612
 20
5
 21
5.125
  0
LINE
  8
0
 10
416.612
 11
415.901
 20
5.125
 21
5.487
  0
LINE
  8
0
 10
415.901
 11
415.337
 20
5.487
 21
6.051
  0
LINE
  8
0
 10
415.337
 11
414.975
 20
6.051
 21
6.762
  0
LINE
  8
0
 10
414.975
 11
414.85
 20
6.762
 21
7.55
  0
LINE
  8
0
 10
414.85
 11
414.85
 20
923.55
 21
926.45
  0
LINE
  8
0
 10
414.85
 11
414.975
 20
926.45
 21
927.238
  0
LINE
  8
0
 10
414.975
 11
415.337
 20
927.238
 21
927.949
  0
LINE
  8
0
 10
415.337
 11
415.901
 20
927.949
 21
928.513
  0
LINE
  8
0
 10
415.901
 11
416.612
 20
928.513
 21
928.875
  0
LINE
  8
0
 10
416.612
 11
417.4
 20
928.875
 21
929
  0
LINE
  8
0
 10
417.4
 11
418.188
 20
929
 21
928.875
  0
LINE
  8
0
 10
418.188
 11
418.899
 20
928.875
 21
928.513
  0
LINE
  8
0
 10
418.899
 11
419.463
 20
928.513
 21
927.949
  0
LINE
  8
0
 10
419.463
 11
419.825
 20
927.949
 21
927.238
  0
LINE
  8
0
 10
419.825
 11
419.95
 20
927.238
 21
926.45
  0
LINE
  8
0
 10
419.95
 11
419.95
 20
926.45
 21
923.55
  0
LINE
  8
0
 10
419.95
 11
419.825
 20
923.55
 21
922.762
  0
LINE
  8
0
 10
419.825
 11
419.463
 20
922.762
 21
922.051
  0
LINE
  8
0
 10
419.463
 11
418.899
 20
922.051
 21
921.487
  0
LINE
  8
0
 10
418.899
 11
418.188
 20
921.487
 21
921.125
  0
LINE
  8
0
 10
418.188
 11
417.4
 20
921.125
 21
921
  0
LINE
  8
0
 10
417.4
 11
416.612
 20
921
 21
921.125
  0
LINE
  8
0
 10
416.612
 11
415.901
 20
921.125
 21
921.487
  0
LINE
  8
0
 10
415.901
 11
415.337
 20
921.487
 21
922.051
  0
LINE
  8
0
 10
415.337
 11
414.975
 20
922.051
 21
922.762
  0
LINE
  8
0
 10
414.975
 11
414.85
 20
922.762
 21
923.55
  0
LINE
  8
0
 10
414.88
 11
414.88
 20
1259.32
 21
1262.28
  0
LINE
  8
0
 10
414.88
 11
415.003
 20
1262.28
 21
1263.06
  0
LINE
  8
0
 10
415.003
 11
415.361
 20
1263.06
 21
1263.76
  0
LINE
  8
0
 10
415.361
 11
415.919
 20
1263.76
 21
1264.32
  0
LINE
  8
0
 10
415.919
 11
416.621
 20
1264.32
 21
1264.68
  0
LINE
  8
0
 10
416.621
 11
417.4
 20
1264.68
 21
1264.8
  0
LINE
  8
0
 10
417.4
 11
418.179
 20
1264.8
 21
1264.68
  0
LINE
  8
0
 10
418.179
 11
418.881
 20
1264.68
 21
1264.32
  0
LINE
  8
0
 10
418.881
 11
419.439
 20
1264.32
 21
1263.76
  0
LINE
  8
0
 10
419.439
 11
419.797
 20
1263.76
 21
1263.06
  0
LINE
  8
0
 10
419.797
 11
419.92
 20
1263.06
 21
1262.28
  0
LINE
  8
0
 10
419.92
 11
419.92
 20
1262.28
 21
1259.32
  0
LINE
  8
0
 10
419.92
 11
419.797
 20
1259.32
 21
1258.54
  0
LINE
  8
0
 10
419.797
 11
419.439
 20
1258.54
 21
1257.84
  0
LINE
  8
0
 10
419.439
 11
418.881
 20
1257.84
 21
1257.28
  0
LINE
  8
0
 10
418.881
 11
418.179
 20
1257.28
 21
1256.92
  0
LINE
  8
0
 10
418.179
 11
417.4
 20
1256.92
 21
1256.8
  0
LINE
  8
0
 10
417.4
 11
416.621
 20
1256.8
 21
1256.92
  0
LINE
  8
0
 10
416.621
 11
415.919
 20
1256.92
 21
1257.28
  0
LINE
  8
0
 10
415.919
 11
415.361
 20
1257.28
 21
1257.84
  0
LINE
  8
0
 10
415.361
 11
415.003
 20
1257.84
 21
1258.54
  0
LINE
  8
0
 10
415.003
 11
414.88
 20
1258.54
 21
1259.32
  0
LINE
  8
0
 10
414.88
 11
414.88
 20
1508.32
 21
1511.28
  0
LINE
  8
0
 10
414.88
 11
415.003
 20
1511.28
 21
1512.06
  0
LINE
  8
0
 10
415.003
 11
415.361
 20
1512.06
 21
1512.76
  0
LINE
  8
0
 10
415.361
 11
415.919
 20
1512.76
 21
1513.32
  0
LINE
  8
0
 10
415.919
 11
416.621
 20
1513.32
 21
1513.68
  0
LINE
  8
0
 10
416.621
 11
417.4
 20
1513.68
 21
1513.8
  0
LINE
  8
0
 10
417.4
 11
418.179
 20
1513.8
 21
1513.68
  0
LINE
  8
0
 10
418.179
 11
418.881
 20
1513.68
 21
1513.32
  0
LINE
  8
0
 10
418.881
 11
419.439
 20
1513.32
 21
1512.76
  0
LINE
  8
0
 10
419.439
 11
419.797
 20
1512.76
 21
1512.06
  0
LINE
  8
0
 10
419.797
 11
419.92
 20
1512.06
 21
1511.28
  0
LINE
  8
0
 10
419.92
 11
419.92
 20
1511.28
 21
1508.32
  0
LINE
  8
0
 10
419.92
 11
419.797
 20
1508.32
 21
1507.54
  0
LINE
  8
0
 10
419.797
 11
419.439
 20
1507.54
 21
1506.84
  0
LINE
  8
0
 10
419.439
 11
418.881
 20
1506.84
 21
1506.28
  0
LINE
  8
0
 10
418.881
 11
418.179
 20
1506.28
 21
1505.92
  0
LINE
  8
0
 10
418.179
 11
417.4
 20
1505.92
 21
1505.8
  0
LINE
  8
0
 10
417.4
 11
416.621
 20
1505.8
 21
1505.92
  0
LINE
  8
0
 10
416.621
 11
415.919
 20
1505.92
 21
1506.28
  0
LINE
  8
0
 10
415.919
 11
415.361
 20
1506.28
 21
1506.84
  0
LINE
  8
0
 10
415.361
 11
415.003
 20
1506.84
 21
1507.54
  0
LINE
  8
0
 10
415.003
 11
414.88
 20
1507.54
 21
1508.32
  0
LINE
  8
0
 10
414.902
 11
414.902
 20
968.301
 21
968.499
  0
LINE
  8
0
 10
414.902
 11
414.918
 20
968.499
 21
968.698
  0
LINE
  8
0
 10
414.918
 11
414.949
 20
968.698
 21
968.894
  0
LINE
  8
0
 10
414.949
 11
414.996
 20
968.894
 21
969.087
  0
LINE
  8
0
 10
414.996
 11
415.058
 20
969.087
 21
969.276
  0
LINE
  8
0
 10
415.058
 11
415.135
 20
969.276
 21
969.459
  0
LINE
  8
0
 10
415.135
 11
415.227
 20
969.459
 21
969.636
  0
LINE
  8
0
 10
415.227
 11
415.332
 20
969.636
 21
969.804
  0
LINE
  8
0
 10
415.332
 11
415.45
 20
969.804
 21
969.964
  0
LINE
  8
0
 10
415.45
 11
415.58
 20
969.964
 21
970.114
  0
LINE
  8
0
 10
415.58
 11
415.722
 20
970.114
 21
970.253
  0
LINE
  8
0
 10
415.722
 11
415.875
 20
970.253
 21
970.381
  0
LINE
  8
0
 10
415.875
 11
416.037
 20
970.381
 21
970.496
  0
LINE
  8
0
 10
416.037
 11
416.208
 20
970.496
 21
970.597
  0
LINE
  8
0
 10
416.208
 11
416.386
 20
970.597
 21
970.685
  0
LINE
  8
0
 10
416.386
 11
416.571
 20
970.685
 21
970.759
  0
LINE
  8
0
 10
416.571
 11
416.761
 20
970.759
 21
970.817
  0
LINE
  8
0
 10
416.761
 11
416.955
 20
970.817
 21
970.86
  0
LINE
  8
0
 10
416.955
 11
417.152
 20
970.86
 21
970.888
  0
LINE
  8
0
 10
417.152
 11
417.35
 20
970.888
 21
970.9
  0
LINE
  8
0
 10
417.35
 11
417.549
 20
970.9
 21
970.896
  0
LINE
  8
0
 10
417.549
 11
417.747
 20
970.896
 21
970.876
  0
LINE
  8
0
 10
417.747
 11
417.942
 20
970.876
 21
970.84
  0
LINE
  8
0
 10
417.942
 11
418.135
 20
970.84
 21
970.79
  0
LINE
  8
0
 10
418.135
 11
418.322
 20
970.79
 21
970.724
  0
LINE
  8
0
 10
418.322
 11
418.504
 20
970.724
 21
970.643
  0
LINE
  8
0
 10
418.504
 11
418.679
 20
970.643
 21
970.548
  0
LINE
  8
0
 10
418.679
 11
418.845
 20
970.548
 21
970.44
  0
LINE
  8
0
 10
418.845
 11
419.003
 20
970.44
 21
970.319
  0
LINE
  8
0
 10
419.003
 11
419.15
 20
970.319
 21
970.185
  0
LINE
  8
0
 10
419.15
 11
419.286
 20
970.185
 21
970.041
  0
LINE
  8
0
 10
419.286
 11
419.411
 20
970.041
 21
969.886
  0
LINE
  8
0
 10
419.411
 11
419.522
 20
969.886
 21
969.721
  0
LINE
  8
0
 10
419.522
 11
419.621
 20
969.721
 21
969.548
  0
LINE
  8
0
 10
419.621
 11
419.705
 20
969.548
 21
969.368
  0
LINE
  8
0
 10
419.705
 11
419.775
 20
969.368
 21
969.182
  0
LINE
  8
0
 10
419.775
 11
419.829
 20
969.182
 21
968.991
  0
LINE
  8
0
 10
419.829
 11
419.868
 20
968.991
 21
968.796
  0
LINE
  8
0
 10
419.868
 11
419.892
 20
968.796
 21
968.599
  0
LINE
  8
0
 10
419.892
 11
419.9
 20
968.599
 21
968.4
  0
LINE
  8
0
 10
419.9
 11
419.892
 20
968.4
 21
968.201
  0
LINE
  8
0
 10
419.892
 11
419.868
 20
968.201
 21
968.004
  0
LINE
  8
0
 10
419.868
 11
419.829
 20
968.004
 21
967.809
  0
LINE
  8
0
 10
419.829
 11
419.775
 20
967.809
 21
967.618
  0
LINE
  8
0
 10
419.775
 11
419.705
 20
967.618
 21
967.432
  0
LINE
  8
0
 10
419.705
 11
419.621
 20
967.432
 21
967.252
  0
LINE
  8
0
 10
419.621
 11
419.522
 20
967.252
 21
967.079
  0
LINE
  8
0
 10
419.522
 11
419.411
 20
967.079
 21
966.914
  0
LINE
  8
0
 10
419.411
 11
419.286
 20
966.914
 21
966.759
  0
LINE
  8
0
 10
419.286
 11
419.15
 20
966.759
 21
966.615
  0
LINE
  8
0
 10
419.15
 11
419.003
 20
966.615
 21
966.481
  0
LINE
  8
0
 10
419.003
 11
418.845
 20
966.481
 21
966.36
  0
LINE
  8
0
 10
418.845
 11
418.679
 20
966.36
 21
966.252
  0
LINE
  8
0
 10
418.679
 11
418.504
 20
966.252
 21
966.157
  0
LINE
  8
0
 10
418.504
 11
418.322
 20
966.157
 21
966.076
  0
LINE
  8
0
 10
418.322
 11
418.135
 20
966.076
 21
966.01
  0
LINE
  8
0
 10
418.135
 11
417.942
 20
966.01
 21
965.96
  0
LINE
  8
0
 10
417.942
 11
417.747
 20
965.96
 21
965.924
  0
LINE
  8
0
 10
417.747
 11
417.549
 20
965.924
 21
965.904
  0
LINE
  8
0
 10
417.549
 11
417.35
 20
965.904
 21
965.9
  0
LINE
  8
0
 10
417.35
 11
417.152
 20
965.9
 21
965.912
  0
LINE
  8
0
 10
417.152
 11
416.955
 20
965.912
 21
965.94
  0
LINE
  8
0
 10
416.955
 11
416.761
 20
965.94
 21
965.983
  0
LINE
  8
0
 10
416.761
 11
416.571
 20
965.983
 21
966.041
  0
LINE
  8
0
 10
416.571
 11
416.386
 20
966.041
 21
966.115
  0
LINE
  8
0
 10
416.386
 11
416.208
 20
966.115
 21
966.203
  0
LINE
  8
0
 10
416.208
 11
416.037
 20
966.203
 21
966.304
  0
LINE
  8
0
 10
416.037
 11
415.875
 20
966.304
 21
966.419
  0
LINE
  8
0
 10
415.875
 11
415.722
 20
966.419
 21
966.547
  0
LINE
  8
0
 10
415.722
 11
415.58
 20
966.547
 21
966.686
  0
LINE
  8
0
 10
415.58
 11
415.45
 20
966.686
 21
966.836
  0
LINE
  8
0
 10
415.45
 11
415.332
 20
966.836
 21
966.996
  0
LINE
  8
0
 10
415.332
 11
415.227
 20
966.996
 21
967.164
  0
LINE
  8
0
 10
415.227
 11
415.135
 20
967.164
 21
967.341
  0
LINE
  8
0
 10
415.135
 11
415.058
 20
967.341
 21
967.524
  0
LINE
  8
0
 10
415.058
 11
414.996
 20
967.524
 21
967.713
  0
LINE
  8
0
 10
414.996
 11
414.949
 20
967.713
 21
967.906
  0
LINE
  8
0
 10
414.949
 11
414.918
 20
967.906
 21
968.102
  0
LINE
  8
0
 10
414.918
 11
414.902
 20
968.102
 21
968.301
  0
LINE
  8
0
 10
414.902
 11
414.902
 20
1197.3
 21
1197.5
  0
LINE
  8
0
 10
414.902
 11
414.918
 20
1197.5
 21
1197.7
  0
LINE
  8
0
 10
414.918
 11
414.949
 20
1197.7
 21
1197.89
  0
LINE
  8
0
 10
414.949
 11
414.996
 20
1197.89
 21
1198.09
  0
LINE
  8
0
 10
414.996
 11
415.058
 20
1198.09
 21
1198.28
  0
LINE
  8
0
 10
415.058
 11
415.135
 20
1198.28
 21
1198.46
  0
LINE
  8
0
 10
415.135
 11
415.227
 20
1198.46
 21
1198.64
  0
LINE
  8
0
 10
415.227
 11
415.332
 20
1198.64
 21
1198.8
  0
LINE
  8
0
 10
415.332
 11
415.45
 20
1198.8
 21
1198.96
  0
LINE
  8
0
 10
415.45
 11
415.58
 20
1198.96
 21
1199.11
  0
LINE
  8
0
 10
415.58
 11
415.722
 20
1199.11
 21
1199.25
  0
LINE
  8
0
 10
415.722
 11
415.875
 20
1199.25
 21
1199.38
  0
LINE
  8
0
 10
415.875
 11
416.037
 20
1199.38
 21
1199.5
  0
LINE
  8
0
 10
416.037
 11
416.208
 20
1199.5
 21
1199.6
  0
LINE
  8
0
 10
416.208
 11
416.386
 20
1199.6
 21
1199.68
  0
LINE
  8
0
 10
416.386
 11
416.571
 20
1199.68
 21
1199.76
  0
LINE
  8
0
 10
416.571
 11
416.761
 20
1199.76
 21
1199.82
  0
LINE
  8
0
 10
416.761
 11
416.955
 20
1199.82
 21
1199.86
  0
LINE
  8
0
 10
416.955
 11
417.152
 20
1199.86
 21
1199.89
  0
LINE
  8
0
 10
417.152
 11
417.35
 20
1199.89
 21
1199.9
  0
LINE
  8
0
 10
417.35
 11
417.549
 20
1199.9
 21
1199.9
  0
LINE
  8
0
 10
417.549
 11
417.747
 20
1199.9
 21
1199.88
  0
LINE
  8
0
 10
417.747
 11
417.942
 20
1199.88
 21
1199.84
  0
LINE
  8
0
 10
417.942
 11
418.135
 20
1199.84
 21
1199.79
  0
LINE
  8
0
 10
418.135
 11
418.322
 20
1199.79
 21
1199.72
  0
LINE
  8
0
 10
418.322
 11
418.504
 20
1199.72
 21
1199.64
  0
LINE
  8
0
 10
418.504
 11
418.679
 20
1199.64
 21
1199.55
  0
LINE
  8
0
 10
418.679
 11
418.845
 20
1199.55
 21
1199.44
  0
LINE
  8
0
 10
418.845
 11
419.003
 20
1199.44
 21
1199.32
  0
LINE
  8
0
 10
419.003
 11
419.15
 20
1199.32
 21
1199.18
  0
LINE
  8
0
 10
419.15
 11
419.286
 20
1199.18
 21
1199.04
  0
LINE
  8
0
 10
419.286
 11
419.411
 20
1199.04
 21
1198.89
  0
LINE
  8
0
 10
419.411
 11
419.522
 20
1198.89
 21
1198.72
  0
LINE
  8
0
 10
419.522
 11
419.621
 20
1198.72
 21
1198.55
  0
LINE
  8
0
 10
419.621
 11
419.705
 20
1198.55
 21
1198.37
  0
LINE
  8
0
 10
419.705
 11
419.775
 20
1198.37
 21
1198.18
  0
LINE
  8
0
 10
419.775
 11
419.829
 20
1198.18
 21
1197.99
  0
LINE
  8
0
 10
419.829
 11
419.868
 20
1197.99
 21
1197.8
  0
LINE
  8
0
 10
419.868
 11
419.892
 20
1197.8
 21
1197.6
  0
LINE
  8
0
 10
419.892
 11
419.9
 20
1197.6
 21
1197.4
  0
LINE
  8
0
 10
419.9
 11
419.892
 20
1197.4
 21
1197.2
  0
LINE
  8
0
 10
419.892
 11
419.868
 20
1197.2
 21
1197
  0
LINE
  8
0
 10
419.868
 11
419.829
 20
1197
 21
1196.81
  0
LINE
  8
0
 10
419.829
 11
419.775
 20
1196.81
 21
1196.62
  0
LINE
  8
0
 10
419.775
 11
419.705
 20
1196.62
 21
1196.43
  0
LINE
  8
0
 10
419.705
 11
419.621
 20
1196.43
 21
1196.25
  0
LINE
  8
0
 10
419.621
 11
419.522
 20
1196.25
 21
1196.08
  0
LINE
  8
0
 10
419.522
 11
419.411
 20
1196.08
 21
1195.91
  0
LINE
  8
0
 10
419.411
 11
419.286
 20
1195.91
 21
1195.76
  0
LINE
  8
0
 10
419.286
 11
419.15
 20
1195.76
 21
1195.62
  0
LINE
  8
0
 10
419.15
 11
419.003
 20
1195.62
 21
1195.48
  0
LINE
  8
0
 10
419.003
 11
418.845
 20
1195.48
 21
1195.36
  0
LINE
  8
0
 10
418.845
 11
418.679
 20
1195.36
 21
1195.25
  0
LINE
  8
0
 10
418.679
 11
418.504
 20
1195.25
 21
1195.16
  0
LINE
  8
0
 10
418.504
 11
418.322
 20
1195.16
 21
1195.08
  0
LINE
  8
0
 10
418.322
 11
418.135
 20
1195.08
 21
1195.01
  0
LINE
  8
0
 10
418.135
 11
417.942
 20
1195.01
 21
1194.96
  0
LINE
  8
0
 10
417.942
 11
417.747
 20
1194.96
 21
1194.92
  0
LINE
  8
0
 10
417.747
 11
417.549
 20
1194.92
 21
1194.9
  0
LINE
  8
0
 10
417.549
 11
417.35
 20
1194.9
 21
1194.9
  0
LINE
  8
0
 10
417.35
 11
417.152
 20
1194.9
 21
1194.91
  0
LINE
  8
0
 10
417.152
 11
416.955
 20
1194.91
 21
1194.94
  0
LINE
  8
0
 10
416.955
 11
416.761
 20
1194.94
 21
1194.98
  0
LINE
  8
0
 10
416.761
 11
416.571
 20
1194.98
 21
1195.04
  0
LINE
  8
0
 10
416.571
 11
416.386
 20
1195.04
 21
1195.12
  0
LINE
  8
0
 10
416.386
 11
416.208
 20
1195.12
 21
1195.2
  0
LINE
  8
0
 10
416.208
 11
416.037
 20
1195.2
 21
1195.3
  0
LINE
  8
0
 10
416.037
 11
415.875
 20
1195.3
 21
1195.42
  0
LINE
  8
0
 10
415.875
 11
415.722
 20
1195.42
 21
1195.55
  0
LINE
  8
0
 10
415.722
 11
415.58
 20
1195.55
 21
1195.69
  0
LINE
  8
0
 10
415.58
 11
415.45
 20
1195.69
 21
1195.84
  0
LINE
  8
0
 10
415.45
 11
415.332
 20
1195.84
 21
1196
  0
LINE
  8
0
 10
415.332
 11
415.227
 20
1196
 21
1196.16
  0
LINE
  8
0
 10
415.227
 11
415.135
 20
1196.16
 21
1196.34
  0
LINE
  8
0
 10
415.135
 11
415.058
 20
1196.34
 21
1196.52
  0
LINE
  8
0
 10
415.058
 11
414.996
 20
1196.52
 21
1196.71
  0
LINE
  8
0
 10
414.996
 11
414.949
 20
1196.71
 21
1196.91
  0
LINE
  8
0
 10
414.949
 11
414.918
 20
1196.91
 21
1197.1
  0
LINE
  8
0
 10
414.918
 11
414.902
 20
1197.1
 21
1197.3
  0
LINE
  8
0
 10
434.702
 11
434.702
 20
2137.9
 21
2138.1
  0
LINE
  8
0
 10
434.702
 11
434.718
 20
2138.1
 21
2138.3
  0
LINE
  8
0
 10
434.718
 11
434.749
 20
2138.3
 21
2138.49
  0
LINE
  8
0
 10
434.749
 11
434.796
 20
2138.49
 21
2138.69
  0
LINE
  8
0
 10
434.796
 11
434.858
 20
2138.69
 21
2138.88
  0
LINE
  8
0
 10
434.858
 11
434.935
 20
2138.88
 21
2139.06
  0
LINE
  8
0
 10
434.935
 11
435.027
 20
2139.06
 21
2139.24
  0
LINE
  8
0
 10
435.027
 11
435.132
 20
2139.24
 21
2139.4
  0
LINE
  8
0
 10
435.132
 11
435.25
 20
2139.4
 21
2139.56
  0
LINE
  8
0
 10
435.25
 11
435.38
 20
2139.56
 21
2139.71
  0
LINE
  8
0
 10
435.38
 11
435.522
 20
2139.71
 21
2139.85
  0
LINE
  8
0
 10
435.522
 11
435.675
 20
2139.85
 21
2139.98
  0
LINE
  8
0
 10
435.675
 11
435.837
 20
2139.98
 21
2140.1
  0
LINE
  8
0
 10
435.837
 11
436.008
 20
2140.1
 21
2140.2
  0
LINE
  8
0
 10
436.008
 11
436.186
 20
2140.2
 21
2140.28
  0
LINE
  8
0
 10
436.186
 11
436.371
 20
2140.28
 21
2140.36
  0
LINE
  8
0
 10
436.371
 11
436.561
 20
2140.36
 21
2140.42
  0
LINE
  8
0
 10
436.561
 11
436.755
 20
2140.42
 21
2140.46
  0
LINE
  8
0
 10
436.755
 11
436.952
 20
2140.46
 21
2140.49
  0
LINE
  8
0
 10
436.952
 11
437.15
 20
2140.49
 21
2140.5
  0
LINE
  8
0
 10
437.15
 11
437.349
 20
2140.5
 21
2140.5
  0
LINE
  8
0
 10
437.349
 11
437.547
 20
2140.5
 21
2140.48
  0
LINE
  8
0
 10
437.547
 11
437.742
 20
2140.48
 21
2140.44
  0
LINE
  8
0
 10
437.742
 11
437.935
 20
2140.44
 21
2140.39
  0
LINE
  8
0
 10
437.935
 11
438.122
 20
2140.39
 21
2140.32
  0
LINE
  8
0
 10
438.122
 11
438.304
 20
2140.32
 21
2140.24
  0
LINE
  8
0
 10
438.304
 11
438.479
 20
2140.24
 21
2140.15
  0
LINE
  8
0
 10
438.479
 11
438.645
 20
2140.15
 21
2140.04
  0
LINE
  8
0
 10
438.645
 11
438.803
 20
2140.04
 21
2139.92
  0
LINE
  8
0
 10
438.803
 11
438.95
 20
2139.92
 21
2139.78
  0
LINE
  8
0
 10
438.95
 11
439.086
 20
2139.78
 21
2139.64
  0
LINE
  8
0
 10
439.086
 11
439.211
 20
2139.64
 21
2139.49
  0
LINE
  8
0
 10
439.211
 11
439.322
 20
2139.49
 21
2139.32
  0
LINE
  8
0
 10
439.322
 11
439.421
 20
2139.32
 21
2139.15
  0
LINE
  8
0
 10
439.421
 11
439.505
 20
2139.15
 21
2138.97
  0
LINE
  8
0
 10
439.505
 11
439.575
 20
2138.97
 21
2138.78
  0
LINE
  8
0
 10
439.575
 11
439.629
 20
2138.78
 21
2138.59
  0
LINE
  8
0
 10
439.629
 11
439.668
 20
2138.59
 21
2138.4
  0
LINE
  8
0
 10
439.668
 11
439.692
 20
2138.4
 21
2138.2
  0
LINE
  8
0
 10
439.692
 11
439.7
 20
2138.2
 21
2138
  0
LINE
  8
0
 10
439.7
 11
439.692
 20
2138
 21
2137.8
  0
LINE
  8
0
 10
439.692
 11
439.668
 20
2137.8
 21
2137.6
  0
LINE
  8
0
 10
439.668
 11
439.629
 20
2137.6
 21
2137.41
  0
LINE
  8
0
 10
439.629
 11
439.575
 20
2137.41
 21
2137.22
  0
LINE
  8
0
 10
439.575
 11
439.505
 20
2137.22
 21
2137.03
  0
LINE
  8
0
 10
439.505
 11
439.421
 20
2137.03
 21
2136.85
  0
LINE
  8
0
 10
439.421
 11
439.322
 20
2136.85
 21
2136.68
  0
LINE
  8
0
 10
439.322
 11
439.211
 20
2136.68
 21
2136.51
  0
LINE
  8
0
 10
439.211
 11
439.086
 20
2136.51
 21
2136.36
  0
LINE
  8
0
 10
439.086
 11
438.95
 20
2136.36
 21
2136.22
  0
LINE
  8
0
 10
438.95
 11
438.803
 20
2136.22
 21
2136.08
  0
LINE
  8
0
 10
438.803
 11
438.645
 20
2136.08
 21
2135.96
  0
LINE
  8
0
 10
438.645
 11
438.479
 20
2135.96
 21
2135.85
  0
LINE
  8
0
 10
438.479
 11
438.304
 20
2135.85
 21
2135.76
  0
LINE
  8
0
 10
438.304
 11
438.122
 20
2135.76
 21
2135.68
  0
LINE
  8
0
 10
438.122
 11
437.935
 20
2135.68
 21
2135.61
  0
LINE
  8
0
 10
437.935
 11
437.742
 20
2135.61
 21
2135.56
  0
LINE
  8
0
 10
437.742
 11
437.547
 20
2135.56
 21
2135.52
  0
LINE
  8
0
 10
437.547
 11
437.349
 20
2135.52
 21
2135.5
  0
LINE
  8
0
 10
437.349
 11
437.15
 20
2135.5
 21
2135.5
  0
LINE
  8
0
 10
437.15
 11
436.952
 20
2135.5
 21
2135.51
  0
LINE
  8
0
 10
436.952
 11
436.755
 20
2135.51
 21
2135.54
  0
LINE
  8
0
 10
436.755
 11
436.561
 20
2135.54
 21
2135.58
  0
LINE
  8
0
 10
436.561
 11
436.371
 20
2135.58
 21
2135.64
  0
LINE
  8
0
 10
436.371
 11
436.186
 20
2135.64
 21
2135.72
  0
LINE
  8
0
 10
436.186
 11
436.008
 20
2135.72
 21
2135.8
  0
LINE
  8
0
 10
436.008
 11
435.837
 20
2135.8
 21
2135.9
  0
LINE
  8
0
 10
435.837
 11
435.675
 20
2135.9
 21
2136.02
  0
LINE
  8
0
 10
435.675
 11
435.522
 20
2136.02
 21
2136.15
  0
LINE
  8
0
 10
435.522
 11
435.38
 20
2136.15
 21
2136.29
  0
LINE
  8
0
 10
435.38
 11
435.25
 20
2136.29
 21
2136.44
  0
LINE
  8
0
 10
435.25
 11
435.132
 20
2136.44
 21
2136.6
  0
LINE
  8
0
 10
435.132
 11
435.027
 20
2136.6
 21
2136.76
  0
LINE
  8
0
 10
435.027
 11
434.935
 20
2136.76
 21
2136.94
  0
LINE
  8
0
 10
434.935
 11
434.858
 20
2136.94
 21
2137.12
  0
LINE
  8
0
 10
434.858
 11
434.796
 20
2137.12
 21
2137.31
  0
LINE
  8
0
 10
434.796
 11
434.749
 20
2137.31
 21
2137.51
  0
LINE
  8
0
 10
434.749
 11
434.718
 20
2137.51
 21
2137.7
  0
LINE
  8
0
 10
434.718
 11
434.702
 20
2137.7
 21
2137.9
  0
LINE
  8
0
 10
434.702
 11
434.702
 20
2237.9
 21
2238.1
  0
LINE
  8
0
 10
434.702
 11
434.718
 20
2238.1
 21
2238.3
  0
LINE
  8
0
 10
434.718
 11
434.749
 20
2238.3
 21
2238.49
  0
LINE
  8
0
 10
434.749
 11
434.796
 20
2238.49
 21
2238.69
  0
LINE
  8
0
 10
434.796
 11
434.858
 20
2238.69
 21
2238.88
  0
LINE
  8
0
 10
434.858
 11
434.935
 20
2238.88
 21
2239.06
  0
LINE
  8
0
 10
434.935
 11
435.027
 20
2239.06
 21
2239.24
  0
LINE
  8
0
 10
435.027
 11
435.132
 20
2239.24
 21
2239.4
  0
LINE
  8
0
 10
435.132
 11
435.25
 20
2239.4
 21
2239.56
  0
LINE
  8
0
 10
435.25
 11
435.38
 20
2239.56
 21
2239.71
  0
LINE
  8
0
 10
435.38
 11
435.522
 20
2239.71
 21
2239.85
  0
LINE
  8
0
 10
435.522
 11
435.675
 20
2239.85
 21
2239.98
  0
LINE
  8
0
 10
435.675
 11
435.837
 20
2239.98
 21
2240.1
  0
LINE
  8
0
 10
435.837
 11
436.008
 20
2240.1
 21
2240.2
  0
LINE
  8
0
 10
436.008
 11
436.186
 20
2240.2
 21
2240.28
  0
LINE
  8
0
 10
436.186
 11
436.371
 20
2240.28
 21
2240.36
  0
LINE
  8
0
 10
436.371
 11
436.561
 20
2240.36
 21
2240.42
  0
LINE
  8
0
 10
436.561
 11
436.755
 20
2240.42
 21
2240.46
  0
LINE
  8
0
 10
436.755
 11
436.952
 20
2240.46
 21
2240.49
  0
LINE
  8
0
 10
436.952
 11
437.15
 20
2240.49
 21
2240.5
  0
LINE
  8
0
 10
437.15
 11
437.349
 20
2240.5
 21
2240.5
  0
LINE
  8
0
 10
437.349
 11
437.547
 20
2240.5
 21
2240.48
  0
LINE
  8
0
 10
437.547
 11
437.742
 20
2240.48
 21
2240.44
  0
LINE
  8
0
 10
437.742
 11
437.935
 20
2240.44
 21
2240.39
  0
LINE
  8
0
 10
437.935
 11
438.122
 20
2240.39
 21
2240.32
  0
LINE
  8
0
 10
438.122
 11
438.304
 20
2240.32
 21
2240.24
  0
LINE
  8
0
 10
438.304
 11
438.479
 20
2240.24
 21
2240.15
  0
LINE
  8
0
 10
438.479
 11
438.645
 20
2240.15
 21
2240.04
  0
LINE
  8
0
 10
438.645
 11
438.803
 20
2240.04
 21
2239.92
  0
LINE
  8
0
 10
438.803
 11
438.95
 20
2239.92
 21
2239.78
  0
LINE
  8
0
 10
438.95
 11
439.086
 20
2239.78
 21
2239.64
  0
LINE
  8
0
 10
439.086
 11
439.211
 20
2239.64
 21
2239.49
  0
LINE
  8
0
 10
439.211
 11
439.322
 20
2239.49
 21
2239.32
  0
LINE
  8
0
 10
439.322
 11
439.421
 20
2239.32
 21
2239.15
  0
LINE
  8
0
 10
439.421
 11
439.505
 20
2239.15
 21
2238.97
  0
LINE
  8
0
 10
439.505
 11
439.575
 20
2238.97
 21
2238.78
  0
LINE
  8
0
 10
439.575
 11
439.629
 20
2238.78
 21
2238.59
  0
LINE
  8
0
 10
439.629
 11
439.668
 20
2238.59
 21
2238.4
  0
LINE
  8
0
 10
439.668
 11
439.692
 20
2238.4
 21
2238.2
  0
LINE
  8
0
 10
439.692
 11
439.7
 20
2238.2
 21
2238
  0
LINE
  8
0
 10
439.7
 11
439.692
 20
2238
 21
2237.8
  0
LINE
  8
0
 10
439.692
 11
439.668
 20
2237.8
 21
2237.6
  0
LINE
  8
0
 10
439.668
 11
439.629
 20
2237.6
 21
2237.41
  0
LINE
  8
0
 10
439.629
 11
439.575
 20
2237.41
 21
2237.22
  0
LINE
  8
0
 10
439.575
 11
439.505
 20
2237.22
 21
2237.03
  0
LINE
  8
0
 10
439.505
 11
439.421
 20
2237.03
 21
2236.85
  0
LINE
  8
0
 10
439.421
 11
439.322
 20
2236.85
 21
2236.68
  0
LINE
  8
0
 10
439.322
 11
439.211
 20
2236.68
 21
2236.51
  0
LINE
  8
0
 10
439.211
 11
439.086
 20
2236.51
 21
2236.36
  0
LINE
  8
0
 10
439.086
 11
438.95
 20
2236.36
 21
2236.22
  0
LINE
  8
0
 10
438.95
 11
438.803
 20
2236.22
 21
2236.08
  0
LINE
  8
0
 10
438.803
 11
438.645
 20
2236.08
 21
2235.96
  0
LINE
  8
0
 10
438.645
 11
438.479
 20
2235.96
 21
2235.85
  0
LINE
  8
0
 10
438.479
 11
438.304
 20
2235.85
 21
2235.76
  0
LINE
  8
0
 10
438.304
 11
438.122
 20
2235.76
 21
2235.68
  0
LINE
  8
0
 10
438.122
 11
437.935
 20
2235.68
 21
2235.61
  0
LINE
  8
0
 10
437.935
 11
437.742
 20
2235.61
 21
2235.56
  0
LINE
  8
0
 10
437.742
 11
437.547
 20
2235.56
 21
2235.52
  0
LINE
  8
0
 10
437.547
 11
437.349
 20
2235.52
 21
2235.5
  0
LINE
  8
0
 10
437.349
 11
437.15
 20
2235.5
 21
2235.5
  0
LINE
  8
0
 10
437.15
 11
436.952
 20
2235.5
 21
2235.51
  0
LINE
  8
0
 10
436.952
 11
436.755
 20
2235.51
 21
2235.54
  0
LINE
  8
0
 10
436.755
 11
436.561
 20
2235.54
 21
2235.58
  0
LINE
  8
0
 10
436.561
 11
436.371
 20
2235.58
 21
2235.64
  0
LINE
  8
0
 10
436.371
 11
436.186
 20
2235.64
 21
2235.72
  0
LINE
  8
0
 10
436.186
 11
436.008
 20
2235.72
 21
2235.8
  0
LINE
  8
0
 10
436.008
 11
435.837
 20
2235.8
 21
2235.9
  0
LINE
  8
0
 10
435.837
 11
435.675
 20
2235.9
 21
2236.02
  0
LINE
  8
0
 10
435.675
 11
435.522
 20
2236.02
 21
2236.15
  0
LINE
  8
0
 10
435.522
 11
435.38
 20
2236.15
 21
2236.29
  0
LINE
  8
0
 10
435.38
 11
435.25
 20
2236.29
 21
2236.44
  0
LINE
  8
0
 10
435.25
 11
435.132
 20
2236.44
 21
2236.6
  0
LINE
  8
0
 10
435.132
 11
435.027
 20
2236.6
 21
2236.76
  0
LINE
  8
0
 10
435.027
 11
434.935
 20
2236.76
 21
2236.94
  0
LINE
  8
0
 10
434.935
 11
434.858
 20
2236.94
 21
2237.12
  0
LINE
  8
0
 10
434.858
 11
434.796
 20
2237.12
 21
2237.31
  0
LINE
  8
0
 10
434.796
 11
434.749
 20
2237.31
 21
2237.51
  0
LINE
  8
0
 10
434.749
 11
434.718
 20
2237.51
 21
2237.7
  0
LINE
  8
0
 10
434.718
 11
434.702
 20
2237.7
 21
2237.9
  0
LINE
  8
0
 10
443.223
 11
443.223
 20
1122.4
 21
1178.4
  0
LINE
  8
0
 10
443.223
 11
443.321
 20
1178.4
 21
1179.02
  0
LINE
  8
0
 10
443.321
 11
443.605
 20
1179.02
 21
1179.58
  0
LINE
  8
0
 10
443.605
 11
444.047
 20
1179.58
 21
1180.02
  0
LINE
  8
0
 10
444.047
 11
444.605
 20
1180.02
 21
1180.3
  0
LINE
  8
0
 10
444.605
 11
445.223
 20
1180.3
 21
1180.4
  0
LINE
  8
0
 10
445.223
 11
445.841
 20
1180.4
 21
1180.3
  0
LINE
  8
0
 10
445.841
 11
446.399
 20
1180.3
 21
1180.02
  0
LINE
  8
0
 10
446.399
 11
446.841
 20
1180.02
 21
1179.58
  0
LINE
  8
0
 10
446.841
 11
447.125
 20
1179.58
 21
1179.02
  0
LINE
  8
0
 10
447.125
 11
447.223
 20
1179.02
 21
1178.4
  0
LINE
  8
0
 10
447.223
 11
447.223
 20
1178.4
 21
1122.4
  0
LINE
  8
0
 10
447.223
 11
447.125
 20
1122.4
 21
1121.78
  0
LINE
  8
0
 10
447.125
 11
446.841
 20
1121.78
 21
1121.22
  0
LINE
  8
0
 10
446.841
 11
446.399
 20
1121.22
 21
1120.78
  0
LINE
  8
0
 10
446.399
 11
445.841
 20
1120.78
 21
1120.5
  0
LINE
  8
0
 10
445.841
 11
445.223
 20
1120.5
 21
1120.4
  0
LINE
  8
0
 10
445.223
 11
444.605
 20
1120.4
 21
1120.5
  0
LINE
  8
0
 10
444.605
 11
444.047
 20
1120.5
 21
1120.78
  0
LINE
  8
0
 10
444.047
 11
443.605
 20
1120.78
 21
1121.22
  0
LINE
  8
0
 10
443.605
 11
443.321
 20
1121.22
 21
1121.78
  0
LINE
  8
0
 10
443.321
 11
443.223
 20
1121.78
 21
1122.4
  0
LINE
  8
0
 10
464.502
 11
464.502
 20
2430.3
 21
2430.5
  0
LINE
  8
0
 10
464.502
 11
464.518
 20
2430.5
 21
2430.7
  0
LINE
  8
0
 10
464.518
 11
464.549
 20
2430.7
 21
2430.89
  0
LINE
  8
0
 10
464.549
 11
464.596
 20
2430.89
 21
2431.09
  0
LINE
  8
0
 10
464.596
 11
464.658
 20
2431.09
 21
2431.28
  0
LINE
  8
0
 10
464.658
 11
464.735
 20
2431.28
 21
2431.46
  0
LINE
  8
0
 10
464.735
 11
464.827
 20
2431.46
 21
2431.64
  0
LINE
  8
0
 10
464.827
 11
464.932
 20
2431.64
 21
2431.8
  0
LINE
  8
0
 10
464.932
 11
465.05
 20
2431.8
 21
2431.96
  0
LINE
  8
0
 10
465.05
 11
465.18
 20
2431.96
 21
2432.11
  0
LINE
  8
0
 10
465.18
 11
465.322
 20
2432.11
 21
2432.25
  0
LINE
  8
0
 10
465.322
 11
465.475
 20
2432.25
 21
2432.38
  0
LINE
  8
0
 10
465.475
 11
465.637
 20
2432.38
 21
2432.5
  0
LINE
  8
0
 10
465.637
 11
465.808
 20
2432.5
 21
2432.6
  0
LINE
  8
0
 10
465.808
 11
465.986
 20
2432.6
 21
2432.68
  0
LINE
  8
0
 10
465.986
 11
466.171
 20
2432.68
 21
2432.76
  0
LINE
  8
0
 10
466.171
 11
466.361
 20
2432.76
 21
2432.82
  0
LINE
  8
0
 10
466.361
 11
466.555
 20
2432.82
 21
2432.86
  0
LINE
  8
0
 10
466.555
 11
466.752
 20
2432.86
 21
2432.89
  0
LINE
  8
0
 10
466.752
 11
466.95
 20
2432.89
 21
2432.9
  0
LINE
  8
0
 10
466.95
 11
467.149
 20
2432.9
 21
2432.9
  0
LINE
  8
0
 10
467.149
 11
467.347
 20
2432.9
 21
2432.88
  0
LINE
  8
0
 10
467.347
 11
467.542
 20
2432.88
 21
2432.84
  0
LINE
  8
0
 10
467.542
 11
467.735
 20
2432.84
 21
2432.79
  0
LINE
  8
0
 10
467.735
 11
467.922
 20
2432.79
 21
2432.72
  0
LINE
  8
0
 10
467.922
 11
468.104
 20
2432.72
 21
2432.64
  0
LINE
  8
0
 10
468.104
 11
468.279
 20
2432.64
 21
2432.55
  0
LINE
  8
0
 10
468.279
 11
468.445
 20
2432.55
 21
2432.44
  0
LINE
  8
0
 10
468.445
 11
468.603
 20
2432.44
 21
2432.32
  0
LINE
  8
0
 10
468.603
 11
468.75
 20
2432.32
 21
2432.18
  0
LINE
  8
0
 10
468.75
 11
468.886
 20
2432.18
 21
2432.04
  0
LINE
  8
0
 10
468.886
 11
469.011
 20
2432.04
 21
2431.89
  0
LINE
  8
0
 10
469.011
 11
469.122
 20
2431.89
 21
2431.72
  0
LINE
  8
0
 10
469.122
 11
469.221
 20
2431.72
 21
2431.55
  0
LINE
  8
0
 10
469.221
 11
469.305
 20
2431.55
 21
2431.37
  0
LINE
  8
0
 10
469.305
 11
469.375
 20
2431.37
 21
2431.18
  0
LINE
  8
0
 10
469.375
 11
469.429
 20
2431.18
 21
2430.99
  0
LINE
  8
0
 10
469.429
 11
469.468
 20
2430.99
 21
2430.8
  0
LINE
  8
0
 10
469.468
 11
469.492
 20
2430.8
 21
2430.6
  0
LINE
  8
0
 10
469.492
 11
469.5
 20
2430.6
 21
2430.4
  0
LINE
  8
0
 10
469.5
 11
469.492
 20
2430.4
 21
2430.2
  0
LINE
  8
0
 10
469.492
 11
469.468
 20
2430.2
 21
2430
  0
LINE
  8
0
 10
469.468
 11
469.429
 20
2430
 21
2429.81
  0
LINE
  8
0
 10
469.429
 11
469.375
 20
2429.81
 21
2429.62
  0
LINE
  8
0
 10
469.375
 11
469.305
 20
2429.62
 21
2429.43
  0
LINE
  8
0
 10
469.305
 11
469.221
 20
2429.43
 21
2429.25
  0
LINE
  8
0
 10
469.221
 11
469.122
 20
2429.25
 21
2429.08
  0
LINE
  8
0
 10
469.122
 11
469.011
 20
2429.08
 21
2428.91
  0
LINE
  8
0
 10
469.011
 11
468.886
 20
2428.91
 21
2428.76
  0
LINE
  8
0
 10
468.886
 11
468.75
 20
2428.76
 21
2428.62
  0
LINE
  8
0
 10
468.75
 11
468.603
 20
2428.62
 21
2428.48
  0
LINE
  8
0
 10
468.603
 11
468.445
 20
2428.48
 21
2428.36
  0
LINE
  8
0
 10
468.445
 11
468.279
 20
2428.36
 21
2428.25
  0
LINE
  8
0
 10
468.279
 11
468.104
 20
2428.25
 21
2428.16
  0
LINE
  8
0
 10
468.104
 11
467.922
 20
2428.16
 21
2428.08
  0
LINE
  8
0
 10
467.922
 11
467.735
 20
2428.08
 21
2428.01
  0
LINE
  8
0
 10
467.735
 11
467.542
 20
2428.01
 21
2427.96
  0
LINE
  8
0
 10
467.542
 11
467.347
 20
2427.96
 21
2427.92
  0
LINE
  8
0
 10
467.347
 11
467.149
 20
2427.92
 21
2427.9
  0
LINE
  8
0
 10
467.149
 11
466.95
 20
2427.9
 21
2427.9
  0
LINE
  8
0
 10
466.95
 11
466.752
 20
2427.9
 21
2427.91
  0
LINE
  8
0
 10
466.752
 11
466.555
 20
2427.91
 21
2427.94
  0
LINE
  8
0
 10
466.555
 11
466.361
 20
2427.94
 21
2427.98
  0
LINE
  8
0
 10
466.361
 11
466.171
 20
2427.98
 21
2428.04
  0
LINE
  8
0
 10
466.171
 11
465.986
 20
2428.04
 21
2428.12
  0
LINE
  8
0
 10
465.986
 11
465.808
 20
2428.12
 21
2428.2
  0
LINE
  8
0
 10
465.808
 11
465.637
 20
2428.2
 21
2428.3
  0
LINE
  8
0
 10
465.637
 11
465.475
 20
2428.3
 21
2428.42
  0
LINE
  8
0
 10
465.475
 11
465.322
 20
2428.42
 21
2428.55
  0
LINE
  8
0
 10
465.322
 11
465.18
 20
2428.55
 21
2428.69
  0
LINE
  8
0
 10
465.18
 11
465.05
 20
2428.69
 21
2428.84
  0
LINE
  8
0
 10
465.05
 11
464.932
 20
2428.84
 21
2429
  0
LINE
  8
0
 10
464.932
 11
464.827
 20
2429
 21
2429.16
  0
LINE
  8
0
 10
464.827
 11
464.735
 20
2429.16
 21
2429.34
  0
LINE
  8
0
 10
464.735
 11
464.658
 20
2429.34
 21
2429.52
  0
LINE
  8
0
 10
464.658
 11
464.596
 20
2429.52
 21
2429.71
  0
LINE
  8
0
 10
464.596
 11
464.549
 20
2429.71
 21
2429.91
  0
LINE
  8
0
 10
464.549
 11
464.518
 20
2429.91
 21
2430.1
  0
LINE
  8
0
 10
464.518
 11
464.502
 20
2430.1
 21
2430.3
  0
LINE
  8
0
 10
464.502
 11
464.502
 20
2660.3
 21
2660.5
  0
LINE
  8
0
 10
464.502
 11
464.518
 20
2660.5
 21
2660.7
  0
LINE
  8
0
 10
464.518
 11
464.549
 20
2660.7
 21
2660.89
  0
LINE
  8
0
 10
464.549
 11
464.596
 20
2660.89
 21
2661.09
  0
LINE
  8
0
 10
464.596
 11
464.658
 20
2661.09
 21
2661.28
  0
LINE
  8
0
 10
464.658
 11
464.735
 20
2661.28
 21
2661.46
  0
LINE
  8
0
 10
464.735
 11
464.827
 20
2661.46
 21
2661.64
  0
LINE
  8
0
 10
464.827
 11
464.932
 20
2661.64
 21
2661.8
  0
LINE
  8
0
 10
464.932
 11
465.05
 20
2661.8
 21
2661.96
  0
LINE
  8
0
 10
465.05
 11
465.18
 20
2661.96
 21
2662.11
  0
LINE
  8
0
 10
465.18
 11
465.322
 20
2662.11
 21
2662.25
  0
LINE
  8
0
 10
465.322
 11
465.475
 20
2662.25
 21
2662.38
  0
LINE
  8
0
 10
465.475
 11
465.637
 20
2662.38
 21
2662.5
  0
LINE
  8
0
 10
465.637
 11
465.808
 20
2662.5
 21
2662.6
  0
LINE
  8
0
 10
465.808
 11
465.986
 20
2662.6
 21
2662.68
  0
LINE
  8
0
 10
465.986
 11
466.171
 20
2662.68
 21
2662.76
  0
LINE
  8
0
 10
466.171
 11
466.361
 20
2662.76
 21
2662.82
  0
LINE
  8
0
 10
466.361
 11
466.555
 20
2662.82
 21
2662.86
  0
LINE
  8
0
 10
466.555
 11
466.752
 20
2662.86
 21
2662.89
  0
LINE
  8
0
 10
466.752
 11
466.95
 20
2662.89
 21
2662.9
  0
LINE
  8
0
 10
466.95
 11
467.149
 20
2662.9
 21
2662.9
  0
LINE
  8
0
 10
467.149
 11
467.347
 20
2662.9
 21
2662.88
  0
LINE
  8
0
 10
467.347
 11
467.542
 20
2662.88
 21
2662.84
  0
LINE
  8
0
 10
467.542
 11
467.735
 20
2662.84
 21
2662.79
  0
LINE
  8
0
 10
467.735
 11
467.922
 20
2662.79
 21
2662.72
  0
LINE
  8
0
 10
467.922
 11
468.104
 20
2662.72
 21
2662.64
  0
LINE
  8
0
 10
468.104
 11
468.279
 20
2662.64
 21
2662.55
  0
LINE
  8
0
 10
468.279
 11
468.445
 20
2662.55
 21
2662.44
  0
LINE
  8
0
 10
468.445
 11
468.603
 20
2662.44
 21
2662.32
  0
LINE
  8
0
 10
468.603
 11
468.75
 20
2662.32
 21
2662.18
  0
LINE
  8
0
 10
468.75
 11
468.886
 20
2662.18
 21
2662.04
  0
LINE
  8
0
 10
468.886
 11
469.011
 20
2662.04
 21
2661.89
  0
LINE
  8
0
 10
469.011
 11
469.122
 20
2661.89
 21
2661.72
  0
LINE
  8
0
 10
469.122
 11
469.221
 20
2661.72
 21
2661.55
  0
LINE
  8
0
 10
469.221
 11
469.305
 20
2661.55
 21
2661.37
  0
LINE
  8
0
 10
469.305
 11
469.375
 20
2661.37
 21
2661.18
  0
LINE
  8
0
 10
469.375
 11
469.429
 20
2661.18
 21
2660.99
  0
LINE
  8
0
 10
469.429
 11
469.468
 20
2660.99
 21
2660.8
  0
LINE
  8
0
 10
469.468
 11
469.492
 20
2660.8
 21
2660.6
  0
LINE
  8
0
 10
469.492
 11
469.5
 20
2660.6
 21
2660.4
  0
LINE
  8
0
 10
469.5
 11
469.492
 20
2660.4
 21
2660.2
  0
LINE
  8
0
 10
469.492
 11
469.468
 20
2660.2
 21
2660
  0
LINE
  8
0
 10
469.468
 11
469.429
 20
2660
 21
2659.81
  0
LINE
  8
0
 10
469.429
 11
469.375
 20
2659.81
 21
2659.62
  0
LINE
  8
0
 10
469.375
 11
469.305
 20
2659.62
 21
2659.43
  0
LINE
  8
0
 10
469.305
 11
469.221
 20
2659.43
 21
2659.25
  0
LINE
  8
0
 10
469.221
 11
469.122
 20
2659.25
 21
2659.08
  0
LINE
  8
0
 10
469.122
 11
469.011
 20
2659.08
 21
2658.91
  0
LINE
  8
0
 10
469.011
 11
468.886
 20
2658.91
 21
2658.76
  0
LINE
  8
0
 10
468.886
 11
468.75
 20
2658.76
 21
2658.62
  0
LINE
  8
0
 10
468.75
 11
468.603
 20
2658.62
 21
2658.48
  0
LINE
  8
0
 10
468.603
 11
468.445
 20
2658.48
 21
2658.36
  0
LINE
  8
0
 10
468.445
 11
468.279
 20
2658.36
 21
2658.25
  0
LINE
  8
0
 10
468.279
 11
468.104
 20
2658.25
 21
2658.16
  0
LINE
  8
0
 10
468.104
 11
467.922
 20
2658.16
 21
2658.08
  0
LINE
  8
0
 10
467.922
 11
467.735
 20
2658.08
 21
2658.01
  0
LINE
  8
0
 10
467.735
 11
467.542
 20
2658.01
 21
2657.96
  0
LINE
  8
0
 10
467.542
 11
467.347
 20
2657.96
 21
2657.92
  0
LINE
  8
0
 10
467.347
 11
467.149
 20
2657.92
 21
2657.9
  0
LINE
  8
0
 10
467.149
 11
466.95
 20
2657.9
 21
2657.9
  0
LINE
  8
0
 10
466.95
 11
466.752
 20
2657.9
 21
2657.91
  0
LINE
  8
0
 10
466.752
 11
466.555
 20
2657.91
 21
2657.94
  0
LINE
  8
0
 10
466.555
 11
466.361
 20
2657.94
 21
2657.98
  0
LINE
  8
0
 10
466.361
 11
466.171
 20
2657.98
 21
2658.04
  0
LINE
  8
0
 10
466.171
 11
465.986
 20
2658.04
 21
2658.12
  0
LINE
  8
0
 10
465.986
 11
465.808
 20
2658.12
 21
2658.2
  0
LINE
  8
0
 10
465.808
 11
465.637
 20
2658.2
 21
2658.3
  0
LINE
  8
0
 10
465.637
 11
465.475
 20
2658.3
 21
2658.42
  0
LINE
  8
0
 10
465.475
 11
465.322
 20
2658.42
 21
2658.55
  0
LINE
  8
0
 10
465.322
 11
465.18
 20
2658.55
 21
2658.69
  0
LINE
  8
0
 10
465.18
 11
465.05
 20
2658.69
 21
2658.84
  0
LINE
  8
0
 10
465.05
 11
464.932
 20
2658.84
 21
2659
  0
LINE
  8
0
 10
464.932
 11
464.827
 20
2659
 21
2659.16
  0
LINE
  8
0
 10
464.827
 11
464.735
 20
2659.16
 21
2659.34
  0
LINE
  8
0
 10
464.735
 11
464.658
 20
2659.34
 21
2659.52
  0
LINE
  8
0
 10
464.658
 11
464.596
 20
2659.52
 21
2659.71
  0
LINE
  8
0
 10
464.596
 11
464.549
 20
2659.71
 21
2659.91
  0
LINE
  8
0
 10
464.549
 11
464.518
 20
2659.91
 21
2660.1
  0
LINE
  8
0
 10
464.518
 11
464.502
 20
2660.1
 21
2660.3
  0
LINE
  8
0
 10
473.471
 11
473.471
 20
1122.4
 21
1178.4
  0
LINE
  8
0
 10
473.471
 11
473.569
 20
1178.4
 21
1179.02
  0
LINE
  8
0
 10
473.569
 11
473.853
 20
1179.02
 21
1179.58
  0
LINE
  8
0
 10
473.853
 11
474.295
 20
1179.58
 21
1180.02
  0
LINE
  8
0
 10
474.295
 11
474.853
 20
1180.02
 21
1180.3
  0
LINE
  8
0
 10
474.853
 11
475.471
 20
1180.3
 21
1180.4
  0
LINE
  8
0
 10
475.471
 11
476.089
 20
1180.4
 21
1180.3
  0
LINE
  8
0
 10
476.089
 11
476.647
 20
1180.3
 21
1180.02
  0
LINE
  8
0
 10
476.647
 11
477.089
 20
1180.02
 21
1179.58
  0
LINE
  8
0
 10
477.089
 11
477.373
 20
1179.58
 21
1179.02
  0
LINE
  8
0
 10
477.373
 11
477.471
 20
1179.02
 21
1178.4
  0
LINE
  8
0
 10
477.471
 11
477.471
 20
1178.4
 21
1122.4
  0
LINE
  8
0
 10
477.471
 11
477.373
 20
1122.4
 21
1121.78
  0
LINE
  8
0
 10
477.373
 11
477.089
 20
1121.78
 21
1121.22
  0
LINE
  8
0
 10
477.089
 11
476.647
 20
1121.22
 21
1120.78
  0
LINE
  8
0
 10
476.647
 11
476.089
 20
1120.78
 21
1120.5
  0
LINE
  8
0
 10
476.089
 11
475.471
 20
1120.5
 21
1120.4
  0
LINE
  8
0
 10
475.471
 11
474.853
 20
1120.4
 21
1120.5
  0
LINE
  8
0
 10
474.853
 11
474.295
 20
1120.5
 21
1120.78
  0
LINE
  8
0
 10
474.295
 11
473.853
 20
1120.78
 21
1121.22
  0
LINE
  8
0
 10
473.853
 11
473.569
 20
1121.22
 21
1121.78
  0
LINE
  8
0
 10
473.569
 11
473.471
 20
1121.78
 21
1122.4
  0
LINE
  8
0
 10
503.719
 11
503.719
 20
1122.4
 21
1178.4
  0
LINE
  8
0
 10
503.719
 11
503.817
 20
1178.4
 21
1179.02
  0
LINE
  8
0
 10
503.817
 11
504.101
 20
1179.02
 21
1179.58
  0
LINE
  8
0
 10
504.101
 11
504.543
 20
1179.58
 21
1180.02
  0
LINE
  8
0
 10
504.543
 11
505.101
 20
1180.02
 21
1180.3
  0
LINE
  8
0
 10
505.101
 11
505.719
 20
1180.3
 21
1180.4
  0
LINE
  8
0
 10
505.719
 11
506.337
 20
1180.4
 21
1180.3
  0
LINE
  8
0
 10
506.337
 11
506.895
 20
1180.3
 21
1180.02
  0
LINE
  8
0
 10
506.895
 11
507.337
 20
1180.02
 21
1179.58
  0
LINE
  8
0
 10
507.337
 11
507.621
 20
1179.58
 21
1179.02
  0
LINE
  8
0
 10
507.621
 11
507.719
 20
1179.02
 21
1178.4
  0
LINE
  8
0
 10
507.719
 11
507.719
 20
1178.4
 21
1122.4
  0
LINE
  8
0
 10
507.719
 11
507.621
 20
1122.4
 21
1121.78
  0
LINE
  8
0
 10
507.621
 11
507.337
 20
1121.78
 21
1121.22
  0
LINE
  8
0
 10
507.337
 11
506.895
 20
1121.22
 21
1120.78
  0
LINE
  8
0
 10
506.895
 11
506.337
 20
1120.78
 21
1120.5
  0
LINE
  8
0
 10
506.337
 11
505.719
 20
1120.5
 21
1120.4
  0
LINE
  8
0
 10
505.719
 11
505.101
 20
1120.4
 21
1120.5
  0
LINE
  8
0
 10
505.101
 11
504.543
 20
1120.5
 21
1120.78
  0
LINE
  8
0
 10
504.543
 11
504.101
 20
1120.78
 21
1121.22
  0
LINE
  8
0
 10
504.101
 11
503.817
 20
1121.22
 21
1121.78
  0
LINE
  8
0
 10
503.817
 11
503.719
 20
1121.78
 21
1122.4
  0
LINE
  8
0
 10
533.967
 11
533.967
 20
1122.4
 21
1178.4
  0
LINE
  8
0
 10
533.967
 11
534.065
 20
1178.4
 21
1179.02
  0
LINE
  8
0
 10
534.065
 11
534.349
 20
1179.02
 21
1179.58
  0
LINE
  8
0
 10
534.349
 11
534.791
 20
1179.58
 21
1180.02
  0
LINE
  8
0
 10
534.791
 11
535.349
 20
1180.02
 21
1180.3
  0
LINE
  8
0
 10
535.349
 11
535.967
 20
1180.3
 21
1180.4
  0
LINE
  8
0
 10
535.967
 11
536.585
 20
1180.4
 21
1180.3
  0
LINE
  8
0
 10
536.585
 11
537.143
 20
1180.3
 21
1180.02
  0
LINE
  8
0
 10
537.143
 11
537.585
 20
1180.02
 21
1179.58
  0
LINE
  8
0
 10
537.585
 11
537.869
 20
1179.58
 21
1179.02
  0
LINE
  8
0
 10
537.869
 11
537.967
 20
1179.02
 21
1178.4
  0
LINE
  8
0
 10
537.967
 11
537.967
 20
1178.4
 21
1122.4
  0
LINE
  8
0
 10
537.967
 11
537.869
 20
1122.4
 21
1121.78
  0
LINE
  8
0
 10
537.869
 11
537.585
 20
1121.78
 21
1121.22
  0
LINE
  8
0
 10
537.585
 11
537.143
 20
1121.22
 21
1120.78
  0
LINE
  8
0
 10
537.143
 11
536.585
 20
1120.78
 21
1120.5
  0
LINE
  8
0
 10
536.585
 11
535.967
 20
1120.5
 21
1120.4
  0
LINE
  8
0
 10
535.967
 11
535.349
 20
1120.4
 21
1120.5
  0
LINE
  8
0
 10
535.349
 11
534.791
 20
1120.5
 21
1120.78
  0
LINE
  8
0
 10
534.791
 11
534.349
 20
1120.78
 21
1121.22
  0
LINE
  8
0
 10
534.349
 11
534.065
 20
1121.22
 21
1121.78
  0
LINE
  8
0
 10
534.065
 11
533.967
 20
1121.78
 21
1122.4
  0
LINE
  8
0
 10
564.215
 11
564.215
 20
1122.4
 21
1178.4
  0
LINE
  8
0
 10
564.215
 11
564.313
 20
1178.4
 21
1179.02
  0
LINE
  8
0
 10
564.313
 11
564.597
 20
1179.02
 21
1179.58
  0
LINE
  8
0
 10
564.597
 11
565.039
 20
1179.58
 21
1180.02
  0
LINE
  8
0
 10
565.039
 11
565.597
 20
1180.02
 21
1180.3
  0
LINE
  8
0
 10
565.597
 11
566.215
 20
1180.3
 21
1180.4
  0
LINE
  8
0
 10
566.215
 11
566.833
 20
1180.4
 21
1180.3
  0
LINE
  8
0
 10
566.833
 11
567.391
 20
1180.3
 21
1180.02
  0
LINE
  8
0
 10
567.391
 11
567.833
 20
1180.02
 21
1179.58
  0
LINE
  8
0
 10
567.833
 11
568.117
 20
1179.58
 21
1179.02
  0
LINE
  8
0
 10
568.117
 11
568.215
 20
1179.02
 21
1178.4
  0
LINE
  8
0
 10
568.215
 11
568.215
 20
1178.4
 21
1122.4
  0
LINE
  8
0
 10
568.215
 11
568.117
 20
1122.4
 21
1121.78
  0
LINE
  8
0
 10
568.117
 11
567.833
 20
1121.78
 21
1121.22
  0
LINE
  8
0
 10
567.833
 11
567.391
 20
1121.22
 21
1120.78
  0
LINE
  8
0
 10
567.391
 11
566.833
 20
1120.78
 21
1120.5
  0
LINE
  8
0
 10
566.833
 11
566.215
 20
1120.5
 21
1120.4
  0
LINE
  8
0
 10
566.215
 11
565.597
 20
1120.4
 21
1120.5
  0
LINE
  8
0
 10
565.597
 11
565.039
 20
1120.5
 21
1120.78
  0
LINE
  8
0
 10
565.039
 11
564.597
 20
1120.78
 21
1121.22
  0
LINE
  8
0
 10
564.597
 11
564.313
 20
1121.22
 21
1121.78
  0
LINE
  8
0
 10
564.313
 11
564.215
 20
1121.78
 21
1122.4
  0
LINE
  8
0
 10
586.828
 11
586.828
 20
1551.7
 21
1554.69
  0
LINE
  8
0
 10
586.828
 11
586.951
 20
1554.69
 21
1555.47
  0
LINE
  8
0
 10
586.951
 11
587.306
 20
1555.47
 21
1556.17
  0
LINE
  8
0
 10
587.306
 11
587.861
 20
1556.17
 21
1556.72
  0
LINE
  8
0
 10
587.861
 11
588.559
 20
1556.72
 21
1557.08
  0
LINE
  8
0
 10
588.559
 11
589.333
 20
1557.08
 21
1557.2
  0
LINE
  8
0
 10
589.333
 11
590.107
 20
1557.2
 21
1557.08
  0
LINE
  8
0
 10
590.107
 11
590.805
 20
1557.08
 21
1556.72
  0
LINE
  8
0
 10
590.805
 11
591.36
 20
1556.72
 21
1556.17
  0
LINE
  8
0
 10
591.36
 11
591.715
 20
1556.17
 21
1555.47
  0
LINE
  8
0
 10
591.715
 11
591.838
 20
1555.47
 21
1554.69
  0
LINE
  8
0
 10
591.838
 11
591.838
 20
1554.69
 21
1551.7
  0
LINE
  8
0
 10
591.838
 11
591.715
 20
1551.7
 21
1550.93
  0
LINE
  8
0
 10
591.715
 11
591.36
 20
1550.93
 21
1550.23
  0
LINE
  8
0
 10
591.36
 11
590.805
 20
1550.23
 21
1549.68
  0
LINE
  8
0
 10
590.805
 11
590.107
 20
1549.68
 21
1549.32
  0
LINE
  8
0
 10
590.107
 11
589.333
 20
1549.32
 21
1549.2
  0
LINE
  8
0
 10
589.333
 11
588.559
 20
1549.2
 21
1549.32
  0
LINE
  8
0
 10
588.559
 11
587.861
 20
1549.32
 21
1549.68
  0
LINE
  8
0
 10
587.861
 11
587.306
 20
1549.68
 21
1550.23
  0
LINE
  8
0
 10
587.306
 11
586.951
 20
1550.23
 21
1550.93
  0
LINE
  8
0
 10
586.951
 11
586.828
 20
1550.93
 21
1551.7
  0
LINE
  8
0
 10
586.828
 11
586.828
 20
1800.7
 21
1803.69
  0
LINE
  8
0
 10
586.828
 11
586.951
 20
1803.69
 21
1804.47
  0
LINE
  8
0
 10
586.951
 11
587.306
 20
1804.47
 21
1805.17
  0
LINE
  8
0
 10
587.306
 11
587.861
 20
1805.17
 21
1805.72
  0
LINE
  8
0
 10
587.861
 11
588.559
 20
1805.72
 21
1806.08
  0
LINE
  8
0
 10
588.559
 11
589.333
 20
1806.08
 21
1806.2
  0
LINE
  8
0
 10
589.333
 11
590.107
 20
1806.2
 21
1806.08
  0
LINE
  8
0
 10
590.107
 11
590.805
 20
1806.08
 21
1805.72
  0
LINE
  8
0
 10
590.805
 11
591.36
 20
1805.72
 21
1805.17
  0
LINE
  8
0
 10
591.36
 11
591.715
 20
1805.17
 21
1804.47
  0
LINE
  8
0
 10
591.715
 11
591.838
 20
1804.47
 21
1803.69
  0
LINE
  8
0
 10
591.838
 11
591.838
 20
1803.69
 21
1800.7
  0
LINE
  8
0
 10
591.838
 11
591.715
 20
1800.7
 21
1799.93
  0
LINE
  8
0
 10
591.715
 11
591.36
 20
1799.93
 21
1799.23
  0
LINE
  8
0
 10
591.36
 11
590.805
 20
1799.23
 21
1798.68
  0
LINE
  8
0
 10
590.805
 11
590.107
 20
1798.68
 21
1798.32
  0
LINE
  8
0
 10
590.107
 11
589.333
 20
1798.32
 21
1798.2
  0
LINE
  8
0
 10
589.333
 11
588.559
 20
1798.2
 21
1798.32
  0
LINE
  8
0
 10
588.559
 11
587.861
 20
1798.32
 21
1798.68
  0
LINE
  8
0
 10
587.861
 11
587.306
 20
1798.68
 21
1799.23
  0
LINE
  8
0
 10
587.306
 11
586.951
 20
1799.23
 21
1799.93
  0
LINE
  8
0
 10
586.951
 11
586.828
 20
1799.93
 21
1800.7
  0
LINE
  8
0
 10
586.828
 11
586.828
 20
1844.11
 21
1847.1
  0
LINE
  8
0
 10
586.828
 11
586.951
 20
1847.1
 21
1847.87
  0
LINE
  8
0
 10
586.951
 11
587.306
 20
1847.87
 21
1848.57
  0
LINE
  8
0
 10
587.306
 11
587.861
 20
1848.57
 21
1849.12
  0
LINE
  8
0
 10
587.861
 11
588.559
 20
1849.12
 21
1849.48
  0
LINE
  8
0
 10
588.559
 11
589.333
 20
1849.48
 21
1849.6
  0
LINE
  8
0
 10
589.333
 11
590.107
 20
1849.6
 21
1849.48
  0
LINE
  8
0
 10
590.107
 11
590.805
 20
1849.48
 21
1849.12
  0
LINE
  8
0
 10
590.805
 11
591.36
 20
1849.12
 21
1848.57
  0
LINE
  8
0
 10
591.36
 11
591.715
 20
1848.57
 21
1847.87
  0
LINE
  8
0
 10
591.715
 11
591.838
 20
1847.87
 21
1847.1
  0
LINE
  8
0
 10
591.838
 11
591.838
 20
1847.1
 21
1844.11
  0
LINE
  8
0
 10
591.838
 11
591.715
 20
1844.11
 21
1843.33
  0
LINE
  8
0
 10
591.715
 11
591.36
 20
1843.33
 21
1842.63
  0
LINE
  8
0
 10
591.36
 11
590.805
 20
1842.63
 21
1842.08
  0
LINE
  8
0
 10
590.805
 11
590.107
 20
1842.08
 21
1841.72
  0
LINE
  8
0
 10
590.107
 11
589.333
 20
1841.72
 21
1841.6
  0
LINE
  8
0
 10
589.333
 11
588.559
 20
1841.6
 21
1841.72
  0
LINE
  8
0
 10
588.559
 11
587.861
 20
1841.72
 21
1842.08
  0
LINE
  8
0
 10
587.861
 11
587.306
 20
1842.08
 21
1842.63
  0
LINE
  8
0
 10
587.306
 11
586.951
 20
1842.63
 21
1843.33
  0
LINE
  8
0
 10
586.951
 11
586.828
 20
1843.33
 21
1844.11
  0
LINE
  8
0
 10
586.828
 11
586.828
 20
2093.11
 21
2096.1
  0
LINE
  8
0
 10
586.828
 11
586.951
 20
2096.1
 21
2096.87
  0
LINE
  8
0
 10
586.951
 11
587.306
 20
2096.87
 21
2097.57
  0
LINE
  8
0
 10
587.306
 11
587.861
 20
2097.57
 21
2098.12
  0
LINE
  8
0
 10
587.861
 11
588.559
 20
2098.12
 21
2098.48
  0
LINE
  8
0
 10
588.559
 11
589.333
 20
2098.48
 21
2098.6
  0
LINE
  8
0
 10
589.333
 11
590.107
 20
2098.6
 21
2098.48
  0
LINE
  8
0
 10
590.107
 11
590.805
 20
2098.48
 21
2098.12
  0
LINE
  8
0
 10
590.805
 11
591.36
 20
2098.12
 21
2097.57
  0
LINE
  8
0
 10
591.36
 11
591.715
 20
2097.57
 21
2096.87
  0
LINE
  8
0
 10
591.715
 11
591.838
 20
2096.87
 21
2096.1
  0
LINE
  8
0
 10
591.838
 11
591.838
 20
2096.1
 21
2093.11
  0
LINE
  8
0
 10
591.838
 11
591.715
 20
2093.11
 21
2092.33
  0
LINE
  8
0
 10
591.715
 11
591.36
 20
2092.33
 21
2091.63
  0
LINE
  8
0
 10
591.36
 11
590.805
 20
2091.63
 21
2091.08
  0
LINE
  8
0
 10
590.805
 11
590.107
 20
2091.08
 21
2090.72
  0
LINE
  8
0
 10
590.107
 11
589.333
 20
2090.72
 21
2090.6
  0
LINE
  8
0
 10
589.333
 11
588.559
 20
2090.6
 21
2090.72
  0
LINE
  8
0
 10
588.559
 11
587.861
 20
2090.72
 21
2091.08
  0
LINE
  8
0
 10
587.861
 11
587.306
 20
2091.08
 21
2091.63
  0
LINE
  8
0
 10
587.306
 11
586.951
 20
2091.63
 21
2092.33
  0
LINE
  8
0
 10
586.951
 11
586.828
 20
2092.33
 21
2093.11
  0
LINE
  8
0
 10
594.463
 11
594.463
 20
1122.4
 21
1178.4
  0
LINE
  8
0
 10
594.463
 11
594.561
 20
1178.4
 21
1179.02
  0
LINE
  8
0
 10
594.561
 11
594.845
 20
1179.02
 21
1179.58
  0
LINE
  8
0
 10
594.845
 11
595.287
 20
1179.58
 21
1180.02
  0
LINE
  8
0
 10
595.287
 11
595.845
 20
1180.02
 21
1180.3
  0
LINE
  8
0
 10
595.845
 11
596.463
 20
1180.3
 21
1180.4
  0
LINE
  8
0
 10
596.463
 11
597.081
 20
1180.4
 21
1180.3
  0
LINE
  8
0
 10
597.081
 11
597.639
 20
1180.3
 21
1180.02
  0
LINE
  8
0
 10
597.639
 11
598.081
 20
1180.02
 21
1179.58
  0
LINE
  8
0
 10
598.081
 11
598.365
 20
1179.58
 21
1179.02
  0
LINE
  8
0
 10
598.365
 11
598.463
 20
1179.02
 21
1178.4
  0
LINE
  8
0
 10
598.463
 11
598.463
 20
1178.4
 21
1122.4
  0
LINE
  8
0
 10
598.463
 11
598.365
 20
1122.4
 21
1121.78
  0
LINE
  8
0
 10
598.365
 11
598.081
 20
1121.78
 21
1121.22
  0
LINE
  8
0
 10
598.081
 11
597.639
 20
1121.22
 21
1120.78
  0
LINE
  8
0
 10
597.639
 11
597.081
 20
1120.78
 21
1120.5
  0
LINE
  8
0
 10
597.081
 11
596.463
 20
1120.5
 21
1120.4
  0
LINE
  8
0
 10
596.463
 11
595.845
 20
1120.4
 21
1120.5
  0
LINE
  8
0
 10
595.845
 11
595.287
 20
1120.5
 21
1120.78
  0
LINE
  8
0
 10
595.287
 11
594.845
 20
1120.78
 21
1121.22
  0
LINE
  8
0
 10
594.845
 11
594.561
 20
1121.22
 21
1121.78
  0
LINE
  8
0
 10
594.561
 11
594.463
 20
1121.78
 21
1122.4
  0
LINE
  8
0
 10
624.711
 11
624.711
 20
1122.4
 21
1178.4
  0
LINE
  8
0
 10
624.711
 11
624.809
 20
1178.4
 21
1179.02
  0
LINE
  8
0
 10
624.809
 11
625.093
 20
1179.02
 21
1179.58
  0
LINE
  8
0
 10
625.093
 11
625.535
 20
1179.58
 21
1180.02
  0
LINE
  8
0
 10
625.535
 11
626.093
 20
1180.02
 21
1180.3
  0
LINE
  8
0
 10
626.093
 11
626.711
 20
1180.3
 21
1180.4
  0
LINE
  8
0
 10
626.711
 11
627.329
 20
1180.4
 21
1180.3
  0
LINE
  8
0
 10
627.329
 11
627.887
 20
1180.3
 21
1180.02
  0
LINE
  8
0
 10
627.887
 11
628.329
 20
1180.02
 21
1179.58
  0
LINE
  8
0
 10
628.329
 11
628.613
 20
1179.58
 21
1179.02
  0
LINE
  8
0
 10
628.613
 11
628.711
 20
1179.02
 21
1178.4
  0
LINE
  8
0
 10
628.711
 11
628.711
 20
1178.4
 21
1122.4
  0
LINE
  8
0
 10
628.711
 11
628.613
 20
1122.4
 21
1121.78
  0
LINE
  8
0
 10
628.613
 11
628.329
 20
1121.78
 21
1121.22
  0
LINE
  8
0
 10
628.329
 11
627.887
 20
1121.22
 21
1120.78
  0
LINE
  8
0
 10
627.887
 11
627.329
 20
1120.78
 21
1120.5
  0
LINE
  8
0
 10
627.329
 11
626.711
 20
1120.5
 21
1120.4
  0
LINE
  8
0
 10
626.711
 11
626.093
 20
1120.4
 21
1120.5
  0
LINE
  8
0
 10
626.093
 11
625.535
 20
1120.5
 21
1120.78
  0
LINE
  8
0
 10
625.535
 11
625.093
 20
1120.78
 21
1121.22
  0
LINE
  8
0
 10
625.093
 11
624.809
 20
1121.22
 21
1121.78
  0
LINE
  8
0
 10
624.809
 11
624.711
 20
1121.78
 21
1122.4
  0
LINE
  8
0
 10
654.959
 11
654.959
 20
1122.4
 21
1178.4
  0
LINE
  8
0
 10
654.959
 11
655.057
 20
1178.4
 21
1179.02
  0
LINE
  8
0
 10
655.057
 11
655.341
 20
1179.02
 21
1179.58
  0
LINE
  8
0
 10
655.341
 11
655.783
 20
1179.58
 21
1180.02
  0
LINE
  8
0
 10
655.783
 11
656.341
 20
1180.02
 21
1180.3
  0
LINE
  8
0
 10
656.341
 11
656.959
 20
1180.3
 21
1180.4
  0
LINE
  8
0
 10
656.959
 11
657.577
 20
1180.4
 21
1180.3
  0
LINE
  8
0
 10
657.577
 11
658.135
 20
1180.3
 21
1180.02
  0
LINE
  8
0
 10
658.135
 11
658.577
 20
1180.02
 21
1179.58
  0
LINE
  8
0
 10
658.577
 11
658.861
 20
1179.58
 21
1179.02
  0
LINE
  8
0
 10
658.861
 11
658.959
 20
1179.02
 21
1178.4
  0
LINE
  8
0
 10
658.959
 11
658.959
 20
1178.4
 21
1122.4
  0
LINE
  8
0
 10
658.959
 11
658.861
 20
1122.4
 21
1121.78
  0
LINE
  8
0
 10
658.861
 11
658.577
 20
1121.78
 21
1121.22
  0
LINE
  8
0
 10
658.577
 11
658.135
 20
1121.22
 21
1120.78
  0
LINE
  8
0
 10
658.135
 11
657.577
 20
1120.78
 21
1120.5
  0
LINE
  8
0
 10
657.577
 11
656.959
 20
1120.5
 21
1120.4
  0
LINE
  8
0
 10
656.959
 11
656.341
 20
1120.4
 21
1120.5
  0
LINE
  8
0
 10
656.341
 11
655.783
 20
1120.5
 21
1120.78
  0
LINE
  8
0
 10
655.783
 11
655.341
 20
1120.78
 21
1121.22
  0
LINE
  8
0
 10
655.341
 11
655.057
 20
1121.22
 21
1121.78
  0
LINE
  8
0
 10
655.057
 11
654.959
 20
1121.78
 21
1122.4
  0
LINE
  8
0
 10
685.207
 11
685.207
 20
1122.4
 21
1178.4
  0
LINE
  8
0
 10
685.207
 11
685.305
 20
1178.4
 21
1179.02
  0
LINE
  8
0
 10
685.305
 11
685.589
 20
1179.02
 21
1179.58
  0
LINE
  8
0
 10
685.589
 11
686.031
 20
1179.58
 21
1180.02
  0
LINE
  8
0
 10
686.031
 11
686.589
 20
1180.02
 21
1180.3
  0
LINE
  8
0
 10
686.589
 11
687.207
 20
1180.3
 21
1180.4
  0
LINE
  8
0
 10
687.207
 11
687.825
 20
1180.4
 21
1180.3
  0
LINE
  8
0
 10
687.825
 11
688.383
 20
1180.3
 21
1180.02
  0
LINE
  8
0
 10
688.383
 11
688.825
 20
1180.02
 21
1179.58
  0
LINE
  8
0
 10
688.825
 11
689.109
 20
1179.58
 21
1179.02
  0
LINE
  8
0
 10
689.109
 11
689.207
 20
1179.02
 21
1178.4
  0
LINE
  8
0
 10
689.207
 11
689.207
 20
1178.4
 21
1122.4
  0
LINE
  8
0
 10
689.207
 11
689.109
 20
1122.4
 21
1121.78
  0
LINE
  8
0
 10
689.109
 11
688.825
 20
1121.78
 21
1121.22
  0
LINE
  8
0
 10
688.825
 11
688.383
 20
1121.22
 21
1120.78
  0
LINE
  8
0
 10
688.383
 11
687.825
 20
1120.78
 21
1120.5
  0
LINE
  8
0
 10
687.825
 11
687.207
 20
1120.5
 21
1120.4
  0
LINE
  8
0
 10
687.207
 11
686.589
 20
1120.4
 21
1120.5
  0
LINE
  8
0
 10
686.589
 11
686.031
 20
1120.5
 21
1120.78
  0
LINE
  8
0
 10
686.031
 11
685.589
 20
1120.78
 21
1121.22
  0
LINE
  8
0
 10
685.589
 11
685.305
 20
1121.22
 21
1121.78
  0
LINE
  8
0
 10
685.305
 11
685.207
 20
1121.78
 21
1122.4
  0
LINE
  8
0
 10
715.455
 11
715.455
 20
1122.4
 21
1178.4
  0
LINE
  8
0
 10
715.455
 11
715.553
 20
1178.4
 21
1179.02
  0
LINE
  8
0
 10
715.553
 11
715.837
 20
1179.02
 21
1179.58
  0
LINE
  8
0
 10
715.837
 11
716.279
 20
1179.58
 21
1180.02
  0
LINE
  8
0
 10
716.279
 11
716.837
 20
1180.02
 21
1180.3
  0
LINE
  8
0
 10
716.837
 11
717.455
 20
1180.3
 21
1180.4
  0
LINE
  8
0
 10
717.455
 11
718.073
 20
1180.4
 21
1180.3
  0
LINE
  8
0
 10
718.073
 11
718.631
 20
1180.3
 21
1180.02
  0
LINE
  8
0
 10
718.631
 11
719.073
 20
1180.02
 21
1179.58
  0
LINE
  8
0
 10
719.073
 11
719.357
 20
1179.58
 21
1179.02
  0
LINE
  8
0
 10
719.357
 11
719.455
 20
1179.02
 21
1178.4
  0
LINE
  8
0
 10
719.455
 11
719.455
 20
1178.4
 21
1122.4
  0
LINE
  8
0
 10
719.455
 11
719.357
 20
1122.4
 21
1121.78
  0
LINE
  8
0
 10
719.357
 11
719.073
 20
1121.78
 21
1121.22
  0
LINE
  8
0
 10
719.073
 11
718.631
 20
1121.22
 21
1120.78
  0
LINE
  8
0
 10
718.631
 11
718.073
 20
1120.78
 21
1120.5
  0
LINE
  8
0
 10
718.073
 11
717.455
 20
1120.5
 21
1120.4
  0
LINE
  8
0
 10
717.455
 11
716.837
 20
1120.4
 21
1120.5
  0
LINE
  8
0
 10
716.837
 11
716.279
 20
1120.5
 21
1120.78
  0
LINE
  8
0
 10
716.279
 11
715.837
 20
1120.78
 21
1121.22
  0
LINE
  8
0
 10
715.837
 11
715.553
 20
1121.22
 21
1121.78
  0
LINE
  8
0
 10
715.553
 11
715.455
 20
1121.78
 21
1122.4
  0
LINE
  8
0
 10
733.25
 11
733.25
 20
7.55
 21
10.45
  0
LINE
  8
0
 10
733.25
 11
733.375
 20
10.45
 21
11.238
  0
LINE
  8
0
 10
733.375
 11
733.737
 20
11.238
 21
11.949
  0
LINE
  8
0
 10
733.737
 11
734.301
 20
11.949
 21
12.513
  0
LINE
  8
0
 10
734.301
 11
735.012
 20
12.513
 21
12.875
  0
LINE
  8
0
 10
735.012
 11
735.8
 20
12.875
 21
13
  0
LINE
  8
0
 10
735.8
 11
736.588
 20
13
 21
12.875
  0
LINE
  8
0
 10
736.588
 11
737.299
 20
12.875
 21
12.513
  0
LINE
  8
0
 10
737.299
 11
737.863
 20
12.513
 21
11.949
  0
LINE
  8
0
 10
737.863
 11
738.225
 20
11.949
 21
11.238
  0
LINE
  8
0
 10
738.225
 11
738.35
 20
11.238
 21
10.45
  0
LINE
  8
0
 10
738.35
 11
738.35
 20
10.45
 21
7.55
  0
LINE
  8
0
 10
738.35
 11
738.225
 20
7.55
 21
6.762
  0
LINE
  8
0
 10
738.225
 11
737.863
 20
6.762
 21
6.051
  0
LINE
  8
0
 10
737.863
 11
737.299
 20
6.051
 21
5.487
  0
LINE
  8
0
 10
737.299
 11
736.588
 20
5.487
 21
5.125
  0
LINE
  8
0
 10
736.588
 11
735.8
 20
5.125
 21
5
  0
LINE
  8
0
 10
735.8
 11
735.012
 20
5
 21
5.125
  0
LINE
  8
0
 10
735.012
 11
734.301
 20
5.125
 21
5.487
  0
LINE
  8
0
 10
734.301
 11
733.737
 20
5.487
 21
6.051
  0
LINE
  8
0
 10
733.737
 11
733.375
 20
6.051
 21
6.762
  0
LINE
  8
0
 10
733.375
 11
733.25
 20
6.762
 21
7.55
  0
LINE
  8
0
 10
733.25
 11
733.25
 20
923.55
 21
926.45
  0
LINE
  8
0
 10
733.25
 11
733.375
 20
926.45
 21
927.238
  0
LINE
  8
0
 10
733.375
 11
733.737
 20
927.238
 21
927.949
  0
LINE
  8
0
 10
733.737
 11
734.301
 20
927.949
 21
928.513
  0
LINE
  8
0
 10
734.301
 11
735.012
 20
928.513
 21
928.875
  0
LINE
  8
0
 10
735.012
 11
735.8
 20
928.875
 21
929
  0
LINE
  8
0
 10
735.8
 11
736.588
 20
929
 21
928.875
  0
LINE
  8
0
 10
736.588
 11
737.299
 20
928.875
 21
928.513
  0
LINE
  8
0
 10
737.299
 11
737.863
 20
928.513
 21
927.949
  0
LINE
  8
0
 10
737.863
 11
738.225
 20
927.949
 21
927.238
  0
LINE
  8
0
 10
738.225
 11
738.35
 20
927.238
 21
926.45
  0
LINE
  8
0
 10
738.35
 11
738.35
 20
926.45
 21
923.55
  0
LINE
  8
0
 10
738.35
 11
738.225
 20
923.55
 21
922.762
  0
LINE
  8
0
 10
738.225
 11
737.863
 20
922.762
 21
922.051
  0
LINE
  8
0
 10
737.863
 11
737.299
 20
922.051
 21
921.487
  0
LINE
  8
0
 10
737.299
 11
736.588
 20
921.487
 21
921.125
  0
LINE
  8
0
 10
736.588
 11
735.8
 20
921.125
 21
921
  0
LINE
  8
0
 10
735.8
 11
735.012
 20
921
 21
921.125
  0
LINE
  8
0
 10
735.012
 11
734.301
 20
921.125
 21
921.487
  0
LINE
  8
0
 10
734.301
 11
733.737
 20
921.487
 21
922.051
  0
LINE
  8
0
 10
733.737
 11
733.375
 20
922.051
 21
922.762
  0
LINE
  8
0
 10
733.375
 11
733.25
 20
922.762
 21
923.55
  0
LINE
  8
0
 10
733.28
 11
733.28
 20
1259.32
 21
1262.28
  0
LINE
  8
0
 10
733.28
 11
733.403
 20
1262.28
 21
1263.06
  0
LINE
  8
0
 10
733.403
 11
733.761
 20
1263.06
 21
1263.76
  0
LINE
  8
0
 10
733.761
 11
734.319
 20
1263.76
 21
1264.32
  0
LINE
  8
0
 10
734.319
 11
735.021
 20
1264.32
 21
1264.68
  0
LINE
  8
0
 10
735.021
 11
735.8
 20
1264.68
 21
1264.8
  0
LINE
  8
0
 10
735.8
 11
736.579
 20
1264.8
 21
1264.68
  0
LINE
  8
0
 10
736.579
 11
737.281
 20
1264.68
 21
1264.32
  0
LINE
  8
0
 10
737.281
 11
737.839
 20
1264.32
 21
1263.76
  0
LINE
  8
0
 10
737.839
 11
738.197
 20
1263.76
 21
1263.06
  0
LINE
  8
0
 10
738.197
 11
738.32
 20
1263.06
 21
1262.28
  0
LINE
  8
0
 10
738.32
 11
738.32
 20
1262.28
 21
1259.32
  0
LINE
  8
0
 10
738.32
 11
738.197
 20
1259.32
 21
1258.54
  0
LINE
  8
0
 10
738.197
 11
737.839
 20
1258.54
 21
1257.84
  0
LINE
  8
0
 10
737.839
 11
737.281
 20
1257.84
 21
1257.28
  0
LINE
  8
0
 10
737.281
 11
736.579
 20
1257.28
 21
1256.92
  0
LINE
  8
0
 10
736.579
 11
735.8
 20
1256.92
 21
1256.8
  0
LINE
  8
0
 10
735.8
 11
735.021
 20
1256.8
 21
1256.92
  0
LINE
  8
0
 10
735.021
 11
734.319
 20
1256.92
 21
1257.28
  0
LINE
  8
0
 10
734.319
 11
733.761
 20
1257.28
 21
1257.84
  0
LINE
  8
0
 10
733.761
 11
733.403
 20
1257.84
 21
1258.54
  0
LINE
  8
0
 10
733.403
 11
733.28
 20
1258.54
 21
1259.32
  0
LINE
  8
0
 10
733.28
 11
733.28
 20
1508.32
 21
1511.28
  0
LINE
  8
0
 10
733.28
 11
733.403
 20
1511.28
 21
1512.06
  0
LINE
  8
0
 10
733.403
 11
733.761
 20
1512.06
 21
1512.76
  0
LINE
  8
0
 10
733.761
 11
734.319
 20
1512.76
 21
1513.32
  0
LINE
  8
0
 10
734.319
 11
735.021
 20
1513.32
 21
1513.68
  0
LINE
  8
0
 10
735.021
 11
735.8
 20
1513.68
 21
1513.8
  0
LINE
  8
0
 10
735.8
 11
736.579
 20
1513.8
 21
1513.68
  0
LINE
  8
0
 10
736.579
 11
737.281
 20
1513.68
 21
1513.32
  0
LINE
  8
0
 10
737.281
 11
737.839
 20
1513.32
 21
1512.76
  0
LINE
  8
0
 10
737.839
 11
738.197
 20
1512.76
 21
1512.06
  0
LINE
  8
0
 10
738.197
 11
738.32
 20
1512.06
 21
1511.28
  0
LINE
  8
0
 10
738.32
 11
738.32
 20
1511.28
 21
1508.32
  0
LINE
  8
0
 10
738.32
 11
738.197
 20
1508.32
 21
1507.54
  0
LINE
  8
0
 10
738.197
 11
737.839
 20
1507.54
 21
1506.84
  0
LINE
  8
0
 10
737.839
 11
737.281
 20
1506.84
 21
1506.28
  0
LINE
  8
0
 10
737.281
 11
736.579
 20
1506.28
 21
1505.92
  0
LINE
  8
0
 10
736.579
 11
735.8
 20
1505.92
 21
1505.8
  0
LINE
  8
0
 10
735.8
 11
735.021
 20
1505.8
 21
1505.92
  0
LINE
  8
0
 10
735.021
 11
734.319
 20
1505.92
 21
1506.28
  0
LINE
  8
0
 10
734.319
 11
733.761
 20
1506.28
 21
1506.84
  0
LINE
  8
0
 10
733.761
 11
733.403
 20
1506.84
 21
1507.54
  0
LINE
  8
0
 10
733.403
 11
733.28
 20
1507.54
 21
1508.32
  0
LINE
  8
0
 10
733.302
 11
733.302
 20
968.301
 21
968.499
  0
LINE
  8
0
 10
733.302
 11
733.318
 20
968.499
 21
968.698
  0
LINE
  8
0
 10
733.318
 11
733.349
 20
968.698
 21
968.894
  0
LINE
  8
0
 10
733.349
 11
733.396
 20
968.894
 21
969.087
  0
LINE
  8
0
 10
733.396
 11
733.458
 20
969.087
 21
969.276
  0
LINE
  8
0
 10
733.458
 11
733.535
 20
969.276
 21
969.459
  0
LINE
  8
0
 10
733.535
 11
733.627
 20
969.459
 21
969.636
  0
LINE
  8
0
 10
733.627
 11
733.732
 20
969.636
 21
969.804
  0
LINE
  8
0
 10
733.732
 11
733.85
 20
969.804
 21
969.964
  0
LINE
  8
0
 10
733.85
 11
733.98
 20
969.964
 21
970.114
  0
LINE
  8
0
 10
733.98
 11
734.122
 20
970.114
 21
970.253
  0
LINE
  8
0
 10
734.122
 11
734.275
 20
970.253
 21
970.381
  0
LINE
  8
0
 10
734.275
 11
734.437
 20
970.381
 21
970.496
  0
LINE
  8
0
 10
734.437
 11
734.608
 20
970.496
 21
970.597
  0
LINE
  8
0
 10
734.608
 11
734.786
 20
970.597
 21
970.685
  0
LINE
  8
0
 10
734.786
 11
734.971
 20
970.685
 21
970.759
  0
LINE
  8
0
 10
734.971
 11
735.161
 20
970.759
 21
970.817
  0
LINE
  8
0
 10
735.161
 11
735.355
 20
970.817
 21
970.86
  0
LINE
  8
0
 10
735.355
 11
735.552
 20
970.86
 21
970.888
  0
LINE
  8
0
 10
735.552
 11
735.75
 20
970.888
 21
970.9
  0
LINE
  8
0
 10
735.75
 11
735.949
 20
970.9
 21
970.896
  0
LINE
  8
0
 10
735.949
 11
736.147
 20
970.896
 21
970.876
  0
LINE
  8
0
 10
736.147
 11
736.342
 20
970.876
 21
970.84
  0
LINE
  8
0
 10
736.342
 11
736.535
 20
970.84
 21
970.79
  0
LINE
  8
0
 10
736.535
 11
736.722
 20
970.79
 21
970.724
  0
LINE
  8
0
 10
736.722
 11
736.904
 20
970.724
 21
970.643
  0
LINE
  8
0
 10
736.904
 11
737.079
 20
970.643
 21
970.548
  0
LINE
  8
0
 10
737.079
 11
737.245
 20
970.548
 21
970.44
  0
LINE
  8
0
 10
737.245
 11
737.403
 20
970.44
 21
970.319
  0
LINE
  8
0
 10
737.403
 11
737.55
 20
970.319
 21
970.185
  0
LINE
  8
0
 10
737.55
 11
737.686
 20
970.185
 21
970.041
  0
LINE
  8
0
 10
737.686
 11
737.811
 20
970.041
 21
969.886
  0
LINE
  8
0
 10
737.811
 11
737.922
 20
969.886
 21
969.721
  0
LINE
  8
0
 10
737.922
 11
738.021
 20
969.721
 21
969.548
  0
LINE
  8
0
 10
738.021
 11
738.105
 20
969.548
 21
969.368
  0
LINE
  8
0
 10
738.105
 11
738.175
 20
969.368
 21
969.182
  0
LINE
  8
0
 10
738.175
 11
738.229
 20
969.182
 21
968.991
  0
LINE
  8
0
 10
738.229
 11
738.268
 20
968.991
 21
968.796
  0
LINE
  8
0
 10
738.268
 11
738.292
 20
968.796
 21
968.599
  0
LINE
  8
0
 10
738.292
 11
738.3
 20
968.599
 21
968.4
  0
LINE
  8
0
 10
738.3
 11
738.292
 20
968.4
 21
968.201
  0
LINE
  8
0
 10
738.292
 11
738.268
 20
968.201
 21
968.004
  0
LINE
  8
0
 10
738.268
 11
738.229
 20
968.004
 21
967.809
  0
LINE
  8
0
 10
738.229
 11
738.175
 20
967.809
 21
967.618
  0
LINE
  8
0
 10
738.175
 11
738.105
 20
967.618
 21
967.432
  0
LINE
  8
0
 10
738.105
 11
738.021
 20
967.432
 21
967.252
  0
LINE
  8
0
 10
738.021
 11
737.922
 20
967.252
 21
967.079
  0
LINE
  8
0
 10
737.922
 11
737.811
 20
967.079
 21
966.914
  0
LINE
  8
0
 10
737.811
 11
737.686
 20
966.914
 21
966.759
  0
LINE
  8
0
 10
737.686
 11
737.55
 20
966.759
 21
966.615
  0
LINE
  8
0
 10
737.55
 11
737.403
 20
966.615
 21
966.481
  0
LINE
  8
0
 10
737.403
 11
737.245
 20
966.481
 21
966.36
  0
LINE
  8
0
 10
737.245
 11
737.079
 20
966.36
 21
966.252
  0
LINE
  8
0
 10
737.079
 11
736.904
 20
966.252
 21
966.157
  0
LINE
  8
0
 10
736.904
 11
736.722
 20
966.157
 21
966.076
  0
LINE
  8
0
 10
736.722
 11
736.535
 20
966.076
 21
966.01
  0
LINE
  8
0
 10
736.535
 11
736.342
 20
966.01
 21
965.96
  0
LINE
  8
0
 10
736.342
 11
736.147
 20
965.96
 21
965.924
  0
LINE
  8
0
 10
736.147
 11
735.949
 20
965.924
 21
965.904
  0
LINE
  8
0
 10
735.949
 11
735.75
 20
965.904
 21
965.9
  0
LINE
  8
0
 10
735.75
 11
735.552
 20
965.9
 21
965.912
  0
LINE
  8
0
 10
735.552
 11
735.355
 20
965.912
 21
965.94
  0
LINE
  8
0
 10
735.355
 11
735.161
 20
965.94
 21
965.983
  0
LINE
  8
0
 10
735.161
 11
734.971
 20
965.983
 21
966.041
  0
LINE
  8
0
 10
734.971
 11
734.786
 20
966.041
 21
966.115
  0
LINE
  8
0
 10
734.786
 11
734.608
 20
966.115
 21
966.203
  0
LINE
  8
0
 10
734.608
 11
734.437
 20
966.203
 21
966.304
  0
LINE
  8
0
 10
734.437
 11
734.275
 20
966.304
 21
966.419
  0
LINE
  8
0
 10
734.275
 11
734.122
 20
966.419
 21
966.547
  0
LINE
  8
0
 10
734.122
 11
733.98
 20
966.547
 21
966.686
  0
LINE
  8
0
 10
733.98
 11
733.85
 20
966.686
 21
966.836
  0
LINE
  8
0
 10
733.85
 11
733.732
 20
966.836
 21
966.996
  0
LINE
  8
0
 10
733.732
 11
733.627
 20
966.996
 21
967.164
  0
LINE
  8
0
 10
733.627
 11
733.535
 20
967.164
 21
967.341
  0
LINE
  8
0
 10
733.535
 11
733.458
 20
967.341
 21
967.524
  0
LINE
  8
0
 10
733.458
 11
733.396
 20
967.524
 21
967.713
  0
LINE
  8
0
 10
733.396
 11
733.349
 20
967.713
 21
967.906
  0
LINE
  8
0
 10
733.349
 11
733.318
 20
967.906
 21
968.102
  0
LINE
  8
0
 10
733.318
 11
733.302
 20
968.102
 21
968.301
  0
LINE
  8
0
 10
733.302
 11
733.302
 20
1197.3
 21
1197.5
  0
LINE
  8
0
 10
733.302
 11
733.318
 20
1197.5
 21
1197.7
  0
LINE
  8
0
 10
733.318
 11
733.349
 20
1197.7
 21
1197.89
  0
LINE
  8
0
 10
733.349
 11
733.396
 20
1197.89
 21
1198.09
  0
LINE
  8
0
 10
733.396
 11
733.458
 20
1198.09
 21
1198.28
  0
LINE
  8
0
 10
733.458
 11
733.535
 20
1198.28
 21
1198.46
  0
LINE
  8
0
 10
733.535
 11
733.627
 20
1198.46
 21
1198.64
  0
LINE
  8
0
 10
733.627
 11
733.732
 20
1198.64
 21
1198.8
  0
LINE
  8
0
 10
733.732
 11
733.85
 20
1198.8
 21
1198.96
  0
LINE
  8
0
 10
733.85
 11
733.98
 20
1198.96
 21
1199.11
  0
LINE
  8
0
 10
733.98
 11
734.122
 20
1199.11
 21
1199.25
  0
LINE
  8
0
 10
734.122
 11
734.275
 20
1199.25
 21
1199.38
  0
LINE
  8
0
 10
734.275
 11
734.437
 20
1199.38
 21
1199.5
  0
LINE
  8
0
 10
734.437
 11
734.608
 20
1199.5
 21
1199.6
  0
LINE
  8
0
 10
734.608
 11
734.786
 20
1199.6
 21
1199.68
  0
LINE
  8
0
 10
734.786
 11
734.971
 20
1199.68
 21
1199.76
  0
LINE
  8
0
 10
734.971
 11
735.161
 20
1199.76
 21
1199.82
  0
LINE
  8
0
 10
735.161
 11
735.355
 20
1199.82
 21
1199.86
  0
LINE
  8
0
 10
735.355
 11
735.552
 20
1199.86
 21
1199.89
  0
LINE
  8
0
 10
735.552
 11
735.75
 20
1199.89
 21
1199.9
  0
LINE
  8
0
 10
735.75
 11
735.949
 20
1199.9
 21
1199.9
  0
LINE
  8
0
 10
735.949
 11
736.147
 20
1199.9
 21
1199.88
  0
LINE
  8
0
 10
736.147
 11
736.342
 20
1199.88
 21
1199.84
  0
LINE
  8
0
 10
736.342
 11
736.535
 20
1199.84
 21
1199.79
  0
LINE
  8
0
 10
736.535
 11
736.722
 20
1199.79
 21
1199.72
  0
LINE
  8
0
 10
736.722
 11
736.904
 20
1199.72
 21
1199.64
  0
LINE
  8
0
 10
736.904
 11
737.079
 20
1199.64
 21
1199.55
  0
LINE
  8
0
 10
737.079
 11
737.245
 20
1199.55
 21
1199.44
  0
LINE
  8
0
 10
737.245
 11
737.403
 20
1199.44
 21
1199.32
  0
LINE
  8
0
 10
737.403
 11
737.55
 20
1199.32
 21
1199.18
  0
LINE
  8
0
 10
737.55
 11
737.686
 20
1199.18
 21
1199.04
  0
LINE
  8
0
 10
737.686
 11
737.811
 20
1199.04
 21
1198.89
  0
LINE
  8
0
 10
737.811
 11
737.922
 20
1198.89
 21
1198.72
  0
LINE
  8
0
 10
737.922
 11
738.021
 20
1198.72
 21
1198.55
  0
LINE
  8
0
 10
738.021
 11
738.105
 20
1198.55
 21
1198.37
  0
LINE
  8
0
 10
738.105
 11
738.175
 20
1198.37
 21
1198.18
  0
LINE
  8
0
 10
738.175
 11
738.229
 20
1198.18
 21
1197.99
  0
LINE
  8
0
 10
738.229
 11
738.268
 20
1197.99
 21
1197.8
  0
LINE
  8
0
 10
738.268
 11
738.292
 20
1197.8
 21
1197.6
  0
LINE
  8
0
 10
738.292
 11
738.3
 20
1197.6
 21
1197.4
  0
LINE
  8
0
 10
738.3
 11
738.292
 20
1197.4
 21
1197.2
  0
LINE
  8
0
 10
738.292
 11
738.268
 20
1197.2
 21
1197
  0
LINE
  8
0
 10
738.268
 11
738.229
 20
1197
 21
1196.81
  0
LINE
  8
0
 10
738.229
 11
738.175
 20
1196.81
 21
1196.62
  0
LINE
  8
0
 10
738.175
 11
738.105
 20
1196.62
 21
1196.43
  0
LINE
  8
0
 10
738.105
 11
738.021
 20
1196.43
 21
1196.25
  0
LINE
  8
0
 10
738.021
 11
737.922
 20
1196.25
 21
1196.08
  0
LINE
  8
0
 10
737.922
 11
737.811
 20
1196.08
 21
1195.91
  0
LINE
  8
0
 10
737.811
 11
737.686
 20
1195.91
 21
1195.76
  0
LINE
  8
0
 10
737.686
 11
737.55
 20
1195.76
 21
1195.62
  0
LINE
  8
0
 10
737.55
 11
737.403
 20
1195.62
 21
1195.48
  0
LINE
  8
0
 10
737.403
 11
737.245
 20
1195.48
 21
1195.36
  0
LINE
  8
0
 10
737.245
 11
737.079
 20
1195.36
 21
1195.25
  0
LINE
  8
0
 10
737.079
 11
736.904
 20
1195.25
 21
1195.16
  0
LINE
  8
0
 10
736.904
 11
736.722
 20
1195.16
 21
1195.08
  0
LINE
  8
0
 10
736.722
 11
736.535
 20
1195.08
 21
1195.01
  0
LINE
  8
0
 10
736.535
 11
736.342
 20
1195.01
 21
1194.96
  0
LINE
  8
0
 10
736.342
 11
736.147
 20
1194.96
 21
1194.92
  0
LINE
  8
0
 10
736.147
 11
735.949
 20
1194.92
 21
1194.9
  0
LINE
  8
0
 10
735.949
 11
735.75
 20
1194.9
 21
1194.9
  0
LINE
  8
0
 10
735.75
 11
735.552
 20
1194.9
 21
1194.91
  0
LINE
  8
0
 10
735.552
 11
735.355
 20
1194.91
 21
1194.94
  0
LINE
  8
0
 10
735.355
 11
735.161
 20
1194.94
 21
1194.98
  0
LINE
  8
0
 10
735.161
 11
734.971
 20
1194.98
 21
1195.04
  0
LINE
  8
0
 10
734.971
 11
734.786
 20
1195.04
 21
1195.12
  0
LINE
  8
0
 10
734.786
 11
734.608
 20
1195.12
 21
1195.2
  0
LINE
  8
0
 10
734.608
 11
734.437
 20
1195.2
 21
1195.3
  0
LINE
  8
0
 10
734.437
 11
734.275
 20
1195.3
 21
1195.42
  0
LINE
  8
0
 10
734.275
 11
734.122
 20
1195.42
 21
1195.55
  0
LINE
  8
0
 10
734.122
 11
733.98
 20
1195.55
 21
1195.69
  0
LINE
  8
0
 10
733.98
 11
733.85
 20
1195.69
 21
1195.84
  0
LINE
  8
0
 10
733.85
 11
733.732
 20
1195.84
 21
1196
  0
LINE
  8
0
 10
733.732
 11
733.627
 20
1196
 21
1196.16
  0
LINE
  8
0
 10
733.627
 11
733.535
 20
1196.16
 21
1196.34
  0
LINE
  8
0
 10
733.535
 11
733.458
 20
1196.34
 21
1196.52
  0
LINE
  8
0
 10
733.458
 11
733.396
 20
1196.52
 21
1196.71
  0
LINE
  8
0
 10
733.396
 11
733.349
 20
1196.71
 21
1196.91
  0
LINE
  8
0
 10
733.349
 11
733.318
 20
1196.91
 21
1197.1
  0
LINE
  8
0
 10
733.318
 11
733.302
 20
1197.1
 21
1197.3
  0
LINE
  8
0
 10
745.702
 11
745.702
 20
1122.4
 21
1178.4
  0
LINE
  8
0
 10
745.702
 11
745.8
 20
1178.4
 21
1179.02
  0
LINE
  8
0
 10
745.8
 11
746.084
 20
1179.02
 21
1179.58
  0
LINE
  8
0
 10
746.084
 11
746.526
 20
1179.58
 21
1180.02
  0
LINE
  8
0
 10
746.526
 11
747.084
 20
1180.02
 21
1180.3
  0
LINE
  8
0
 10
747.084
 11
747.702
 20
1180.3
 21
1180.4
  0
LINE
  8
0
 10
747.702
 11
748.32
 20
1180.4
 21
1180.3
  0
LINE
  8
0
 10
748.32
 11
748.878
 20
1180.3
 21
1180.02
  0
LINE
  8
0
 10
748.878
 11
749.32
 20
1180.02
 21
1179.58
  0
LINE
  8
0
 10
749.32
 11
749.604
 20
1179.58
 21
1179.02
  0
LINE
  8
0
 10
749.604
 11
749.702
 20
1179.02
 21
1178.4
  0
LINE
  8
0
 10
749.702
 11
749.702
 20
1178.4
 21
1122.4
  0
LINE
  8
0
 10
749.702
 11
749.604
 20
1122.4
 21
1121.78
  0
LINE
  8
0
 10
749.604
 11
749.32
 20
1121.78
 21
1121.22
  0
LINE
  8
0
 10
749.32
 11
748.878
 20
1121.22
 21
1120.78
  0
LINE
  8
0
 10
748.878
 11
748.32
 20
1120.78
 21
1120.5
  0
LINE
  8
0
 10
748.32
 11
747.702
 20
1120.5
 21
1120.4
  0
LINE
  8
0
 10
747.702
 11
747.084
 20
1120.4
 21
1120.5
  0
LINE
  8
0
 10
747.084
 11
746.526
 20
1120.5
 21
1120.78
  0
LINE
  8
0
 10
746.526
 11
746.084
 20
1120.78
 21
1121.22
  0
LINE
  8
0
 10
746.084
 11
745.8
 20
1121.22
 21
1121.78
  0
LINE
  8
0
 10
745.8
 11
745.702
 20
1121.78
 21
1122.4
  0
LINE
  8
0
 10
772.902
 11
772.902
 20
2137.9
 21
2138.1
  0
LINE
  8
0
 10
772.902
 11
772.918
 20
2138.1
 21
2138.3
  0
LINE
  8
0
 10
772.918
 11
772.949
 20
2138.3
 21
2138.49
  0
LINE
  8
0
 10
772.949
 11
772.996
 20
2138.49
 21
2138.69
  0
LINE
  8
0
 10
772.996
 11
773.058
 20
2138.69
 21
2138.88
  0
LINE
  8
0
 10
773.058
 11
773.135
 20
2138.88
 21
2139.06
  0
LINE
  8
0
 10
773.135
 11
773.227
 20
2139.06
 21
2139.24
  0
LINE
  8
0
 10
773.227
 11
773.332
 20
2139.24
 21
2139.4
  0
LINE
  8
0
 10
773.332
 11
773.45
 20
2139.4
 21
2139.56
  0
LINE
  8
0
 10
773.45
 11
773.58
 20
2139.56
 21
2139.71
  0
LINE
  8
0
 10
773.58
 11
773.722
 20
2139.71
 21
2139.85
  0
LINE
  8
0
 10
773.722
 11
773.875
 20
2139.85
 21
2139.98
  0
LINE
  8
0
 10
773.875
 11
774.037
 20
2139.98
 21
2140.1
  0
LINE
  8
0
 10
774.037
 11
774.208
 20
2140.1
 21
2140.2
  0
LINE
  8
0
 10
774.208
 11
774.386
 20
2140.2
 21
2140.28
  0
LINE
  8
0
 10
774.386
 11
774.571
 20
2140.28
 21
2140.36
  0
LINE
  8
0
 10
774.571
 11
774.761
 20
2140.36
 21
2140.42
  0
LINE
  8
0
 10
774.761
 11
774.955
 20
2140.42
 21
2140.46
  0
LINE
  8
0
 10
774.955
 11
775.152
 20
2140.46
 21
2140.49
  0
LINE
  8
0
 10
775.152
 11
775.35
 20
2140.49
 21
2140.5
  0
LINE
  8
0
 10
775.35
 11
775.549
 20
2140.5
 21
2140.5
  0
LINE
  8
0
 10
775.549
 11
775.747
 20
2140.5
 21
2140.48
  0
LINE
  8
0
 10
775.747
 11
775.942
 20
2140.48
 21
2140.44
  0
LINE
  8
0
 10
775.942
 11
776.135
 20
2140.44
 21
2140.39
  0
LINE
  8
0
 10
776.135
 11
776.322
 20
2140.39
 21
2140.32
  0
LINE
  8
0
 10
776.322
 11
776.504
 20
2140.32
 21
2140.24
  0
LINE
  8
0
 10
776.504
 11
776.679
 20
2140.24
 21
2140.15
  0
LINE
  8
0
 10
776.679
 11
776.845
 20
2140.15
 21
2140.04
  0
LINE
  8
0
 10
776.845
 11
777.003
 20
2140.04
 21
2139.92
  0
LINE
  8
0
 10
777.003
 11
777.15
 20
2139.92
 21
2139.78
  0
LINE
  8
0
 10
777.15
 11
777.286
 20
2139.78
 21
2139.64
  0
LINE
  8
0
 10
777.286
 11
777.411
 20
2139.64
 21
2139.49
  0
LINE
  8
0
 10
777.411
 11
777.522
 20
2139.49
 21
2139.32
  0
LINE
  8
0
 10
777.522
 11
777.621
 20
2139.32
 21
2139.15
  0
LINE
  8
0
 10
777.621
 11
777.705
 20
2139.15
 21
2138.97
  0
LINE
  8
0
 10
777.705
 11
777.775
 20
2138.97
 21
2138.78
  0
LINE
  8
0
 10
777.775
 11
777.829
 20
2138.78
 21
2138.59
  0
LINE
  8
0
 10
777.829
 11
777.868
 20
2138.59
 21
2138.4
  0
LINE
  8
0
 10
777.868
 11
777.892
 20
2138.4
 21
2138.2
  0
LINE
  8
0
 10
777.892
 11
777.9
 20
2138.2
 21
2138
  0
LINE
  8
0
 10
777.9
 11
777.892
 20
2138
 21
2137.8
  0
LINE
  8
0
 10
777.892
 11
777.868
 20
2137.8
 21
2137.6
  0
LINE
  8
0
 10
777.868
 11
777.829
 20
2137.6
 21
2137.41
  0
LINE
  8
0
 10
777.829
 11
777.775
 20
2137.41
 21
2137.22
  0
LINE
  8
0
 10
777.775
 11
777.705
 20
2137.22
 21
2137.03
  0
LINE
  8
0
 10
777.705
 11
777.621
 20
2137.03
 21
2136.85
  0
LINE
  8
0
 10
777.621
 11
777.522
 20
2136.85
 21
2136.68
  0
LINE
  8
0
 10
777.522
 11
777.411
 20
2136.68
 21
2136.51
  0
LINE
  8
0
 10
777.411
 11
777.286
 20
2136.51
 21
2136.36
  0
LINE
  8
0
 10
777.286
 11
777.15
 20
2136.36
 21
2136.22
  0
LINE
  8
0
 10
777.15
 11
777.003
 20
2136.22
 21
2136.08
  0
LINE
  8
0
 10
777.003
 11
776.845
 20
2136.08
 21
2135.96
  0
LINE
  8
0
 10
776.845
 11
776.679
 20
2135.96
 21
2135.85
  0
LINE
  8
0
 10
776.679
 11
776.504
 20
2135.85
 21
2135.76
  0
LINE
  8
0
 10
776.504
 11
776.322
 20
2135.76
 21
2135.68
  0
LINE
  8
0
 10
776.322
 11
776.135
 20
2135.68
 21
2135.61
  0
LINE
  8
0
 10
776.135
 11
775.942
 20
2135.61
 21
2135.56
  0
LINE
  8
0
 10
775.942
 11
775.747
 20
2135.56
 21
2135.52
  0
LINE
  8
0
 10
775.747
 11
775.549
 20
2135.52
 21
2135.5
  0
LINE
  8
0
 10
775.549
 11
775.35
 20
2135.5
 21
2135.5
  0
LINE
  8
0
 10
775.35
 11
775.152
 20
2135.5
 21
2135.51
  0
LINE
  8
0
 10
775.152
 11
774.955
 20
2135.51
 21
2135.54
  0
LINE
  8
0
 10
774.955
 11
774.761
 20
2135.54
 21
2135.58
  0
LINE
  8
0
 10
774.761
 11
774.571
 20
2135.58
 21
2135.64
  0
LINE
  8
0
 10
774.571
 11
774.386
 20
2135.64
 21
2135.72
  0
LINE
  8
0
 10
774.386
 11
774.208
 20
2135.72
 21
2135.8
  0
LINE
  8
0
 10
774.208
 11
774.037
 20
2135.8
 21
2135.9
  0
LINE
  8
0
 10
774.037
 11
773.875
 20
2135.9
 21
2136.02
  0
LINE
  8
0
 10
773.875
 11
773.722
 20
2136.02
 21
2136.15
  0
LINE
  8
0
 10
773.722
 11
773.58
 20
2136.15
 21
2136.29
  0
LINE
  8
0
 10
773.58
 11
773.45
 20
2136.29
 21
2136.44
  0
LINE
  8
0
 10
773.45
 11
773.332
 20
2136.44
 21
2136.6
  0
LINE
  8
0
 10
773.332
 11
773.227
 20
2136.6
 21
2136.76
  0
LINE
  8
0
 10
773.227
 11
773.135
 20
2136.76
 21
2136.94
  0
LINE
  8
0
 10
773.135
 11
773.058
 20
2136.94
 21
2137.12
  0
LINE
  8
0
 10
773.058
 11
772.996
 20
2137.12
 21
2137.31
  0
LINE
  8
0
 10
772.996
 11
772.949
 20
2137.31
 21
2137.51
  0
LINE
  8
0
 10
772.949
 11
772.918
 20
2137.51
 21
2137.7
  0
LINE
  8
0
 10
772.918
 11
772.902
 20
2137.7
 21
2137.9
  0
LINE
  8
0
 10
772.902
 11
772.902
 20
2237.9
 21
2238.1
  0
LINE
  8
0
 10
772.902
 11
772.918
 20
2238.1
 21
2238.3
  0
LINE
  8
0
 10
772.918
 11
772.949
 20
2238.3
 21
2238.49
  0
LINE
  8
0
 10
772.949
 11
772.996
 20
2238.49
 21
2238.69
  0
LINE
  8
0
 10
772.996
 11
773.058
 20
2238.69
 21
2238.88
  0
LINE
  8
0
 10
773.058
 11
773.135
 20
2238.88
 21
2239.06
  0
LINE
  8
0
 10
773.135
 11
773.227
 20
2239.06
 21
2239.24
  0
LINE
  8
0
 10
773.227
 11
773.332
 20
2239.24
 21
2239.4
  0
LINE
  8
0
 10
773.332
 11
773.45
 20
2239.4
 21
2239.56
  0
LINE
  8
0
 10
773.45
 11
773.58
 20
2239.56
 21
2239.71
  0
LINE
  8
0
 10
773.58
 11
773.722
 20
2239.71
 21
2239.85
  0
LINE
  8
0
 10
773.722
 11
773.875
 20
2239.85
 21
2239.98
  0
LINE
  8
0
 10
773.875
 11
774.037
 20
2239.98
 21
2240.1
  0
LINE
  8
0
 10
774.037
 11
774.208
 20
2240.1
 21
2240.2
  0
LINE
  8
0
 10
774.208
 11
774.386
 20
2240.2
 21
2240.28
  0
LINE
  8
0
 10
774.386
 11
774.571
 20
2240.28
 21
2240.36
  0
LINE
  8
0
 10
774.571
 11
774.761
 20
2240.36
 21
2240.42
  0
LINE
  8
0
 10
774.761
 11
774.955
 20
2240.42
 21
2240.46
  0
LINE
  8
0
 10
774.955
 11
775.152
 20
2240.46
 21
2240.49
  0
LINE
  8
0
 10
775.152
 11
775.35
 20
2240.49
 21
2240.5
  0
LINE
  8
0
 10
775.35
 11
775.549
 20
2240.5
 21
2240.5
  0
LINE
  8
0
 10
775.549
 11
775.747
 20
2240.5
 21
2240.48
  0
LINE
  8
0
 10
775.747
 11
775.942
 20
2240.48
 21
2240.44
  0
LINE
  8
0
 10
775.942
 11
776.135
 20
2240.44
 21
2240.39
  0
LINE
  8
0
 10
776.135
 11
776.322
 20
2240.39
 21
2240.32
  0
LINE
  8
0
 10
776.322
 11
776.504
 20
2240.32
 21
2240.24
  0
LINE
  8
0
 10
776.504
 11
776.679
 20
2240.24
 21
2240.15
  0
LINE
  8
0
 10
776.679
 11
776.845
 20
2240.15
 21
2240.04
  0
LINE
  8
0
 10
776.845
 11
777.003
 20
2240.04
 21
2239.92
  0
LINE
  8
0
 10
777.003
 11
777.15
 20
2239.92
 21
2239.78
  0
LINE
  8
0
 10
777.15
 11
777.286
 20
2239.78
 21
2239.64
  0
LINE
  8
0
 10
777.286
 11
777.411
 20
2239.64
 21
2239.49
  0
LINE
  8
0
 10
777.411
 11
777.522
 20
2239.49
 21
2239.32
  0
LINE
  8
0
 10
777.522
 11
777.621
 20
2239.32
 21
2239.15
  0
LINE
  8
0
 10
777.621
 11
777.705
 20
2239.15
 21
2238.97
  0
LINE
  8
0
 10
777.705
 11
777.775
 20
2238.97
 21
2238.78
  0
LINE
  8
0
 10
777.775
 11
777.829
 20
2238.78
 21
2238.59
  0
LINE
  8
0
 10
777.829
 11
777.868
 20
2238.59
 21
2238.4
  0
LINE
  8
0
 10
777.868
 11
777.892
 20
2238.4
 21
2238.2
  0
LINE
  8
0
 10
777.892
 11
777.9
 20
2238.2
 21
2238
  0
LINE
  8
0
 10
777.9
 11
777.892
 20
2238
 21
2237.8
  0
LINE
  8
0
 10
777.892
 11
777.868
 20
2237.8
 21
2237.6
  0
LINE
  8
0
 10
777.868
 11
777.829
 20
2237.6
 21
2237.41
  0
LINE
  8
0
 10
777.829
 11
777.775
 20
2237.41
 21
2237.22
  0
LINE
  8
0
 10
777.775
 11
777.705
 20
2237.22
 21
2237.03
  0
LINE
  8
0
 10
777.705
 11
777.621
 20
2237.03
 21
2236.85
  0
LINE
  8
0
 10
777.621
 11
777.522
 20
2236.85
 21
2236.68
  0
LINE
  8
0
 10
777.522
 11
777.411
 20
2236.68
 21
2236.51
  0
LINE
  8
0
 10
777.411
 11
777.286
 20
2236.51
 21
2236.36
  0
LINE
  8
0
 10
777.286
 11
777.15
 20
2236.36
 21
2236.22
  0
LINE
  8
0
 10
777.15
 11
777.003
 20
2236.22
 21
2236.08
  0
LINE
  8
0
 10
777.003
 11
776.845
 20
2236.08
 21
2235.96
  0
LINE
  8
0
 10
776.845
 11
776.679
 20
2235.96
 21
2235.85
  0
LINE
  8
0
 10
776.679
 11
776.504
 20
2235.85
 21
2235.76
  0
LINE
  8
0
 10
776.504
 11
776.322
 20
2235.76
 21
2235.68
  0
LINE
  8
0
 10
776.322
 11
776.135
 20
2235.68
 21
2235.61
  0
LINE
  8
0
 10
776.135
 11
775.942
 20
2235.61
 21
2235.56
  0
LINE
  8
0
 10
775.942
 11
775.747
 20
2235.56
 21
2235.52
  0
LINE
  8
0
 10
775.747
 11
775.549
 20
2235.52
 21
2235.5
  0
LINE
  8
0
 10
775.549
 11
775.35
 20
2235.5
 21
2235.5
  0
LINE
  8
0
 10
775.35
 11
775.152
 20
2235.5
 21
2235.51
  0
LINE
  8
0
 10
775.152
 11
774.955
 20
2235.51
 21
2235.54
  0
LINE
  8
0
 10
774.955
 11
774.761
 20
2235.54
 21
2235.58
  0
LINE
  8
0
 10
774.761
 11
774.571
 20
2235.58
 21
2235.64
  0
LINE
  8
0
 10
774.571
 11
774.386
 20
2235.64
 21
2235.72
  0
LINE
  8
0
 10
774.386
 11
774.208
 20
2235.72
 21
2235.8
  0
LINE
  8
0
 10
774.208
 11
774.037
 20
2235.8
 21
2235.9
  0
LINE
  8
0
 10
774.037
 11
773.875
 20
2235.9
 21
2236.02
  0
LINE
  8
0
 10
773.875
 11
773.722
 20
2236.02
 21
2236.15
  0
LINE
  8
0
 10
773.722
 11
773.58
 20
2236.15
 21
2236.29
  0
LINE
  8
0
 10
773.58
 11
773.45
 20
2236.29
 21
2236.44
  0
LINE
  8
0
 10
773.45
 11
773.332
 20
2236.44
 21
2236.6
  0
LINE
  8
0
 10
773.332
 11
773.227
 20
2236.6
 21
2236.76
  0
LINE
  8
0
 10
773.227
 11
773.135
 20
2236.76
 21
2236.94
  0
LINE
  8
0
 10
773.135
 11
773.058
 20
2236.94
 21
2237.12
  0
LINE
  8
0
 10
773.058
 11
772.996
 20
2237.12
 21
2237.31
  0
LINE
  8
0
 10
772.996
 11
772.949
 20
2237.31
 21
2237.51
  0
LINE
  8
0
 10
772.949
 11
772.918
 20
2237.51
 21
2237.7
  0
LINE
  8
0
 10
772.918
 11
772.902
 20
2237.7
 21
2237.9
  0
LINE
  8
0
 10
775.95
 11
775.95
 20
1122.4
 21
1178.4
  0
LINE
  8
0
 10
775.95
 11
776.048
 20
1178.4
 21
1179.02
  0
LINE
  8
0
 10
776.048
 11
776.332
 20
1179.02
 21
1179.58
  0
LINE
  8
0
 10
776.332
 11
776.774
 20
1179.58
 21
1180.02
  0
LINE
  8
0
 10
776.774
 11
777.332
 20
1180.02
 21
1180.3
  0
LINE
  8
0
 10
777.332
 11
777.95
 20
1180.3
 21
1180.4
  0
LINE
  8
0
 10
777.95
 11
778.568
 20
1180.4
 21
1180.3
  0
LINE
  8
0
 10
778.568
 11
779.126
 20
1180.3
 21
1180.02
  0
LINE
  8
0
 10
779.126
 11
779.568
 20
1180.02
 21
1179.58
  0
LINE
  8
0
 10
779.568
 11
779.852
 20
1179.58
 21
1179.02
  0
LINE
  8
0
 10
779.852
 11
779.95
 20
1179.02
 21
1178.4
  0
LINE
  8
0
 10
779.95
 11
779.95
 20
1178.4
 21
1122.4
  0
LINE
  8
0
 10
779.95
 11
779.852
 20
1122.4
 21
1121.78
  0
LINE
  8
0
 10
779.852
 11
779.568
 20
1121.78
 21
1121.22
  0
LINE
  8
0
 10
779.568
 11
779.126
 20
1121.22
 21
1120.78
  0
LINE
  8
0
 10
779.126
 11
778.568
 20
1120.78
 21
1120.5
  0
LINE
  8
0
 10
778.568
 11
777.95
 20
1120.5
 21
1120.4
  0
LINE
  8
0
 10
777.95
 11
777.332
 20
1120.4
 21
1120.5
  0
LINE
  8
0
 10
777.332
 11
776.774
 20
1120.5
 21
1120.78
  0
LINE
  8
0
 10
776.774
 11
776.332
 20
1120.78
 21
1121.22
  0
LINE
  8
0
 10
776.332
 11
776.048
 20
1121.22
 21
1121.78
  0
LINE
  8
0
 10
776.048
 11
775.95
 20
1121.78
 21
1122.4
  0
LINE
  8
0
 10
803.502
 11
803.502
 20
2722.7
 21
2722.9
  0
LINE
  8
0
 10
803.502
 11
803.518
 20
2722.9
 21
2723.1
  0
LINE
  8
0
 10
803.518
 11
803.549
 20
2723.1
 21
2723.29
  0
LINE
  8
0
 10
803.549
 11
803.596
 20
2723.29
 21
2723.49
  0
LINE
  8
0
 10
803.596
 11
803.658
 20
2723.49
 21
2723.68
  0
LINE
  8
0
 10
803.658
 11
803.735
 20
2723.68
 21
2723.86
  0
LINE
  8
0
 10
803.735
 11
803.827
 20
2723.86
 21
2724.04
  0
LINE
  8
0
 10
803.827
 11
803.932
 20
2724.04
 21
2724.2
  0
LINE
  8
0
 10
803.932
 11
804.05
 20
2724.2
 21
2724.36
  0
LINE
  8
0
 10
804.05
 11
804.18
 20
2724.36
 21
2724.51
  0
LINE
  8
0
 10
804.18
 11
804.322
 20
2724.51
 21
2724.65
  0
LINE
  8
0
 10
804.322
 11
804.475
 20
2724.65
 21
2724.78
  0
LINE
  8
0
 10
804.475
 11
804.637
 20
2724.78
 21
2724.9
  0
LINE
  8
0
 10
804.637
 11
804.808
 20
2724.9
 21
2725
  0
LINE
  8
0
 10
804.808
 11
804.986
 20
2725
 21
2725.09
  0
LINE
  8
0
 10
804.986
 11
805.171
 20
2725.09
 21
2725.16
  0
LINE
  8
0
 10
805.171
 11
805.361
 20
2725.16
 21
2725.22
  0
LINE
  8
0
 10
805.361
 11
805.555
 20
2725.22
 21
2725.26
  0
LINE
  8
0
 10
805.555
 11
805.752
 20
2725.26
 21
2725.29
  0
LINE
  8
0
 10
805.752
 11
805.95
 20
2725.29
 21
2725.3
  0
LINE
  8
0
 10
805.95
 11
806.149
 20
2725.3
 21
2725.3
  0
LINE
  8
0
 10
806.149
 11
806.347
 20
2725.3
 21
2725.28
  0
LINE
  8
0
 10
806.347
 11
806.542
 20
2725.28
 21
2725.24
  0
LINE
  8
0
 10
806.542
 11
806.735
 20
2725.24
 21
2725.19
  0
LINE
  8
0
 10
806.735
 11
806.922
 20
2725.19
 21
2725.12
  0
LINE
  8
0
 10
806.922
 11
807.104
 20
2725.12
 21
2725.04
  0
LINE
  8
0
 10
807.104
 11
807.279
 20
2725.04
 21
2724.95
  0
LINE
  8
0
 10
807.279
 11
807.445
 20
2724.95
 21
2724.84
  0
LINE
  8
0
 10
807.445
 11
807.603
 20
2724.84
 21
2724.72
  0
LINE
  8
0
 10
807.603
 11
807.75
 20
2724.72
 21
2724.59
  0
LINE
  8
0
 10
807.75
 11
807.886
 20
2724.59
 21
2724.44
  0
LINE
  8
0
 10
807.886
 11
808.011
 20
2724.44
 21
2724.29
  0
LINE
  8
0
 10
808.011
 11
808.122
 20
2724.29
 21
2724.12
  0
LINE
  8
0
 10
808.122
 11
808.221
 20
2724.12
 21
2723.95
  0
LINE
  8
0
 10
808.221
 11
808.305
 20
2723.95
 21
2723.77
  0
LINE
  8
0
 10
808.305
 11
808.375
 20
2723.77
 21
2723.58
  0
LINE
  8
0
 10
808.375
 11
808.429
 20
2723.58
 21
2723.39
  0
LINE
  8
0
 10
808.429
 11
808.468
 20
2723.39
 21
2723.2
  0
LINE
  8
0
 10
808.468
 11
808.492
 20
2723.2
 21
2723
  0
LINE
  8
0
 10
808.492
 11
808.5
 20
2723
 21
2722.8
  0
LINE
  8
0
 10
808.5
 11
808.492
 20
2722.8
 21
2722.6
  0
LINE
  8
0
 10
808.492
 11
808.468
 20
2722.6
 21
2722.4
  0
LINE
  8
0
 10
808.468
 11
808.429
 20
2722.4
 21
2722.21
  0
LINE
  8
0
 10
808.429
 11
808.375
 20
2722.21
 21
2722.02
  0
LINE
  8
0
 10
808.375
 11
808.305
 20
2722.02
 21
2721.83
  0
LINE
  8
0
 10
808.305
 11
808.221
 20
2721.83
 21
2721.65
  0
LINE
  8
0
 10
808.221
 11
808.122
 20
2721.65
 21
2721.48
  0
LINE
  8
0
 10
808.122
 11
808.011
 20
2721.48
 21
2721.31
  0
LINE
  8
0
 10
808.011
 11
807.886
 20
2721.31
 21
2721.16
  0
LINE
  8
0
 10
807.886
 11
807.75
 20
2721.16
 21
2721.01
  0
LINE
  8
0
 10
807.75
 11
807.603
 20
2721.01
 21
2720.88
  0
LINE
  8
0
 10
807.603
 11
807.445
 20
2720.88
 21
2720.76
  0
LINE
  8
0
 10
807.445
 11
807.279
 20
2720.76
 21
2720.65
  0
LINE
  8
0
 10
807.279
 11
807.104
 20
2720.65
 21
2720.56
  0
LINE
  8
0
 10
807.104
 11
806.922
 20
2720.56
 21
2720.48
  0
LINE
  8
0
 10
806.922
 11
806.735
 20
2720.48
 21
2720.41
  0
LINE
  8
0
 10
806.735
 11
806.542
 20
2720.41
 21
2720.36
  0
LINE
  8
0
 10
806.542
 11
806.347
 20
2720.36
 21
2720.32
  0
LINE
  8
0
 10
806.347
 11
806.149
 20
2720.32
 21
2720.3
  0
LINE
  8
0
 10
806.149
 11
805.95
 20
2720.3
 21
2720.3
  0
LINE
  8
0
 10
805.95
 11
805.752
 20
2720.3
 21
2720.31
  0
LINE
  8
0
 10
805.752
 11
805.555
 20
2720.31
 21
2720.34
  0
LINE
  8
0
 10
805.555
 11
805.361
 20
2720.34
 21
2720.38
  0
LINE
  8
0
 10
805.361
 11
805.171
 20
2720.38
 21
2720.44
  0
LINE
  8
0
 10
805.171
 11
804.986
 20
2720.44
 21
2720.51
  0
LINE
  8
0
 10
804.986
 11
804.808
 20
2720.51
 21
2720.6
  0
LINE
  8
0
 10
804.808
 11
804.637
 20
2720.6
 21
2720.7
  0
LINE
  8
0
 10
804.637
 11
804.475
 20
2720.7
 21
2720.82
  0
LINE
  8
0
 10
804.475
 11
804.322
 20
2720.82
 21
2720.95
  0
LINE
  8
0
 10
804.322
 11
804.18
 20
2720.95
 21
2721.09
  0
LINE
  8
0
 10
804.18
 11
804.05
 20
2721.09
 21
2721.24
  0
LINE
  8
0
 10
804.05
 11
803.932
 20
2721.24
 21
2721.4
  0
LINE
  8
0
 10
803.932
 11
803.827
 20
2721.4
 21
2721.56
  0
LINE
  8
0
 10
803.827
 11
803.735
 20
2721.56
 21
2721.74
  0
LINE
  8
0
 10
803.735
 11
803.658
 20
2721.74
 21
2721.92
  0
LINE
  8
0
 10
803.658
 11
803.596
 20
2721.92
 21
2722.11
  0
LINE
  8
0
 10
803.596
 11
803.549
 20
2722.11
 21
2722.31
  0
LINE
  8
0
 10
803.549
 11
803.518
 20
2722.31
 21
2722.5
  0
LINE
  8
0
 10
803.518
 11
803.502
 20
2722.5
 21
2722.7
  0
LINE
  8
0
 10
806.198
 11
806.198
 20
1122.4
 21
1178.4
  0
LINE
  8
0
 10
806.198
 11
806.296
 20
1178.4
 21
1179.02
  0
LINE
  8
0
 10
806.296
 11
806.58
 20
1179.02
 21
1179.58
  0
LINE
  8
0
 10
806.58
 11
807.022
 20
1179.58
 21
1180.02
  0
LINE
  8
0
 10
807.022
 11
807.58
 20
1180.02
 21
1180.3
  0
LINE
  8
0
 10
807.58
 11
808.198
 20
1180.3
 21
1180.4
  0
LINE
  8
0
 10
808.198
 11
808.816
 20
1180.4
 21
1180.3
  0
LINE
  8
0
 10
808.816
 11
809.374
 20
1180.3
 21
1180.02
  0
LINE
  8
0
 10
809.374
 11
809.816
 20
1180.02
 21
1179.58
  0
LINE
  8
0
 10
809.816
 11
810.1
 20
1179.58
 21
1179.02
  0
LINE
  8
0
 10
810.1
 11
810.198
 20
1179.02
 21
1178.4
  0
LINE
  8
0
 10
810.198
 11
810.198
 20
1178.4
 21
1122.4
  0
LINE
  8
0
 10
810.198
 11
810.1
 20
1122.4
 21
1121.78
  0
LINE
  8
0
 10
810.1
 11
809.816
 20
1121.78
 21
1121.22
  0
LINE
  8
0
 10
809.816
 11
809.374
 20
1121.22
 21
1120.78
  0
LINE
  8
0
 10
809.374
 11
808.816
 20
1120.78
 21
1120.5
  0
LINE
  8
0
 10
808.816
 11
808.198
 20
1120.5
 21
1120.4
  0
LINE
  8
0
 10
808.198
 11
807.58
 20
1120.4
 21
1120.5
  0
LINE
  8
0
 10
807.58
 11
807.022
 20
1120.5
 21
1120.78
  0
LINE
  8
0
 10
807.022
 11
806.58
 20
1120.78
 21
1121.22
  0
LINE
  8
0
 10
806.58
 11
806.296
 20
1121.22
 21
1121.78
  0
LINE
  8
0
 10
806.296
 11
806.198
 20
1121.78
 21
1122.4
  0
LINE
  8
0
 10
831.495
 11
831.495
 20
1551.7
 21
1554.69
  0
LINE
  8
0
 10
831.495
 11
831.618
 20
1554.69
 21
1555.47
  0
LINE
  8
0
 10
831.618
 11
831.973
 20
1555.47
 21
1556.17
  0
LINE
  8
0
 10
831.973
 11
832.528
 20
1556.17
 21
1556.72
  0
LINE
  8
0
 10
832.528
 11
833.226
 20
1556.72
 21
1557.08
  0
LINE
  8
0
 10
833.226
 11
834
 20
1557.08
 21
1557.2
  0
LINE
  8
0
 10
834
 11
834.774
 20
1557.2
 21
1557.08
  0
LINE
  8
0
 10
834.774
 11
835.472
 20
1557.08
 21
1556.72
  0
LINE
  8
0
 10
835.472
 11
836.027
 20
1556.72
 21
1556.17
  0
LINE
  8
0
 10
836.027
 11
836.382
 20
1556.17
 21
1555.47
  0
LINE
  8
0
 10
836.382
 11
836.505
 20
1555.47
 21
1554.69
  0
LINE
  8
0
 10
836.505
 11
836.505
 20
1554.69
 21
1551.7
  0
LINE
  8
0
 10
836.505
 11
836.382
 20
1551.7
 21
1550.93
  0
LINE
  8
0
 10
836.382
 11
836.027
 20
1550.93
 21
1550.23
  0
LINE
  8
0
 10
836.027
 11
835.472
 20
1550.23
 21
1549.68
  0
LINE
  8
0
 10
835.472
 11
834.774
 20
1549.68
 21
1549.32
  0
LINE
  8
0
 10
834.774
 11
834
 20
1549.32
 21
1549.2
  0
LINE
  8
0
 10
834
 11
833.226
 20
1549.2
 21
1549.32
  0
LINE
  8
0
 10
833.226
 11
832.528
 20
1549.32
 21
1549.68
  0
LINE
  8
0
 10
832.528
 11
831.973
 20
1549.68
 21
1550.23
  0
LINE
  8
0
 10
831.973
 11
831.618
 20
1550.23
 21
1550.93
  0
LINE
  8
0
 10
831.618
 11
831.495
 20
1550.93
 21
1551.7
  0
LINE
  8
0
 10
831.495
 11
831.495
 20
1800.7
 21
1803.69
  0
LINE
  8
0
 10
831.495
 11
831.618
 20
1803.69
 21
1804.47
  0
LINE
  8
0
 10
831.618
 11
831.973
 20
1804.47
 21
1805.17
  0
LINE
  8
0
 10
831.973
 11
832.528
 20
1805.17
 21
1805.72
  0
LINE
  8
0
 10
832.528
 11
833.226
 20
1805.72
 21
1806.08
  0
LINE
  8
0
 10
833.226
 11
834
 20
1806.08
 21
1806.2
  0
LINE
  8
0
 10
834
 11
834.774
 20
1806.2
 21
1806.08
  0
LINE
  8
0
 10
834.774
 11
835.472
 20
1806.08
 21
1805.72
  0
LINE
  8
0
 10
835.472
 11
836.027
 20
1805.72
 21
1805.17
  0
LINE
  8
0
 10
836.027
 11
836.382
 20
1805.17
 21
1804.47
  0
LINE
  8
0
 10
836.382
 11
836.505
 20
1804.47
 21
1803.69
  0
LINE
  8
0
 10
836.505
 11
836.505
 20
1803.69
 21
1800.7
  0
LINE
  8
0
 10
836.505
 11
836.382
 20
1800.7
 21
1799.93
  0
LINE
  8
0
 10
836.382
 11
836.027
 20
1799.93
 21
1799.23
  0
LINE
  8
0
 10
836.027
 11
835.472
 20
1799.23
 21
1798.68
  0
LINE
  8
0
 10
835.472
 11
834.774
 20
1798.68
 21
1798.32
  0
LINE
  8
0
 10
834.774
 11
834
 20
1798.32
 21
1798.2
  0
LINE
  8
0
 10
834
 11
833.226
 20
1798.2
 21
1798.32
  0
LINE
  8
0
 10
833.226
 11
832.528
 20
1798.32
 21
1798.68
  0
LINE
  8
0
 10
832.528
 11
831.973
 20
1798.68
 21
1799.23
  0
LINE
  8
0
 10
831.973
 11
831.618
 20
1799.23
 21
1799.93
  0
LINE
  8
0
 10
831.618
 11
831.495
 20
1799.93
 21
1800.7
  0
LINE
  8
0
 10
831.495
 11
831.495
 20
1844.11
 21
1847.1
  0
LINE
  8
0
 10
831.495
 11
831.618
 20
1847.1
 21
1847.87
  0
LINE
  8
0
 10
831.618
 11
831.973
 20
1847.87
 21
1848.57
  0
LINE
  8
0
 10
831.973
 11
832.528
 20
1848.57
 21
1849.12
  0
LINE
  8
0
 10
832.528
 11
833.226
 20
1849.12
 21
1849.48
  0
LINE
  8
0
 10
833.226
 11
834
 20
1849.48
 21
1849.6
  0
LINE
  8
0
 10
834
 11
834.774
 20
1849.6
 21
1849.48
  0
LINE
  8
0
 10
834.774
 11
835.472
 20
1849.48
 21
1849.12
  0
LINE
  8
0
 10
835.472
 11
836.027
 20
1849.12
 21
1848.57
  0
LINE
  8
0
 10
836.027
 11
836.382
 20
1848.57
 21
1847.87
  0
LINE
  8
0
 10
836.382
 11
836.505
 20
1847.87
 21
1847.1
  0
LINE
  8
0
 10
836.505
 11
836.505
 20
1847.1
 21
1844.11
  0
LINE
  8
0
 10
836.505
 11
836.382
 20
1844.11
 21
1843.33
  0
LINE
  8
0
 10
836.382
 11
836.027
 20
1843.33
 21
1842.63
  0
LINE
  8
0
 10
836.027
 11
835.472
 20
1842.63
 21
1842.08
  0
LINE
  8
0
 10
835.472
 11
834.774
 20
1842.08
 21
1841.72
  0
LINE
  8
0
 10
834.774
 11
834
 20
1841.72
 21
1841.6
  0
LINE
  8
0
 10
834
 11
833.226
 20
1841.6
 21
1841.72
  0
LINE
  8
0
 10
833.226
 11
832.528
 20
1841.72
 21
1842.08
  0
LINE
  8
0
 10
832.528
 11
831.973
 20
1842.08
 21
1842.63
  0
LINE
  8
0
 10
831.973
 11
831.618
 20
1842.63
 21
1843.33
  0
LINE
  8
0
 10
831.618
 11
831.495
 20
1843.33
 21
1844.11
  0
LINE
  8
0
 10
831.495
 11
831.495
 20
2093.11
 21
2096.1
  0
LINE
  8
0
 10
831.495
 11
831.618
 20
2096.1
 21
2096.87
  0
LINE
  8
0
 10
831.618
 11
831.973
 20
2096.87
 21
2097.57
  0
LINE
  8
0
 10
831.973
 11
832.528
 20
2097.57
 21
2098.12
  0
LINE
  8
0
 10
832.528
 11
833.226
 20
2098.12
 21
2098.48
  0
LINE
  8
0
 10
833.226
 11
834
 20
2098.48
 21
2098.6
  0
LINE
  8
0
 10
834
 11
834.774
 20
2098.6
 21
2098.48
  0
LINE
  8
0
 10
834.774
 11
835.472
 20
2098.48
 21
2098.12
  0
LINE
  8
0
 10
835.472
 11
836.027
 20
2098.12
 21
2097.57
  0
LINE
  8
0
 10
836.027
 11
836.382
 20
2097.57
 21
2096.87
  0
LINE
  8
0
 10
836.382
 11
836.505
 20
2096.87
 21
2096.1
  0
LINE
  8
0
 10
836.505
 11
836.505
 20
2096.1
 21
2093.11
  0
LINE
  8
0
 10
836.505
 11
836.382
 20
2093.11
 21
2092.33
  0
LINE
  8
0
 10
836.382
 11
836.027
 20
2092.33
 21
2091.63
  0
LINE
  8
0
 10
836.027
 11
835.472
 20
2091.63
 21
2091.08
  0
LINE
  8
0
 10
835.472
 11
834.774
 20
2091.08
 21
2090.72
  0
LINE
  8
0
 10
834.774
 11
834
 20
2090.72
 21
2090.6
  0
LINE
  8
0
 10
834
 11
833.226
 20
2090.6
 21
2090.72
  0
LINE
  8
0
 10
833.226
 11
832.528
 20
2090.72
 21
2091.08
  0
LINE
  8
0
 10
832.528
 11
831.973
 20
2091.08
 21
2091.63
  0
LINE
  8
0
 10
831.973
 11
831.618
 20
2091.63
 21
2092.33
  0
LINE
  8
0
 10
831.618
 11
831.495
 20
2092.33
 21
2093.11
  0
LINE
  8
0
 10
831.502
 11
831.502
 20
2430.3
 21
2430.5
  0
LINE
  8
0
 10
831.502
 11
831.518
 20
2430.5
 21
2430.7
  0
LINE
  8
0
 10
831.518
 11
831.549
 20
2430.7
 21
2430.89
  0
LINE
  8
0
 10
831.549
 11
831.596
 20
2430.89
 21
2431.09
  0
LINE
  8
0
 10
831.596
 11
831.658
 20
2431.09
 21
2431.28
  0
LINE
  8
0
 10
831.658
 11
831.735
 20
2431.28
 21
2431.46
  0
LINE
  8
0
 10
831.735
 11
831.827
 20
2431.46
 21
2431.64
  0
LINE
  8
0
 10
831.827
 11
831.932
 20
2431.64
 21
2431.8
  0
LINE
  8
0
 10
831.932
 11
832.05
 20
2431.8
 21
2431.96
  0
LINE
  8
0
 10
832.05
 11
832.18
 20
2431.96
 21
2432.11
  0
LINE
  8
0
 10
832.18
 11
832.322
 20
2432.11
 21
2432.25
  0
LINE
  8
0
 10
832.322
 11
832.475
 20
2432.25
 21
2432.38
  0
LINE
  8
0
 10
832.475
 11
832.637
 20
2432.38
 21
2432.5
  0
LINE
  8
0
 10
832.637
 11
832.808
 20
2432.5
 21
2432.6
  0
LINE
  8
0
 10
832.808
 11
832.986
 20
2432.6
 21
2432.68
  0
LINE
  8
0
 10
832.986
 11
833.171
 20
2432.68
 21
2432.76
  0
LINE
  8
0
 10
833.171
 11
833.361
 20
2432.76
 21
2432.82
  0
LINE
  8
0
 10
833.361
 11
833.555
 20
2432.82
 21
2432.86
  0
LINE
  8
0
 10
833.555
 11
833.752
 20
2432.86
 21
2432.89
  0
LINE
  8
0
 10
833.752
 11
833.95
 20
2432.89
 21
2432.9
  0
LINE
  8
0
 10
833.95
 11
834.149
 20
2432.9
 21
2432.9
  0
LINE
  8
0
 10
834.149
 11
834.347
 20
2432.9
 21
2432.88
  0
LINE
  8
0
 10
834.347
 11
834.542
 20
2432.88
 21
2432.84
  0
LINE
  8
0
 10
834.542
 11
834.735
 20
2432.84
 21
2432.79
  0
LINE
  8
0
 10
834.735
 11
834.922
 20
2432.79
 21
2432.72
  0
LINE
  8
0
 10
834.922
 11
835.104
 20
2432.72
 21
2432.64
  0
LINE
  8
0
 10
835.104
 11
835.279
 20
2432.64
 21
2432.55
  0
LINE
  8
0
 10
835.279
 11
835.445
 20
2432.55
 21
2432.44
  0
LINE
  8
0
 10
835.445
 11
835.603
 20
2432.44
 21
2432.32
  0
LINE
  8
0
 10
835.603
 11
835.75
 20
2432.32
 21
2432.18
  0
LINE
  8
0
 10
835.75
 11
835.886
 20
2432.18
 21
2432.04
  0
LINE
  8
0
 10
835.886
 11
836.011
 20
2432.04
 21
2431.89
  0
LINE
  8
0
 10
836.011
 11
836.122
 20
2431.89
 21
2431.72
  0
LINE
  8
0
 10
836.122
 11
836.221
 20
2431.72
 21
2431.55
  0
LINE
  8
0
 10
836.221
 11
836.305
 20
2431.55
 21
2431.37
  0
LINE
  8
0
 10
836.305
 11
836.375
 20
2431.37
 21
2431.18
  0
LINE
  8
0
 10
836.375
 11
836.429
 20
2431.18
 21
2430.99
  0
LINE
  8
0
 10
836.429
 11
836.468
 20
2430.99
 21
2430.8
  0
LINE
  8
0
 10
836.468
 11
836.492
 20
2430.8
 21
2430.6
  0
LINE
  8
0
 10
836.492
 11
836.5
 20
2430.6
 21
2430.4
  0
LINE
  8
0
 10
836.5
 11
836.492
 20
2430.4
 21
2430.2
  0
LINE
  8
0
 10
836.492
 11
836.468
 20
2430.2
 21
2430
  0
LINE
  8
0
 10
836.468
 11
836.429
 20
2430
 21
2429.81
  0
LINE
  8
0
 10
836.429
 11
836.375
 20
2429.81
 21
2429.62
  0
LINE
  8
0
 10
836.375
 11
836.305
 20
2429.62
 21
2429.43
  0
LINE
  8
0
 10
836.305
 11
836.221
 20
2429.43
 21
2429.25
  0
LINE
  8
0
 10
836.221
 11
836.122
 20
2429.25
 21
2429.08
  0
LINE
  8
0
 10
836.122
 11
836.011
 20
2429.08
 21
2428.91
  0
LINE
  8
0
 10
836.011
 11
835.886
 20
2428.91
 21
2428.76
  0
LINE
  8
0
 10
835.886
 11
835.75
 20
2428.76
 21
2428.62
  0
LINE
  8
0
 10
835.75
 11
835.603
 20
2428.62
 21
2428.48
  0
LINE
  8
0
 10
835.603
 11
835.445
 20
2428.48
 21
2428.36
  0
LINE
  8
0
 10
835.445
 11
835.279
 20
2428.36
 21
2428.25
  0
LINE
  8
0
 10
835.279
 11
835.104
 20
2428.25
 21
2428.16
  0
LINE
  8
0
 10
835.104
 11
834.922
 20
2428.16
 21
2428.08
  0
LINE
  8
0
 10
834.922
 11
834.735
 20
2428.08
 21
2428.01
  0
LINE
  8
0
 10
834.735
 11
834.542
 20
2428.01
 21
2427.96
  0
LINE
  8
0
 10
834.542
 11
834.347
 20
2427.96
 21
2427.92
  0
LINE
  8
0
 10
834.347
 11
834.149
 20
2427.92
 21
2427.9
  0
LINE
  8
0
 10
834.149
 11
833.95
 20
2427.9
 21
2427.9
  0
LINE
  8
0
 10
833.95
 11
833.752
 20
2427.9
 21
2427.91
  0
LINE
  8
0
 10
833.752
 11
833.555
 20
2427.91
 21
2427.94
  0
LINE
  8
0
 10
833.555
 11
833.361
 20
2427.94
 21
2427.98
  0
LINE
  8
0
 10
833.361
 11
833.171
 20
2427.98
 21
2428.04
  0
LINE
  8
0
 10
833.171
 11
832.986
 20
2428.04
 21
2428.12
  0
LINE
  8
0
 10
832.986
 11
832.808
 20
2428.12
 21
2428.2
  0
LINE
  8
0
 10
832.808
 11
832.637
 20
2428.2
 21
2428.3
  0
LINE
  8
0
 10
832.637
 11
832.475
 20
2428.3
 21
2428.42
  0
LINE
  8
0
 10
832.475
 11
832.322
 20
2428.42
 21
2428.55
  0
LINE
  8
0
 10
832.322
 11
832.18
 20
2428.55
 21
2428.69
  0
LINE
  8
0
 10
832.18
 11
832.05
 20
2428.69
 21
2428.84
  0
LINE
  8
0
 10
832.05
 11
831.932
 20
2428.84
 21
2429
  0
LINE
  8
0
 10
831.932
 11
831.827
 20
2429
 21
2429.16
  0
LINE
  8
0
 10
831.827
 11
831.735
 20
2429.16
 21
2429.34
  0
LINE
  8
0
 10
831.735
 11
831.658
 20
2429.34
 21
2429.52
  0
LINE
  8
0
 10
831.658
 11
831.596
 20
2429.52
 21
2429.71
  0
LINE
  8
0
 10
831.596
 11
831.549
 20
2429.71
 21
2429.91
  0
LINE
  8
0
 10
831.549
 11
831.518
 20
2429.91
 21
2430.1
  0
LINE
  8
0
 10
831.518
 11
831.502
 20
2430.1
 21
2430.3
  0
LINE
  8
0
 10
831.502
 11
831.502
 20
2660.3
 21
2660.5
  0
LINE
  8
0
 10
831.502
 11
831.518
 20
2660.5
 21
2660.7
  0
LINE
  8
0
 10
831.518
 11
831.549
 20
2660.7
 21
2660.89
  0
LINE
  8
0
 10
831.549
 11
831.596
 20
2660.89
 21
2661.09
  0
LINE
  8
0
 10
831.596
 11
831.658
 20
2661.09
 21
2661.28
  0
LINE
  8
0
 10
831.658
 11
831.735
 20
2661.28
 21
2661.46
  0
LINE
  8
0
 10
831.735
 11
831.827
 20
2661.46
 21
2661.64
  0
LINE
  8
0
 10
831.827
 11
831.932
 20
2661.64
 21
2661.8
  0
LINE
  8
0
 10
831.932
 11
832.05
 20
2661.8
 21
2661.96
  0
LINE
  8
0
 10
832.05
 11
832.18
 20
2661.96
 21
2662.11
  0
LINE
  8
0
 10
832.18
 11
832.322
 20
2662.11
 21
2662.25
  0
LINE
  8
0
 10
832.322
 11
832.475
 20
2662.25
 21
2662.38
  0
LINE
  8
0
 10
832.475
 11
832.637
 20
2662.38
 21
2662.5
  0
LINE
  8
0
 10
832.637
 11
832.808
 20
2662.5
 21
2662.6
  0
LINE
  8
0
 10
832.808
 11
832.986
 20
2662.6
 21
2662.68
  0
LINE
  8
0
 10
832.986
 11
833.171
 20
2662.68
 21
2662.76
  0
LINE
  8
0
 10
833.171
 11
833.361
 20
2662.76
 21
2662.82
  0
LINE
  8
0
 10
833.361
 11
833.555
 20
2662.82
 21
2662.86
  0
LINE
  8
0
 10
833.555
 11
833.752
 20
2662.86
 21
2662.89
  0
LINE
  8
0
 10
833.752
 11
833.95
 20
2662.89
 21
2662.9
  0
LINE
  8
0
 10
833.95
 11
834.149
 20
2662.9
 21
2662.9
  0
LINE
  8
0
 10
834.149
 11
834.347
 20
2662.9
 21
2662.88
  0
LINE
  8
0
 10
834.347
 11
834.542
 20
2662.88
 21
2662.84
  0
LINE
  8
0
 10
834.542
 11
834.735
 20
2662.84
 21
2662.79
  0
LINE
  8
0
 10
834.735
 11
834.922
 20
2662.79
 21
2662.72
  0
LINE
  8
0
 10
834.922
 11
835.104
 20
2662.72
 21
2662.64
  0
LINE
  8
0
 10
835.104
 11
835.279
 20
2662.64
 21
2662.55
  0
LINE
  8
0
 10
835.279
 11
835.445
 20
2662.55
 21
2662.44
  0
LINE
  8
0
 10
835.445
 11
835.603
 20
2662.44
 21
2662.32
  0
LINE
  8
0
 10
835.603
 11
835.75
 20
2662.32
 21
2662.18
  0
LINE
  8
0
 10
835.75
 11
835.886
 20
2662.18
 21
2662.04
  0
LINE
  8
0
 10
835.886
 11
836.011
 20
2662.04
 21
2661.89
  0
LINE
  8
0
 10
836.011
 11
836.122
 20
2661.89
 21
2661.72
  0
LINE
  8
0
 10
836.122
 11
836.221
 20
2661.72
 21
2661.55
  0
LINE
  8
0
 10
836.221
 11
836.305
 20
2661.55
 21
2661.37
  0
LINE
  8
0
 10
836.305
 11
836.375
 20
2661.37
 21
2661.18
  0
LINE
  8
0
 10
836.375
 11
836.429
 20
2661.18
 21
2660.99
  0
LINE
  8
0
 10
836.429
 11
836.468
 20
2660.99
 21
2660.8
  0
LINE
  8
0
 10
836.468
 11
836.492
 20
2660.8
 21
2660.6
  0
LINE
  8
0
 10
836.492
 11
836.5
 20
2660.6
 21
2660.4
  0
LINE
  8
0
 10
836.5
 11
836.492
 20
2660.4
 21
2660.2
  0
LINE
  8
0
 10
836.492
 11
836.468
 20
2660.2
 21
2660
  0
LINE
  8
0
 10
836.468
 11
836.429
 20
2660
 21
2659.81
  0
LINE
  8
0
 10
836.429
 11
836.375
 20
2659.81
 21
2659.62
  0
LINE
  8
0
 10
836.375
 11
836.305
 20
2659.62
 21
2659.43
  0
LINE
  8
0
 10
836.305
 11
836.221
 20
2659.43
 21
2659.25
  0
LINE
  8
0
 10
836.221
 11
836.122
 20
2659.25
 21
2659.08
  0
LINE
  8
0
 10
836.122
 11
836.011
 20
2659.08
 21
2658.91
  0
LINE
  8
0
 10
836.011
 11
835.886
 20
2658.91
 21
2658.76
  0
LINE
  8
0
 10
835.886
 11
835.75
 20
2658.76
 21
2658.62
  0
LINE
  8
0
 10
835.75
 11
835.603
 20
2658.62
 21
2658.48
  0
LINE
  8
0
 10
835.603
 11
835.445
 20
2658.48
 21
2658.36
  0
LINE
  8
0
 10
835.445
 11
835.279
 20
2658.36
 21
2658.25
  0
LINE
  8
0
 10
835.279
 11
835.104
 20
2658.25
 21
2658.16
  0
LINE
  8
0
 10
835.104
 11
834.922
 20
2658.16
 21
2658.08
  0
LINE
  8
0
 10
834.922
 11
834.735
 20
2658.08
 21
2658.01
  0
LINE
  8
0
 10
834.735
 11
834.542
 20
2658.01
 21
2657.96
  0
LINE
  8
0
 10
834.542
 11
834.347
 20
2657.96
 21
2657.92
  0
LINE
  8
0
 10
834.347
 11
834.149
 20
2657.92
 21
2657.9
  0
LINE
  8
0
 10
834.149
 11
833.95
 20
2657.9
 21
2657.9
  0
LINE
  8
0
 10
833.95
 11
833.752
 20
2657.9
 21
2657.91
  0
LINE
  8
0
 10
833.752
 11
833.555
 20
2657.91
 21
2657.94
  0
LINE
  8
0
 10
833.555
 11
833.361
 20
2657.94
 21
2657.98
  0
LINE
  8
0
 10
833.361
 11
833.171
 20
2657.98
 21
2658.04
  0
LINE
  8
0
 10
833.171
 11
832.986
 20
2658.04
 21
2658.12
  0
LINE
  8
0
 10
832.986
 11
832.808
 20
2658.12
 21
2658.2
  0
LINE
  8
0
 10
832.808
 11
832.637
 20
2658.2
 21
2658.3
  0
LINE
  8
0
 10
832.637
 11
832.475
 20
2658.3
 21
2658.42
  0
LINE
  8
0
 10
832.475
 11
832.322
 20
2658.42
 21
2658.55
  0
LINE
  8
0
 10
832.322
 11
832.18
 20
2658.55
 21
2658.69
  0
LINE
  8
0
 10
832.18
 11
832.05
 20
2658.69
 21
2658.84
  0
LINE
  8
0
 10
832.05
 11
831.932
 20
2658.84
 21
2659
  0
LINE
  8
0
 10
831.932
 11
831.827
 20
2659
 21
2659.16
  0
LINE
  8
0
 10
831.827
 11
831.735
 20
2659.16
 21
2659.34
  0
LINE
  8
0
 10
831.735
 11
831.658
 20
2659.34
 21
2659.52
  0
LINE
  8
0
 10
831.658
 11
831.596
 20
2659.52
 21
2659.71
  0
LINE
  8
0
 10
831.596
 11
831.549
 20
2659.71
 21
2659.91
  0
LINE
  8
0
 10
831.549
 11
831.518
 20
2659.91
 21
2660.1
  0
LINE
  8
0
 10
831.518
 11
831.502
 20
2660.1
 21
2660.3
  0
LINE
  8
0
 10
836.446
 11
836.446
 20
1122.4
 21
1178.4
  0
LINE
  8
0
 10
836.446
 11
836.544
 20
1178.4
 21
1179.02
  0
LINE
  8
0
 10
836.544
 11
836.828
 20
1179.02
 21
1179.58
  0
LINE
  8
0
 10
836.828
 11
837.27
 20
1179.58
 21
1180.02
  0
LINE
  8
0
 10
837.27
 11
837.828
 20
1180.02
 21
1180.3
  0
LINE
  8
0
 10
837.828
 11
838.446
 20
1180.3
 21
1180.4
  0
LINE
  8
0
 10
838.446
 11
839.064
 20
1180.4
 21
1180.3
  0
LINE
  8
0
 10
839.064
 11
839.622
 20
1180.3
 21
1180.02
  0
LINE
  8
0
 10
839.622
 11
840.064
 20
1180.02
 21
1179.58
  0
LINE
  8
0
 10
840.064
 11
840.348
 20
1179.58
 21
1179.02
  0
LINE
  8
0
 10
840.348
 11
840.446
 20
1179.02
 21
1178.4
  0
LINE
  8
0
 10
840.446
 11
840.446
 20
1178.4
 21
1122.4
  0
LINE
  8
0
 10
840.446
 11
840.348
 20
1122.4
 21
1121.78
  0
LINE
  8
0
 10
840.348
 11
840.064
 20
1121.78
 21
1121.22
  0
LINE
  8
0
 10
840.064
 11
839.622
 20
1121.22
 21
1120.78
  0
LINE
  8
0
 10
839.622
 11
839.064
 20
1120.78
 21
1120.5
  0
LINE
  8
0
 10
839.064
 11
838.446
 20
1120.5
 21
1120.4
  0
LINE
  8
0
 10
838.446
 11
837.828
 20
1120.4
 21
1120.5
  0
LINE
  8
0
 10
837.828
 11
837.27
 20
1120.5
 21
1120.78
  0
LINE
  8
0
 10
837.27
 11
836.828
 20
1120.78
 21
1121.22
  0
LINE
  8
0
 10
836.828
 11
836.544
 20
1121.22
 21
1121.78
  0
LINE
  8
0
 10
836.544
 11
836.446
 20
1121.78
 21
1122.4
  0
LINE
  8
0
 10
866.694
 11
866.694
 20
1122.4
 21
1178.4
  0
LINE
  8
0
 10
866.694
 11
866.792
 20
1178.4
 21
1179.02
  0
LINE
  8
0
 10
866.792
 11
867.076
 20
1179.02
 21
1179.58
  0
LINE
  8
0
 10
867.076
 11
867.518
 20
1179.58
 21
1180.02
  0
LINE
  8
0
 10
867.518
 11
868.076
 20
1180.02
 21
1180.3
  0
LINE
  8
0
 10
868.076
 11
868.694
 20
1180.3
 21
1180.4
  0
LINE
  8
0
 10
868.694
 11
869.312
 20
1180.4
 21
1180.3
  0
LINE
  8
0
 10
869.312
 11
869.87
 20
1180.3
 21
1180.02
  0
LINE
  8
0
 10
869.87
 11
870.312
 20
1180.02
 21
1179.58
  0
LINE
  8
0
 10
870.312
 11
870.596
 20
1179.58
 21
1179.02
  0
LINE
  8
0
 10
870.596
 11
870.694
 20
1179.02
 21
1178.4
  0
LINE
  8
0
 10
870.694
 11
870.694
 20
1178.4
 21
1122.4
  0
LINE
  8
0
 10
870.694
 11
870.596
 20
1122.4
 21
1121.78
  0
LINE
  8
0
 10
870.596
 11
870.312
 20
1121.78
 21
1121.22
  0
LINE
  8
0
 10
870.312
 11
869.87
 20
1121.22
 21
1120.78
  0
LINE
  8
0
 10
869.87
 11
869.312
 20
1120.78
 21
1120.5
  0
LINE
  8
0
 10
869.312
 11
868.694
 20
1120.5
 21
1120.4
  0
LINE
  8
0
 10
868.694
 11
868.076
 20
1120.4
 21
1120.5
  0
LINE
  8
0
 10
868.076
 11
867.518
 20
1120.5
 21
1120.78
  0
LINE
  8
0
 10
867.518
 11
867.076
 20
1120.78
 21
1121.22
  0
LINE
  8
0
 10
867.076
 11
866.792
 20
1121.22
 21
1121.78
  0
LINE
  8
0
 10
866.792
 11
866.694
 20
1121.78
 21
1122.4
  0
LINE
  8
0
 10
896.942
 11
896.942
 20
1122.4
 21
1178.4
  0
LINE
  8
0
 10
896.942
 11
897.04
 20
1178.4
 21
1179.02
  0
LINE
  8
0
 10
897.04
 11
897.324
 20
1179.02
 21
1179.58
  0
LINE
  8
0
 10
897.324
 11
897.766
 20
1179.58
 21
1180.02
  0
LINE
  8
0
 10
897.766
 11
898.324
 20
1180.02
 21
1180.3
  0
LINE
  8
0
 10
898.324
 11
898.942
 20
1180.3
 21
1180.4
  0
LINE
  8
0
 10
898.942
 11
899.56
 20
1180.4
 21
1180.3
  0
LINE
  8
0
 10
899.56
 11
900.118
 20
1180.3
 21
1180.02
  0
LINE
  8
0
 10
900.118
 11
900.56
 20
1180.02
 21
1179.58
  0
LINE
  8
0
 10
900.56
 11
900.844
 20
1179.58
 21
1179.02
  0
LINE
  8
0
 10
900.844
 11
900.942
 20
1179.02
 21
1178.4
  0
LINE
  8
0
 10
900.942
 11
900.942
 20
1178.4
 21
1122.4
  0
LINE
  8
0
 10
900.942
 11
900.844
 20
1122.4
 21
1121.78
  0
LINE
  8
0
 10
900.844
 11
900.56
 20
1121.78
 21
1121.22
  0
LINE
  8
0
 10
900.56
 11
900.118
 20
1121.22
 21
1120.78
  0
LINE
  8
0
 10
900.118
 11
899.56
 20
1120.78
 21
1120.5
  0
LINE
  8
0
 10
899.56
 11
898.942
 20
1120.5
 21
1120.4
  0
LINE
  8
0
 10
898.942
 11
898.324
 20
1120.4
 21
1120.5
  0
LINE
  8
0
 10
898.324
 11
897.766
 20
1120.5
 21
1120.78
  0
LINE
  8
0
 10
897.766
 11
897.324
 20
1120.78
 21
1121.22
  0
LINE
  8
0
 10
897.324
 11
897.04
 20
1121.22
 21
1121.78
  0
LINE
  8
0
 10
897.04
 11
896.942
 20
1121.78
 21
1122.4
  0
LINE
  8
0
 10
921
 11
921.123
 20
1677.7
 21
1678.47
  0
LINE
  8
0
 10
921.123
 11
921.478
 20
1678.47
 21
1679.17
  0
LINE
  8
0
 10
921.478
 11
922.033
 20
1679.17
 21
1679.73
  0
LINE
  8
0
 10
922.033
 11
922.731
 20
1679.73
 21
1680.08
  0
LINE
  8
0
 10
922.731
 11
923.505
 20
1680.08
 21
1680.2
  0
LINE
  8
0
 10
923.505
 11
926.495
 20
1680.2
 21
1680.2
  0
LINE
  8
0
 10
926.495
 11
927.269
 20
1680.2
 21
1680.08
  0
LINE
  8
0
 10
927.269
 11
927.967
 20
1680.08
 21
1679.73
  0
LINE
  8
0
 10
927.967
 11
928.522
 20
1679.73
 21
1679.17
  0
LINE
  8
0
 10
928.522
 11
928.877
 20
1679.17
 21
1678.47
  0
LINE
  8
0
 10
928.877
 11
929
 20
1678.47
 21
1677.7
  0
LINE
  8
0
 10
929
 11
928.877
 20
1677.7
 21
1676.93
  0
LINE
  8
0
 10
928.877
 11
928.522
 20
1676.93
 21
1676.23
  0
LINE
  8
0
 10
928.522
 11
927.967
 20
1676.23
 21
1675.67
  0
LINE
  8
0
 10
927.967
 11
927.269
 20
1675.67
 21
1675.32
  0
LINE
  8
0
 10
927.269
 11
926.495
 20
1675.32
 21
1675.19
  0
LINE
  8
0
 10
926.495
 11
923.505
 20
1675.19
 21
1675.19
  0
LINE
  8
0
 10
923.505
 11
922.731
 20
1675.19
 21
1675.32
  0
LINE
  8
0
 10
922.731
 11
922.033
 20
1675.32
 21
1675.67
  0
LINE
  8
0
 10
922.033
 11
921.478
 20
1675.67
 21
1676.23
  0
LINE
  8
0
 10
921.478
 11
921.123
 20
1676.23
 21
1676.93
  0
LINE
  8
0
 10
921.123
 11
921
 20
1676.93
 21
1677.7
  0
LINE
  8
0
 10
921
 11
921.123
 20
1970.1
 21
1970.87
  0
LINE
  8
0
 10
921.123
 11
921.478
 20
1970.87
 21
1971.57
  0
LINE
  8
0
 10
921.478
 11
922.033
 20
1971.57
 21
1972.13
  0
LINE
  8
0
 10
922.033
 11
922.731
 20
1972.13
 21
1972.48
  0
LINE
  8
0
 10
922.731
 11
923.505
 20
1972.48
 21
1972.61
  0
LINE
  8
0
 10
923.505
 11
926.495
 20
1972.61
 21
1972.61
  0
LINE
  8
0
 10
926.495
 11
927.269
 20
1972.61
 21
1972.48
  0
LINE
  8
0
 10
927.269
 11
927.967
 20
1972.48
 21
1972.13
  0
LINE
  8
0
 10
927.967
 11
928.522
 20
1972.13
 21
1971.57
  0
LINE
  8
0
 10
928.522
 11
928.877
 20
1971.57
 21
1970.87
  0
LINE
  8
0
 10
928.877
 11
929
 20
1970.87
 21
1970.1
  0
LINE
  8
0
 10
929
 11
928.877
 20
1970.1
 21
1969.33
  0
LINE
  8
0
 10
928.877
 11
928.522
 20
1969.33
 21
1968.63
  0
LINE
  8
0
 10
928.522
 11
927.967
 20
1968.63
 21
1968.07
  0
LINE
  8
0
 10
927.967
 11
927.269
 20
1968.07
 21
1967.72
  0
LINE
  8
0
 10
927.269
 11
926.495
 20
1967.72
 21
1967.6
  0
LINE
  8
0
 10
926.495
 11
923.505
 20
1967.6
 21
1967.6
  0
LINE
  8
0
 10
923.505
 11
922.731
 20
1967.6
 21
1967.72
  0
LINE
  8
0
 10
922.731
 11
922.033
 20
1967.72
 21
1968.07
  0
LINE
  8
0
 10
922.033
 11
921.478
 20
1968.07
 21
1968.63
  0
LINE
  8
0
 10
921.478
 11
921.123
 20
1968.63
 21
1969.33
  0
LINE
  8
0
 10
921.123
 11
921
 20
1969.33
 21
1970.1
  0
LINE
  8
0
 10
927.19
 11
927.19
 20
1122.4
 21
1178.4
  0
LINE
  8
0
 10
927.19
 11
927.288
 20
1178.4
 21
1179.02
  0
LINE
  8
0
 10
927.288
 11
927.572
 20
1179.02
 21
1179.58
  0
LINE
  8
0
 10
927.572
 11
928.014
 20
1179.58
 21
1180.02
  0
LINE
  8
0
 10
928.014
 11
928.572
 20
1180.02
 21
1180.3
  0
LINE
  8
0
 10
928.572
 11
929.19
 20
1180.3
 21
1180.4
  0
LINE
  8
0
 10
929.19
 11
929.808
 20
1180.4
 21
1180.3
  0
LINE
  8
0
 10
929.808
 11
930.366
 20
1180.3
 21
1180.02
  0
LINE
  8
0
 10
930.366
 11
930.808
 20
1180.02
 21
1179.58
  0
LINE
  8
0
 10
930.808
 11
931.092
 20
1179.58
 21
1179.02
  0
LINE
  8
0
 10
931.092
 11
931.19
 20
1179.02
 21
1178.4
  0
LINE
  8
0
 10
931.19
 11
931.19
 20
1178.4
 21
1122.4
  0
LINE
  8
0
 10
931.19
 11
931.092
 20
1122.4
 21
1121.78
  0
LINE
  8
0
 10
931.092
 11
930.808
 20
1121.78
 21
1121.22
  0
LINE
  8
0
 10
930.808
 11
930.366
 20
1121.22
 21
1120.78
  0
LINE
  8
0
 10
930.366
 11
929.808
 20
1120.78
 21
1120.5
  0
LINE
  8
0
 10
929.808
 11
929.19
 20
1120.5
 21
1120.4
  0
LINE
  8
0
 10
929.19
 11
928.572
 20
1120.4
 21
1120.5
  0
LINE
  8
0
 10
928.572
 11
928.014
 20
1120.5
 21
1120.78
  0
LINE
  8
0
 10
928.014
 11
927.572
 20
1120.78
 21
1121.22
  0
LINE
  8
0
 10
927.572
 11
927.288
 20
1121.22
 21
1121.78
  0
LINE
  8
0
 10
927.288
 11
927.19
 20
1121.78
 21
1122.4
  0
LINE
  8
0
 10
957.438
 11
957.438
 20
1122.4
 21
1178.4
  0
LINE
  8
0
 10
957.438
 11
957.536
 20
1178.4
 21
1179.02
  0
LINE
  8
0
 10
957.536
 11
957.82
 20
1179.02
 21
1179.58
  0
LINE
  8
0
 10
957.82
 11
958.262
 20
1179.58
 21
1180.02
  0
LINE
  8
0
 10
958.262
 11
958.82
 20
1180.02
 21
1180.3
  0
LINE
  8
0
 10
958.82
 11
959.438
 20
1180.3
 21
1180.4
  0
LINE
  8
0
 10
959.438
 11
960.056
 20
1180.4
 21
1180.3
  0
LINE
  8
0
 10
960.056
 11
960.614
 20
1180.3
 21
1180.02
  0
LINE
  8
0
 10
960.614
 11
961.056
 20
1180.02
 21
1179.58
  0
LINE
  8
0
 10
961.056
 11
961.34
 20
1179.58
 21
1179.02
  0
LINE
  8
0
 10
961.34
 11
961.438
 20
1179.02
 21
1178.4
  0
LINE
  8
0
 10
961.438
 11
961.438
 20
1178.4
 21
1122.4
  0
LINE
  8
0
 10
961.438
 11
961.34
 20
1122.4
 21
1121.78
  0
LINE
  8
0
 10
961.34
 11
961.056
 20
1121.78
 21
1121.22
  0
LINE
  8
0
 10
961.056
 11
960.614
 20
1121.22
 21
1120.78
  0
LINE
  8
0
 10
960.614
 11
960.056
 20
1120.78
 21
1120.5
  0
LINE
  8
0
 10
960.056
 11
959.438
 20
1120.5
 21
1120.4
  0
LINE
  8
0
 10
959.438
 11
958.82
 20
1120.4
 21
1120.5
  0
LINE
  8
0
 10
958.82
 11
958.262
 20
1120.5
 21
1120.78
  0
LINE
  8
0
 10
958.262
 11
957.82
 20
1120.78
 21
1121.22
  0
LINE
  8
0
 10
957.82
 11
957.536
 20
1121.22
 21
1121.78
  0
LINE
  8
0
 10
957.536
 11
957.438
 20
1121.78
 21
1122.4
  0
LINE
  8
0
 10
987.686
 11
987.686
 20
1122.4
 21
1178.4
  0
LINE
  8
0
 10
987.686
 11
987.784
 20
1178.4
 21
1179.02
  0
LINE
  8
0
 10
987.784
 11
988.068
 20
1179.02
 21
1179.58
  0
LINE
  8
0
 10
988.068
 11
988.51
 20
1179.58
 21
1180.02
  0
LINE
  8
0
 10
988.51
 11
989.068
 20
1180.02
 21
1180.3
  0
LINE
  8
0
 10
989.068
 11
989.686
 20
1180.3
 21
1180.4
  0
LINE
  8
0
 10
989.686
 11
990.304
 20
1180.4
 21
1180.3
  0
LINE
  8
0
 10
990.304
 11
990.862
 20
1180.3
 21
1180.02
  0
LINE
  8
0
 10
990.862
 11
991.304
 20
1180.02
 21
1179.58
  0
LINE
  8
0
 10
991.304
 11
991.588
 20
1179.58
 21
1179.02
  0
LINE
  8
0
 10
991.588
 11
991.686
 20
1179.02
 21
1178.4
  0
LINE
  8
0
 10
991.686
 11
991.686
 20
1178.4
 21
1122.4
  0
LINE
  8
0
 10
991.686
 11
991.588
 20
1122.4
 21
1121.78
  0
LINE
  8
0
 10
991.588
 11
991.304
 20
1121.78
 21
1121.22
  0
LINE
  8
0
 10
991.304
 11
990.862
 20
1121.22
 21
1120.78
  0
LINE
  8
0
 10
990.862
 11
990.304
 20
1120.78
 21
1120.5
  0
LINE
  8
0
 10
990.304
 11
989.686
 20
1120.5
 21
1120.4
  0
LINE
  8
0
 10
989.686
 11
989.068
 20
1120.4
 21
1120.5
  0
LINE
  8
0
 10
989.068
 11
988.51
 20
1120.5
 21
1120.78
  0
LINE
  8
0
 10
988.51
 11
988.068
 20
1120.78
 21
1121.22
  0
LINE
  8
0
 10
988.068
 11
987.784
 20
1121.22
 21
1121.78
  0
LINE
  8
0
 10
987.784
 11
987.686
 20
1121.78
 21
1122.4
  0
LINE
  8
0
 10
1017.93
 11
1017.93
 20
1122.4
 21
1178.4
  0
LINE
  8
0
 10
1017.93
 11
1018.03
 20
1178.4
 21
1179.02
  0
LINE
  8
0
 10
1018.03
 11
1018.32
 20
1179.02
 21
1179.58
  0
LINE
  8
0
 10
1018.32
 11
1018.76
 20
1179.58
 21
1180.02
  0
LINE
  8
0
 10
1018.76
 11
1019.32
 20
1180.02
 21
1180.3
  0
LINE
  8
0
 10
1019.32
 11
1019.93
 20
1180.3
 21
1180.4
  0
LINE
  8
0
 10
1019.93
 11
1020.55
 20
1180.4
 21
1180.3
  0
LINE
  8
0
 10
1020.55
 11
1021.11
 20
1180.3
 21
1180.02
  0
LINE
  8
0
 10
1021.11
 11
1021.55
 20
1180.02
 21
1179.58
  0
LINE
  8
0
 10
1021.55
 11
1021.84
 20
1179.58
 21
1179.02
  0
LINE
  8
0
 10
1021.84
 11
1021.93
 20
1179.02
 21
1178.4
  0
LINE
  8
0
 10
1021.93
 11
1021.93
 20
1178.4
 21
1122.4
  0
LINE
  8
0
 10
1021.93
 11
1021.84
 20
1122.4
 21
1121.78
  0
LINE
  8
0
 10
1021.84
 11
1021.55
 20
1121.78
 21
1121.22
  0
LINE
  8
0
 10
1021.55
 11
1021.11
 20
1121.22
 21
1120.78
  0
LINE
  8
0
 10
1021.11
 11
1020.55
 20
1120.78
 21
1120.5
  0
LINE
  8
0
 10
1020.55
 11
1019.93
 20
1120.5
 21
1120.4
  0
LINE
  8
0
 10
1019.93
 11
1019.32
 20
1120.4
 21
1120.5
  0
LINE
  8
0
 10
1019.32
 11
1018.76
 20
1120.5
 21
1120.78
  0
LINE
  8
0
 10
1018.76
 11
1018.32
 20
1120.78
 21
1121.22
  0
LINE
  8
0
 10
1018.32
 11
1018.03
 20
1121.22
 21
1121.78
  0
LINE
  8
0
 10
1018.03
 11
1017.93
 20
1121.78
 21
1122.4
  0
LINE
  8
0
 10
1048.18
 11
1048.18
 20
1122.4
 21
1178.4
  0
LINE
  8
0
 10
1048.18
 11
1048.28
 20
1178.4
 21
1179.02
  0
LINE
  8
0
 10
1048.28
 11
1048.56
 20
1179.02
 21
1179.58
  0
LINE
  8
0
 10
1048.56
 11
1049.01
 20
1179.58
 21
1180.02
  0
LINE
  8
0
 10
1049.01
 11
1049.56
 20
1180.02
 21
1180.3
  0
LINE
  8
0
 10
1049.56
 11
1050.18
 20
1180.3
 21
1180.4
  0
LINE
  8
0
 10
1050.18
 11
1050.8
 20
1180.4
 21
1180.3
  0
LINE
  8
0
 10
1050.8
 11
1051.36
 20
1180.3
 21
1180.02
  0
LINE
  8
0
 10
1051.36
 11
1051.8
 20
1180.02
 21
1179.58
  0
LINE
  8
0
 10
1051.8
 11
1052.08
 20
1179.58
 21
1179.02
  0
LINE
  8
0
 10
1052.08
 11
1052.18
 20
1179.02
 21
1178.4
  0
LINE
  8
0
 10
1052.18
 11
1052.18
 20
1178.4
 21
1122.4
  0
LINE
  8
0
 10
1052.18
 11
1052.08
 20
1122.4
 21
1121.78
  0
LINE
  8
0
 10
1052.08
 11
1051.8
 20
1121.78
 21
1121.22
  0
LINE
  8
0
 10
1051.8
 11
1051.36
 20
1121.22
 21
1120.78
  0
LINE
  8
0
 10
1051.36
 11
1050.8
 20
1120.78
 21
1120.5
  0
LINE
  8
0
 10
1050.8
 11
1050.18
 20
1120.5
 21
1120.4
  0
LINE
  8
0
 10
1050.18
 11
1049.56
 20
1120.4
 21
1120.5
  0
LINE
  8
0
 10
1049.56
 11
1049.01
 20
1120.5
 21
1120.78
  0
LINE
  8
0
 10
1049.01
 11
1048.56
 20
1120.78
 21
1121.22
  0
LINE
  8
0
 10
1048.56
 11
1048.28
 20
1121.22
 21
1121.78
  0
LINE
  8
0
 10
1048.28
 11
1048.18
 20
1121.78
 21
1122.4
  0
LINE
  8
0
 10
1051.65
 11
1051.65
 20
7.55
 21
10.45
  0
LINE
  8
0
 10
1051.65
 11
1051.78
 20
10.45
 21
11.238
  0
LINE
  8
0
 10
1051.78
 11
1052.14
 20
11.238
 21
11.949
  0
LINE
  8
0
 10
1052.14
 11
1052.7
 20
11.949
 21
12.513
  0
LINE
  8
0
 10
1052.7
 11
1053.41
 20
12.513
 21
12.875
  0
LINE
  8
0
 10
1053.41
 11
1054.2
 20
12.875
 21
13
  0
LINE
  8
0
 10
1054.2
 11
1054.99
 20
13
 21
12.875
  0
LINE
  8
0
 10
1054.99
 11
1055.7
 20
12.875
 21
12.513
  0
LINE
  8
0
 10
1055.7
 11
1056.26
 20
12.513
 21
11.949
  0
LINE
  8
0
 10
1056.26
 11
1056.62
 20
11.949
 21
11.238
  0
LINE
  8
0
 10
1056.62
 11
1056.75
 20
11.238
 21
10.45
  0
LINE
  8
0
 10
1056.75
 11
1056.75
 20
10.45
 21
7.55
  0
LINE
  8
0
 10
1056.75
 11
1056.62
 20
7.55
 21
6.762
  0
LINE
  8
0
 10
1056.62
 11
1056.26
 20
6.762
 21
6.051
  0
LINE
  8
0
 10
1056.26
 11
1055.7
 20
6.051
 21
5.487
  0
LINE
  8
0
 10
1055.7
 11
1054.99
 20
5.487
 21
5.125
  0
LINE
  8
0
 10
1054.99
 11
1054.2
 20
5.125
 21
5
  0
LINE
  8
0
 10
1054.2
 11
1053.41
 20
5
 21
5.125
  0
LINE
  8
0
 10
1053.41
 11
1052.7
 20
5.125
 21
5.487
  0
LINE
  8
0
 10
1052.7
 11
1052.14
 20
5.487
 21
6.051
  0
LINE
  8
0
 10
1052.14
 11
1051.78
 20
6.051
 21
6.762
  0
LINE
  8
0
 10
1051.78
 11
1051.65
 20
6.762
 21
7.55
  0
LINE
  8
0
 10
1051.65
 11
1051.65
 20
923.55
 21
926.45
  0
LINE
  8
0
 10
1051.65
 11
1051.78
 20
926.45
 21
927.238
  0
LINE
  8
0
 10
1051.78
 11
1052.14
 20
927.238
 21
927.949
  0
LINE
  8
0
 10
1052.14
 11
1052.7
 20
927.949
 21
928.513
  0
LINE
  8
0
 10
1052.7
 11
1053.41
 20
928.513
 21
928.875
  0
LINE
  8
0
 10
1053.41
 11
1054.2
 20
928.875
 21
929
  0
LINE
  8
0
 10
1054.2
 11
1054.99
 20
929
 21
928.875
  0
LINE
  8
0
 10
1054.99
 11
1055.7
 20
928.875
 21
928.513
  0
LINE
  8
0
 10
1055.7
 11
1056.26
 20
928.513
 21
927.949
  0
LINE
  8
0
 10
1056.26
 11
1056.62
 20
927.949
 21
927.238
  0
LINE
  8
0
 10
1056.62
 11
1056.75
 20
927.238
 21
926.45
  0
LINE
  8
0
 10
1056.75
 11
1056.75
 20
926.45
 21
923.55
  0
LINE
  8
0
 10
1056.75
 11
1056.62
 20
923.55
 21
922.762
  0
LINE
  8
0
 10
1056.62
 11
1056.26
 20
922.762
 21
922.051
  0
LINE
  8
0
 10
1056.26
 11
1055.7
 20
922.051
 21
921.487
  0
LINE
  8
0
 10
1055.7
 11
1054.99
 20
921.487
 21
921.125
  0
LINE
  8
0
 10
1054.99
 11
1054.2
 20
921.125
 21
921
  0
LINE
  8
0
 10
1054.2
 11
1053.41
 20
921
 21
921.125
  0
LINE
  8
0
 10
1053.41
 11
1052.7
 20
921.125
 21
921.487
  0
LINE
  8
0
 10
1052.7
 11
1052.14
 20
921.487
 21
922.051
  0
LINE
  8
0
 10
1052.14
 11
1051.78
 20
922.051
 21
922.762
  0
LINE
  8
0
 10
1051.78
 11
1051.65
 20
922.762
 21
923.55
  0
LINE
  8
0
 10
1051.68
 11
1051.68
 20
1259.32
 21
1262.28
  0
LINE
  8
0
 10
1051.68
 11
1051.8
 20
1262.28
 21
1263.06
  0
LINE
  8
0
 10
1051.8
 11
1052.16
 20
1263.06
 21
1263.76
  0
LINE
  8
0
 10
1052.16
 11
1052.72
 20
1263.76
 21
1264.32
  0
LINE
  8
0
 10
1052.72
 11
1053.42
 20
1264.32
 21
1264.68
  0
LINE
  8
0
 10
1053.42
 11
1054.2
 20
1264.68
 21
1264.8
  0
LINE
  8
0
 10
1054.2
 11
1054.98
 20
1264.8
 21
1264.68
  0
LINE
  8
0
 10
1054.98
 11
1055.68
 20
1264.68
 21
1264.32
  0
LINE
  8
0
 10
1055.68
 11
1056.24
 20
1264.32
 21
1263.76
  0
LINE
  8
0
 10
1056.24
 11
1056.6
 20
1263.76
 21
1263.06
  0
LINE
  8
0
 10
1056.6
 11
1056.72
 20
1263.06
 21
1262.28
  0
LINE
  8
0
 10
1056.72
 11
1056.72
 20
1262.28
 21
1259.32
  0
LINE
  8
0
 10
1056.72
 11
1056.6
 20
1259.32
 21
1258.54
  0
LINE
  8
0
 10
1056.6
 11
1056.24
 20
1258.54
 21
1257.84
  0
LINE
  8
0
 10
1056.24
 11
1055.68
 20
1257.84
 21
1257.28
  0
LINE
  8
0
 10
1055.68
 11
1054.98
 20
1257.28
 21
1256.92
  0
LINE
  8
0
 10
1054.98
 11
1054.2
 20
1256.92
 21
1256.8
  0
LINE
  8
0
 10
1054.2
 11
1053.42
 20
1256.8
 21
1256.92
  0
LINE
  8
0
 10
1053.42
 11
1052.72
 20
1256.92
 21
1257.28
  0
LINE
  8
0
 10
1052.72
 11
1052.16
 20
1257.28
 21
1257.84
  0
LINE
  8
0
 10
1052.16
 11
1051.8
 20
1257.84
 21
1258.54
  0
LINE
  8
0
 10
1051.8
 11
1051.68
 20
1258.54
 21
1259.32
  0
LINE
  8
0
 10
1051.68
 11
1051.68
 20
1508.32
 21
1511.28
  0
LINE
  8
0
 10
1051.68
 11
1051.8
 20
1511.28
 21
1512.06
  0
LINE
  8
0
 10
1051.8
 11
1052.16
 20
1512.06
 21
1512.76
  0
LINE
  8
0
 10
1052.16
 11
1052.72
 20
1512.76
 21
1513.32
  0
LINE
  8
0
 10
1052.72
 11
1053.42
 20
1513.32
 21
1513.68
  0
LINE
  8
0
 10
1053.42
 11
1054.2
 20
1513.68
 21
1513.8
  0
LINE
  8
0
 10
1054.2
 11
1054.98
 20
1513.8
 21
1513.68
  0
LINE
  8
0
 10
1054.98
 11
1055.68
 20
1513.68
 21
1513.32
  0
LINE
  8
0
 10
1055.68
 11
1056.24
 20
1513.32
 21
1512.76
  0
LINE
  8
0
 10
1056.24
 11
1056.6
 20
1512.76
 21
1512.06
  0
LINE
  8
0
 10
1056.6
 11
1056.72
 20
1512.06
 21
1511.28
  0
LINE
  8
0
 10
1056.72
 11
1056.72
 20
1511.28
 21
1508.32
  0
LINE
  8
0
 10
1056.72
 11
1056.6
 20
1508.32
 21
1507.54
  0
LINE
  8
0
 10
1056.6
 11
1056.24
 20
1507.54
 21
1506.84
  0
LINE
  8
0
 10
1056.24
 11
1055.68
 20
1506.84
 21
1506.28
  0
LINE
  8
0
 10
1055.68
 11
1054.98
 20
1506.28
 21
1505.92
  0
LINE
  8
0
 10
1054.98
 11
1054.2
 20
1505.92
 21
1505.8
  0
LINE
  8
0
 10
1054.2
 11
1053.42
 20
1505.8
 21
1505.92
  0
LINE
  8
0
 10
1053.42
 11
1052.72
 20
1505.92
 21
1506.28
  0
LINE
  8
0
 10
1052.72
 11
1052.16
 20
1506.28
 21
1506.84
  0
LINE
  8
0
 10
1052.16
 11
1051.8
 20
1506.84
 21
1507.54
  0
LINE
  8
0
 10
1051.8
 11
1051.68
 20
1507.54
 21
1508.32
  0
LINE
  8
0
 10
1051.7
 11
1051.7
 20
968.301
 21
968.499
  0
LINE
  8
0
 10
1051.7
 11
1051.72
 20
968.499
 21
968.698
  0
LINE
  8
0
 10
1051.72
 11
1051.75
 20
968.698
 21
968.894
  0
LINE
  8
0
 10
1051.75
 11
1051.8
 20
968.894
 21
969.087
  0
LINE
  8
0
 10
1051.8
 11
1051.86
 20
969.087
 21
969.276
  0
LINE
  8
0
 10
1051.86
 11
1051.93
 20
969.276
 21
969.459
  0
LINE
  8
0
 10
1051.93
 11
1052.03
 20
969.459
 21
969.636
  0
LINE
  8
0
 10
1052.03
 11
1052.13
 20
969.636
 21
969.804
  0
LINE
  8
0
 10
1052.13
 11
1052.25
 20
969.804
 21
969.964
  0
LINE
  8
0
 10
1052.25
 11
1052.38
 20
969.964
 21
970.114
  0
LINE
  8
0
 10
1052.38
 11
1052.52
 20
970.114
 21
970.253
  0
LINE
  8
0
 10
1052.52
 11
1052.67
 20
970.253
 21
970.381
  0
LINE
  8
0
 10
1052.67
 11
1052.84
 20
970.381
 21
970.496
  0
LINE
  8
0
 10
1052.84
 11
1053.01
 20
970.496
 21
970.597
  0
LINE
  8
0
 10
1053.01
 11
1053.19
 20
970.597
 21
970.685
  0
LINE
  8
0
 10
1053.19
 11
1053.37
 20
970.685
 21
970.759
  0
LINE
  8
0
 10
1053.37
 11
1053.56
 20
970.759
 21
970.817
  0
LINE
  8
0
 10
1053.56
 11
1053.76
 20
970.817
 21
970.86
  0
LINE
  8
0
 10
1053.76
 11
1053.95
 20
970.86
 21
970.888
  0
LINE
  8
0
 10
1053.95
 11
1054.15
 20
970.888
 21
970.9
  0
LINE
  8
0
 10
1054.15
 11
1054.35
 20
970.9
 21
970.896
  0
LINE
  8
0
 10
1054.35
 11
1054.55
 20
970.896
 21
970.876
  0
LINE
  8
0
 10
1054.55
 11
1054.74
 20
970.876
 21
970.84
  0
LINE
  8
0
 10
1054.74
 11
1054.93
 20
970.84
 21
970.79
  0
LINE
  8
0
 10
1054.93
 11
1055.12
 20
970.79
 21
970.724
  0
LINE
  8
0
 10
1055.12
 11
1055.3
 20
970.724
 21
970.643
  0
LINE
  8
0
 10
1055.3
 11
1055.48
 20
970.643
 21
970.548
  0
LINE
  8
0
 10
1055.48
 11
1055.64
 20
970.548
 21
970.44
  0
LINE
  8
0
 10
1055.64
 11
1055.8
 20
970.44
 21
970.319
  0
LINE
  8
0
 10
1055.8
 11
1055.95
 20
970.319
 21
970.185
  0
LINE
  8
0
 10
1055.95
 11
1056.09
 20
970.185
 21
970.041
  0
LINE
  8
0
 10
1056.09
 11
1056.21
 20
970.041
 21
969.886
  0
LINE
  8
0
 10
1056.21
 11
1056.32
 20
969.886
 21
969.721
  0
LINE
  8
0
 10
1056.32
 11
1056.42
 20
969.721
 21
969.548
  0
LINE
  8
0
 10
1056.42
 11
1056.51
 20
969.548
 21
969.368
  0
LINE
  8
0
 10
1056.51
 11
1056.58
 20
969.368
 21
969.182
  0
LINE
  8
0
 10
1056.58
 11
1056.63
 20
969.182
 21
968.991
  0
LINE
  8
0
 10
1056.63
 11
1056.67
 20
968.991
 21
968.796
  0
LINE
  8
0
 10
1056.67
 11
1056.69
 20
968.796
 21
968.599
  0
LINE
  8
0
 10
1056.69
 11
1056.7
 20
968.599
 21
968.4
  0
LINE
  8
0
 10
1056.7
 11
1056.69
 20
968.4
 21
968.201
  0
LINE
  8
0
 10
1056.69
 11
1056.67
 20
968.201
 21
968.004
  0
LINE
  8
0
 10
1056.67
 11
1056.63
 20
968.004
 21
967.809
  0
LINE
  8
0
 10
1056.63
 11
1056.58
 20
967.809
 21
967.618
  0
LINE
  8
0
 10
1056.58
 11
1056.51
 20
967.618
 21
967.432
  0
LINE
  8
0
 10
1056.51
 11
1056.42
 20
967.432
 21
967.252
  0
LINE
  8
0
 10
1056.42
 11
1056.32
 20
967.252
 21
967.079
  0
LINE
  8
0
 10
1056.32
 11
1056.21
 20
967.079
 21
966.914
  0
LINE
  8
0
 10
1056.21
 11
1056.09
 20
966.914
 21
966.759
  0
LINE
  8
0
 10
1056.09
 11
1055.95
 20
966.759
 21
966.615
  0
LINE
  8
0
 10
1055.95
 11
1055.8
 20
966.615
 21
966.481
  0
LINE
  8
0
 10
1055.8
 11
1055.64
 20
966.481
 21
966.36
  0
LINE
  8
0
 10
1055.64
 11
1055.48
 20
966.36
 21
966.252
  0
LINE
  8
0
 10
1055.48
 11
1055.3
 20
966.252
 21
966.157
  0
LINE
  8
0
 10
1055.3
 11
1055.12
 20
966.157
 21
966.076
  0
LINE
  8
0
 10
1055.12
 11
1054.93
 20
966.076
 21
966.01
  0
LINE
  8
0
 10
1054.93
 11
1054.74
 20
966.01
 21
965.96
  0
LINE
  8
0
 10
1054.74
 11
1054.55
 20
965.96
 21
965.924
  0
LINE
  8
0
 10
1054.55
 11
1054.35
 20
965.924
 21
965.904
  0
LINE
  8
0
 10
1054.35
 11
1054.15
 20
965.904
 21
965.9
  0
LINE
  8
0
 10
1054.15
 11
1053.95
 20
965.9
 21
965.912
  0
LINE
  8
0
 10
1053.95
 11
1053.76
 20
965.912
 21
965.94
  0
LINE
  8
0
 10
1053.76
 11
1053.56
 20
965.94
 21
965.983
  0
LINE
  8
0
 10
1053.56
 11
1053.37
 20
965.983
 21
966.041
  0
LINE
  8
0
 10
1053.37
 11
1053.19
 20
966.041
 21
966.115
  0
LINE
  8
0
 10
1053.19
 11
1053.01
 20
966.115
 21
966.203
  0
LINE
  8
0
 10
1053.01
 11
1052.84
 20
966.203
 21
966.304
  0
LINE
  8
0
 10
1052.84
 11
1052.67
 20
966.304
 21
966.419
  0
LINE
  8
0
 10
1052.67
 11
1052.52
 20
966.419
 21
966.547
  0
LINE
  8
0
 10
1052.52
 11
1052.38
 20
966.547
 21
966.686
  0
LINE
  8
0
 10
1052.38
 11
1052.25
 20
966.686
 21
966.836
  0
LINE
  8
0
 10
1052.25
 11
1052.13
 20
966.836
 21
966.996
  0
LINE
  8
0
 10
1052.13
 11
1052.03
 20
966.996
 21
967.164
  0
LINE
  8
0
 10
1052.03
 11
1051.93
 20
967.164
 21
967.341
  0
LINE
  8
0
 10
1051.93
 11
1051.86
 20
967.341
 21
967.524
  0
LINE
  8
0
 10
1051.86
 11
1051.8
 20
967.524
 21
967.713
  0
LINE
  8
0
 10
1051.8
 11
1051.75
 20
967.713
 21
967.906
  0
LINE
  8
0
 10
1051.75
 11
1051.72
 20
967.906
 21
968.102
  0
LINE
  8
0
 10
1051.72
 11
1051.7
 20
968.102
 21
968.301
  0
LINE
  8
0
 10
1051.7
 11
1051.7
 20
1197.3
 21
1197.5
  0
LINE
  8
0
 10
1051.7
 11
1051.72
 20
1197.5
 21
1197.7
  0
LINE
  8
0
 10
1051.72
 11
1051.75
 20
1197.7
 21
1197.89
  0
LINE
  8
0
 10
1051.75
 11
1051.8
 20
1197.89
 21
1198.09
  0
LINE
  8
0
 10
1051.8
 11
1051.86
 20
1198.09
 21
1198.28
  0
LINE
  8
0
 10
1051.86
 11
1051.93
 20
1198.28
 21
1198.46
  0
LINE
  8
0
 10
1051.93
 11
1052.03
 20
1198.46
 21
1198.64
  0
LINE
  8
0
 10
1052.03
 11
1052.13
 20
1198.64
 21
1198.8
  0
LINE
  8
0
 10
1052.13
 11
1052.25
 20
1198.8
 21
1198.96
  0
LINE
  8
0
 10
1052.25
 11
1052.38
 20
1198.96
 21
1199.11
  0
LINE
  8
0
 10
1052.38
 11
1052.52
 20
1199.11
 21
1199.25
  0
LINE
  8
0
 10
1052.52
 11
1052.67
 20
1199.25
 21
1199.38
  0
LINE
  8
0
 10
1052.67
 11
1052.84
 20
1199.38
 21
1199.5
  0
LINE
  8
0
 10
1052.84
 11
1053.01
 20
1199.5
 21
1199.6
  0
LINE
  8
0
 10
1053.01
 11
1053.19
 20
1199.6
 21
1199.68
  0
LINE
  8
0
 10
1053.19
 11
1053.37
 20
1199.68
 21
1199.76
  0
LINE
  8
0
 10
1053.37
 11
1053.56
 20
1199.76
 21
1199.82
  0
LINE
  8
0
 10
1053.56
 11
1053.76
 20
1199.82
 21
1199.86
  0
LINE
  8
0
 10
1053.76
 11
1053.95
 20
1199.86
 21
1199.89
  0
LINE
  8
0
 10
1053.95
 11
1054.15
 20
1199.89
 21
1199.9
  0
LINE
  8
0
 10
1054.15
 11
1054.35
 20
1199.9
 21
1199.9
  0
LINE
  8
0
 10
1054.35
 11
1054.55
 20
1199.9
 21
1199.88
  0
LINE
  8
0
 10
1054.55
 11
1054.74
 20
1199.88
 21
1199.84
  0
LINE
  8
0
 10
1054.74
 11
1054.93
 20
1199.84
 21
1199.79
  0
LINE
  8
0
 10
1054.93
 11
1055.12
 20
1199.79
 21
1199.72
  0
LINE
  8
0
 10
1055.12
 11
1055.3
 20
1199.72
 21
1199.64
  0
LINE
  8
0
 10
1055.3
 11
1055.48
 20
1199.64
 21
1199.55
  0
LINE
  8
0
 10
1055.48
 11
1055.64
 20
1199.55
 21
1199.44
  0
LINE
  8
0
 10
1055.64
 11
1055.8
 20
1199.44
 21
1199.32
  0
LINE
  8
0
 10
1055.8
 11
1055.95
 20
1199.32
 21
1199.18
  0
LINE
  8
0
 10
1055.95
 11
1056.09
 20
1199.18
 21
1199.04
  0
LINE
  8
0
 10
1056.09
 11
1056.21
 20
1199.04
 21
1198.89
  0
LINE
  8
0
 10
1056.21
 11
1056.32
 20
1198.89
 21
1198.72
  0
LINE
  8
0
 10
1056.32
 11
1056.42
 20
1198.72
 21
1198.55
  0
LINE
  8
0
 10
1056.42
 11
1056.51
 20
1198.55
 21
1198.37
  0
LINE
  8
0
 10
1056.51
 11
1056.58
 20
1198.37
 21
1198.18
  0
LINE
  8
0
 10
1056.58
 11
1056.63
 20
1198.18
 21
1197.99
  0
LINE
  8
0
 10
1056.63
 11
1056.67
 20
1197.99
 21
1197.8
  0
LINE
  8
0
 10
1056.67
 11
1056.69
 20
1197.8
 21
1197.6
  0
LINE
  8
0
 10
1056.69
 11
1056.7
 20
1197.6
 21
1197.4
  0
LINE
  8
0
 10
1056.7
 11
1056.69
 20
1197.4
 21
1197.2
  0
LINE
  8
0
 10
1056.69
 11
1056.67
 20
1197.2
 21
1197
  0
LINE
  8
0
 10
1056.67
 11
1056.63
 20
1197
 21
1196.81
  0
LINE
  8
0
 10
1056.63
 11
1056.58
 20
1196.81
 21
1196.62
  0
LINE
  8
0
 10
1056.58
 11
1056.51
 20
1196.62
 21
1196.43
  0
LINE
  8
0
 10
1056.51
 11
1056.42
 20
1196.43
 21
1196.25
  0
LINE
  8
0
 10
1056.42
 11
1056.32
 20
1196.25
 21
1196.08
  0
LINE
  8
0
 10
1056.32
 11
1056.21
 20
1196.08
 21
1195.91
  0
LINE
  8
0
 10
1056.21
 11
1056.09
 20
1195.91
 21
1195.76
  0
LINE
  8
0
 10
1056.09
 11
1055.95
 20
1195.76
 21
1195.62
  0
LINE
  8
0
 10
1055.95
 11
1055.8
 20
1195.62
 21
1195.48
  0
LINE
  8
0
 10
1055.8
 11
1055.64
 20
1195.48
 21
1195.36
  0
LINE
  8
0
 10
1055.64
 11
1055.48
 20
1195.36
 21
1195.25
  0
LINE
  8
0
 10
1055.48
 11
1055.3
 20
1195.25
 21
1195.16
  0
LINE
  8
0
 10
1055.3
 11
1055.12
 20
1195.16
 21
1195.08
  0
LINE
  8
0
 10
1055.12
 11
1054.93
 20
1195.08
 21
1195.01
  0
LINE
  8
0
 10
1054.93
 11
1054.74
 20
1195.01
 21
1194.96
  0
LINE
  8
0
 10
1054.74
 11
1054.55
 20
1194.96
 21
1194.92
  0
LINE
  8
0
 10
1054.55
 11
1054.35
 20
1194.92
 21
1194.9
  0
LINE
  8
0
 10
1054.35
 11
1054.15
 20
1194.9
 21
1194.9
  0
LINE
  8
0
 10
1054.15
 11
1053.95
 20
1194.9
 21
1194.91
  0
LINE
  8
0
 10
1053.95
 11
1053.76
 20
1194.91
 21
1194.94
  0
LINE
  8
0
 10
1053.76
 11
1053.56
 20
1194.94
 21
1194.98
  0
LINE
  8
0
 10
1053.56
 11
1053.37
 20
1194.98
 21
1195.04
  0
LINE
  8
0
 10
1053.37
 11
1053.19
 20
1195.04
 21
1195.12
  0
LINE
  8
0
 10
1053.19
 11
1053.01
 20
1195.12
 21
1195.2
  0
LINE
  8
0
 10
1053.01
 11
1052.84
 20
1195.2
 21
1195.3
  0
LINE
  8
0
 10
1052.84
 11
1052.67
 20
1195.3
 21
1195.42
  0
LINE
  8
0
 10
1052.67
 11
1052.52
 20
1195.42
 21
1195.55
  0
LINE
  8
0
 10
1052.52
 11
1052.38
 20
1195.55
 21
1195.69
  0
LINE
  8
0
 10
1052.38
 11
1052.25
 20
1195.69
 21
1195.84
  0
LINE
  8
0
 10
1052.25
 11
1052.13
 20
1195.84
 21
1196
  0
LINE
  8
0
 10
1052.13
 11
1052.03
 20
1196
 21
1196.16
  0
LINE
  8
0
 10
1052.03
 11
1051.93
 20
1196.16
 21
1196.34
  0
LINE
  8
0
 10
1051.93
 11
1051.86
 20
1196.34
 21
1196.52
  0
LINE
  8
0
 10
1051.86
 11
1051.8
 20
1196.52
 21
1196.71
  0
LINE
  8
0
 10
1051.8
 11
1051.75
 20
1196.71
 21
1196.91
  0
LINE
  8
0
 10
1051.75
 11
1051.72
 20
1196.91
 21
1197.1
  0
LINE
  8
0
 10
1051.72
 11
1051.7
 20
1197.1
 21
1197.3
  0
LINE
  8
0
 10
1078.43
 11
1078.43
 20
1122.4
 21
1178.4
  0
LINE
  8
0
 10
1078.43
 11
1078.53
 20
1178.4
 21
1179.02
  0
LINE
  8
0
 10
1078.53
 11
1078.81
 20
1179.02
 21
1179.58
  0
LINE
  8
0
 10
1078.81
 11
1079.25
 20
1179.58
 21
1180.02
  0
LINE
  8
0
 10
1079.25
 11
1079.81
 20
1180.02
 21
1180.3
  0
LINE
  8
0
 10
1079.81
 11
1080.43
 20
1180.3
 21
1180.4
  0
LINE
  8
0
 10
1080.43
 11
1081.05
 20
1180.4
 21
1180.3
  0
LINE
  8
0
 10
1081.05
 11
1081.61
 20
1180.3
 21
1180.02
  0
LINE
  8
0
 10
1081.61
 11
1082.05
 20
1180.02
 21
1179.58
  0
LINE
  8
0
 10
1082.05
 11
1082.33
 20
1179.58
 21
1179.02
  0
LINE
  8
0
 10
1082.33
 11
1082.43
 20
1179.02
 21
1178.4
  0
LINE
  8
0
 10
1082.43
 11
1082.43
 20
1178.4
 21
1122.4
  0
LINE
  8
0
 10
1082.43
 11
1082.33
 20
1122.4
 21
1121.78
  0
LINE
  8
0
 10
1082.33
 11
1082.05
 20
1121.78
 21
1121.22
  0
LINE
  8
0
 10
1082.05
 11
1081.61
 20
1121.22
 21
1120.78
  0
LINE
  8
0
 10
1081.61
 11
1081.05
 20
1120.78
 21
1120.5
  0
LINE
  8
0
 10
1081.05
 11
1080.43
 20
1120.5
 21
1120.4
  0
LINE
  8
0
 10
1080.43
 11
1079.81
 20
1120.4
 21
1120.5
  0
LINE
  8
0
 10
1079.81
 11
1079.25
 20
1120.5
 21
1120.78
  0
LINE
  8
0
 10
1079.25
 11
1078.81
 20
1120.78
 21
1121.22
  0
LINE
  8
0
 10
1078.81
 11
1078.53
 20
1121.22
 21
1121.78
  0
LINE
  8
0
 10
1078.53
 11
1078.43
 20
1121.78
 21
1122.4
  0
LINE
  8
0
 10
1108.68
 11
1108.68
 20
1122.4
 21
1178.4
  0
LINE
  8
0
 10
1108.68
 11
1108.78
 20
1178.4
 21
1179.02
  0
LINE
  8
0
 10
1108.78
 11
1109.06
 20
1179.02
 21
1179.58
  0
LINE
  8
0
 10
1109.06
 11
1109.5
 20
1179.58
 21
1180.02
  0
LINE
  8
0
 10
1109.5
 11
1110.06
 20
1180.02
 21
1180.3
  0
LINE
  8
0
 10
1110.06
 11
1110.68
 20
1180.3
 21
1180.4
  0
LINE
  8
0
 10
1110.68
 11
1111.3
 20
1180.4
 21
1180.3
  0
LINE
  8
0
 10
1111.3
 11
1111.85
 20
1180.3
 21
1180.02
  0
LINE
  8
0
 10
1111.85
 11
1112.3
 20
1180.02
 21
1179.58
  0
LINE
  8
0
 10
1112.3
 11
1112.58
 20
1179.58
 21
1179.02
  0
LINE
  8
0
 10
1112.58
 11
1112.68
 20
1179.02
 21
1178.4
  0
LINE
  8
0
 10
1112.68
 11
1112.68
 20
1178.4
 21
1122.4
  0
LINE
  8
0
 10
1112.68
 11
1112.58
 20
1122.4
 21
1121.78
  0
LINE
  8
0
 10
1112.58
 11
1112.3
 20
1121.78
 21
1121.22
  0
LINE
  8
0
 10
1112.3
 11
1111.85
 20
1121.22
 21
1120.78
  0
LINE
  8
0
 10
1111.85
 11
1111.3
 20
1120.78
 21
1120.5
  0
LINE
  8
0
 10
1111.3
 11
1110.68
 20
1120.5
 21
1120.4
  0
LINE
  8
0
 10
1110.68
 11
1110.06
 20
1120.4
 21
1120.5
  0
LINE
  8
0
 10
1110.06
 11
1109.5
 20
1120.5
 21
1120.78
  0
LINE
  8
0
 10
1109.5
 11
1109.06
 20
1120.78
 21
1121.22
  0
LINE
  8
0
 10
1109.06
 11
1108.78
 20
1121.22
 21
1121.78
  0
LINE
  8
0
 10
1108.78
 11
1108.68
 20
1121.78
 21
1122.4
  0
LINE
  8
0
 10
1111.1
 11
1111.1
 20
2137.9
 21
2138.1
  0
LINE
  8
0
 10
1111.1
 11
1111.12
 20
2138.1
 21
2138.3
  0
LINE
  8
0
 10
1111.12
 11
1111.15
 20
2138.3
 21
2138.49
  0
LINE
  8
0
 10
1111.15
 11
1111.2
 20
2138.49
 21
2138.69
  0
LINE
  8
0
 10
1111.2
 11
1111.26
 20
2138.69
 21
2138.88
  0
LINE
  8
0
 10
1111.26
 11
1111.34
 20
2138.88
 21
2139.06
  0
LINE
  8
0
 10
1111.34
 11
1111.43
 20
2139.06
 21
2139.24
  0
LINE
  8
0
 10
1111.43
 11
1111.53
 20
2139.24
 21
2139.4
  0
LINE
  8
0
 10
1111.53
 11
1111.65
 20
2139.4
 21
2139.56
  0
LINE
  8
0
 10
1111.65
 11
1111.78
 20
2139.56
 21
2139.71
  0
LINE
  8
0
 10
1111.78
 11
1111.92
 20
2139.71
 21
2139.85
  0
LINE
  8
0
 10
1111.92
 11
1112.08
 20
2139.85
 21
2139.98
  0
LINE
  8
0
 10
1112.08
 11
1112.24
 20
2139.98
 21
2140.1
  0
LINE
  8
0
 10
1112.24
 11
1112.41
 20
2140.1
 21
2140.2
  0
LINE
  8
0
 10
1112.41
 11
1112.59
 20
2140.2
 21
2140.28
  0
LINE
  8
0
 10
1112.59
 11
1112.77
 20
2140.28
 21
2140.36
  0
LINE
  8
0
 10
1112.77
 11
1112.96
 20
2140.36
 21
2140.42
  0
LINE
  8
0
 10
1112.96
 11
1113.15
 20
2140.42
 21
2140.46
  0
LINE
  8
0
 10
1113.15
 11
1113.35
 20
2140.46
 21
2140.49
  0
LINE
  8
0
 10
1113.35
 11
1113.55
 20
2140.49
 21
2140.5
  0
LINE
  8
0
 10
1113.55
 11
1113.75
 20
2140.5
 21
2140.5
  0
LINE
  8
0
 10
1113.75
 11
1113.95
 20
2140.5
 21
2140.48
  0
LINE
  8
0
 10
1113.95
 11
1114.14
 20
2140.48
 21
2140.44
  0
LINE
  8
0
 10
1114.14
 11
1114.34
 20
2140.44
 21
2140.39
  0
LINE
  8
0
 10
1114.34
 11
1114.52
 20
2140.39
 21
2140.32
  0
LINE
  8
0
 10
1114.52
 11
1114.7
 20
2140.32
 21
2140.24
  0
LINE
  8
0
 10
1114.7
 11
1114.88
 20
2140.24
 21
2140.15
  0
LINE
  8
0
 10
1114.88
 11
1115.05
 20
2140.15
 21
2140.04
  0
LINE
  8
0
 10
1115.05
 11
1115.2
 20
2140.04
 21
2139.92
  0
LINE
  8
0
 10
1115.2
 11
1115.35
 20
2139.92
 21
2139.78
  0
LINE
  8
0
 10
1115.35
 11
1115.49
 20
2139.78
 21
2139.64
  0
LINE
  8
0
 10
1115.49
 11
1115.61
 20
2139.64
 21
2139.49
  0
LINE
  8
0
 10
1115.61
 11
1115.72
 20
2139.49
 21
2139.32
  0
LINE
  8
0
 10
1115.72
 11
1115.82
 20
2139.32
 21
2139.15
  0
LINE
  8
0
 10
1115.82
 11
1115.9
 20
2139.15
 21
2138.97
  0
LINE
  8
0
 10
1115.9
 11
1115.98
 20
2138.97
 21
2138.78
  0
LINE
  8
0
 10
1115.98
 11
1116.03
 20
2138.78
 21
2138.59
  0
LINE
  8
0
 10
1116.03
 11
1116.07
 20
2138.59
 21
2138.4
  0
LINE
  8
0
 10
1116.07
 11
1116.09
 20
2138.4
 21
2138.2
  0
LINE
  8
0
 10
1116.09
 11
1116.1
 20
2138.2
 21
2138
  0
LINE
  8
0
 10
1116.1
 11
1116.09
 20
2138
 21
2137.8
  0
LINE
  8
0
 10
1116.09
 11
1116.07
 20
2137.8
 21
2137.6
  0
LINE
  8
0
 10
1116.07
 11
1116.03
 20
2137.6
 21
2137.41
  0
LINE
  8
0
 10
1116.03
 11
1115.98
 20
2137.41
 21
2137.22
  0
LINE
  8
0
 10
1115.98
 11
1115.9
 20
2137.22
 21
2137.03
  0
LINE
  8
0
 10
1115.9
 11
1115.82
 20
2137.03
 21
2136.85
  0
LINE
  8
0
 10
1115.82
 11
1115.72
 20
2136.85
 21
2136.68
  0
LINE
  8
0
 10
1115.72
 11
1115.61
 20
2136.68
 21
2136.51
  0
LINE
  8
0
 10
1115.61
 11
1115.49
 20
2136.51
 21
2136.36
  0
LINE
  8
0
 10
1115.49
 11
1115.35
 20
2136.36
 21
2136.22
  0
LINE
  8
0
 10
1115.35
 11
1115.2
 20
2136.22
 21
2136.08
  0
LINE
  8
0
 10
1115.2
 11
1115.05
 20
2136.08
 21
2135.96
  0
LINE
  8
0
 10
1115.05
 11
1114.88
 20
2135.96
 21
2135.85
  0
LINE
  8
0
 10
1114.88
 11
1114.7
 20
2135.85
 21
2135.76
  0
LINE
  8
0
 10
1114.7
 11
1114.52
 20
2135.76
 21
2135.68
  0
LINE
  8
0
 10
1114.52
 11
1114.34
 20
2135.68
 21
2135.61
  0
LINE
  8
0
 10
1114.34
 11
1114.14
 20
2135.61
 21
2135.56
  0
LINE
  8
0
 10
1114.14
 11
1113.95
 20
2135.56
 21
2135.52
  0
LINE
  8
0
 10
1113.95
 11
1113.75
 20
2135.52
 21
2135.5
  0
LINE
  8
0
 10
1113.75
 11
1113.55
 20
2135.5
 21
2135.5
  0
LINE
  8
0
 10
1113.55
 11
1113.35
 20
2135.5
 21
2135.51
  0
LINE
  8
0
 10
1113.35
 11
1113.15
 20
2135.51
 21
2135.54
  0
LINE
  8
0
 10
1113.15
 11
1112.96
 20
2135.54
 21
2135.58
  0
LINE
  8
0
 10
1112.96
 11
1112.77
 20
2135.58
 21
2135.64
  0
LINE
  8
0
 10
1112.77
 11
1112.59
 20
2135.64
 21
2135.72
  0
LINE
  8
0
 10
1112.59
 11
1112.41
 20
2135.72
 21
2135.8
  0
LINE
  8
0
 10
1112.41
 11
1112.24
 20
2135.8
 21
2135.9
  0
LINE
  8
0
 10
1112.24
 11
1112.08
 20
2135.9
 21
2136.02
  0
LINE
  8
0
 10
1112.08
 11
1111.92
 20
2136.02
 21
2136.15
  0
LINE
  8
0
 10
1111.92
 11
1111.78
 20
2136.15
 21
2136.29
  0
LINE
  8
0
 10
1111.78
 11
1111.65
 20
2136.29
 21
2136.44
  0
LINE
  8
0
 10
1111.65
 11
1111.53
 20
2136.44
 21
2136.6
  0
LINE
  8
0
 10
1111.53
 11
1111.43
 20
2136.6
 21
2136.76
  0
LINE
  8
0
 10
1111.43
 11
1111.34
 20
2136.76
 21
2136.94
  0
LINE
  8
0
 10
1111.34
 11
1111.26
 20
2136.94
 21
2137.12
  0
LINE
  8
0
 10
1111.26
 11
1111.2
 20
2137.12
 21
2137.31
  0
LINE
  8
0
 10
1111.2
 11
1111.15
 20
2137.31
 21
2137.51
  0
LINE
  8
0
 10
1111.15
 11
1111.12
 20
2137.51
 21
2137.7
  0
LINE
  8
0
 10
1111.12
 11
1111.1
 20
2137.7
 21
2137.9
  0
LINE
  8
0
 10
1111.1
 11
1111.1
 20
2237.9
 21
2238.1
  0
LINE
  8
0
 10
1111.1
 11
1111.12
 20
2238.1
 21
2238.3
  0
LINE
  8
0
 10
1111.12
 11
1111.15
 20
2238.3
 21
2238.49
  0
LINE
  8
0
 10
1111.15
 11
1111.2
 20
2238.49
 21
2238.69
  0
LINE
  8
0
 10
1111.2
 11
1111.26
 20
2238.69
 21
2238.88
  0
LINE
  8
0
 10
1111.26
 11
1111.34
 20
2238.88
 21
2239.06
  0
LINE
  8
0
 10
1111.34
 11
1111.43
 20
2239.06
 21
2239.24
  0
LINE
  8
0
 10
1111.43
 11
1111.53
 20
2239.24
 21
2239.4
  0
LINE
  8
0
 10
1111.53
 11
1111.65
 20
2239.4
 21
2239.56
  0
LINE
  8
0
 10
1111.65
 11
1111.78
 20
2239.56
 21
2239.71
  0
LINE
  8
0
 10
1111.78
 11
1111.92
 20
2239.71
 21
2239.85
  0
LINE
  8
0
 10
1111.92
 11
1112.08
 20
2239.85
 21
2239.98
  0
LINE
  8
0
 10
1112.08
 11
1112.24
 20
2239.98
 21
2240.1
  0
LINE
  8
0
 10
1112.24
 11
1112.41
 20
2240.1
 21
2240.2
  0
LINE
  8
0
 10
1112.41
 11
1112.59
 20
2240.2
 21
2240.28
  0
LINE
  8
0
 10
1112.59
 11
1112.77
 20
2240.28
 21
2240.36
  0
LINE
  8
0
 10
1112.77
 11
1112.96
 20
2240.36
 21
2240.42
  0
LINE
  8
0
 10
1112.96
 11
1113.15
 20
2240.42
 21
2240.46
  0
LINE
  8
0
 10
1113.15
 11
1113.35
 20
2240.46
 21
2240.49
  0
LINE
  8
0
 10
1113.35
 11
1113.55
 20
2240.49
 21
2240.5
  0
LINE
  8
0
 10
1113.55
 11
1113.75
 20
2240.5
 21
2240.5
  0
LINE
  8
0
 10
1113.75
 11
1113.95
 20
2240.5
 21
2240.48
  0
LINE
  8
0
 10
1113.95
 11
1114.14
 20
2240.48
 21
2240.44
  0
LINE
  8
0
 10
1114.14
 11
1114.34
 20
2240.44
 21
2240.39
  0
LINE
  8
0
 10
1114.34
 11
1114.52
 20
2240.39
 21
2240.32
  0
LINE
  8
0
 10
1114.52
 11
1114.7
 20
2240.32
 21
2240.24
  0
LINE
  8
0
 10
1114.7
 11
1114.88
 20
2240.24
 21
2240.15
  0
LINE
  8
0
 10
1114.88
 11
1115.05
 20
2240.15
 21
2240.04
  0
LINE
  8
0
 10
1115.05
 11
1115.2
 20
2240.04
 21
2239.92
  0
LINE
  8
0
 10
1115.2
 11
1115.35
 20
2239.92
 21
2239.78
  0
LINE
  8
0
 10
1115.35
 11
1115.49
 20
2239.78
 21
2239.64
  0
LINE
  8
0
 10
1115.49
 11
1115.61
 20
2239.64
 21
2239.49
  0
LINE
  8
0
 10
1115.61
 11
1115.72
 20
2239.49
 21
2239.32
  0
LINE
  8
0
 10
1115.72
 11
1115.82
 20
2239.32
 21
2239.15
  0
LINE
  8
0
 10
1115.82
 11
1115.9
 20
2239.15
 21
2238.97
  0
LINE
  8
0
 10
1115.9
 11
1115.98
 20
2238.97
 21
2238.78
  0
LINE
  8
0
 10
1115.98
 11
1116.03
 20
2238.78
 21
2238.59
  0
LINE
  8
0
 10
1116.03
 11
1116.07
 20
2238.59
 21
2238.4
  0
LINE
  8
0
 10
1116.07
 11
1116.09
 20
2238.4
 21
2238.2
  0
LINE
  8
0
 10
1116.09
 11
1116.1
 20
2238.2
 21
2238
  0
LINE
  8
0
 10
1116.1
 11
1116.09
 20
2238
 21
2237.8
  0
LINE
  8
0
 10
1116.09
 11
1116.07
 20
2237.8
 21
2237.6
  0
LINE
  8
0
 10
1116.07
 11
1116.03
 20
2237.6
 21
2237.41
  0
LINE
  8
0
 10
1116.03
 11
1115.98
 20
2237.41
 21
2237.22
  0
LINE
  8
0
 10
1115.98
 11
1115.9
 20
2237.22
 21
2237.03
  0
LINE
  8
0
 10
1115.9
 11
1115.82
 20
2237.03
 21
2236.85
  0
LINE
  8
0
 10
1115.82
 11
1115.72
 20
2236.85
 21
2236.68
  0
LINE
  8
0
 10
1115.72
 11
1115.61
 20
2236.68
 21
2236.51
  0
LINE
  8
0
 10
1115.61
 11
1115.49
 20
2236.51
 21
2236.36
  0
LINE
  8
0
 10
1115.49
 11
1115.35
 20
2236.36
 21
2236.22
  0
LINE
  8
0
 10
1115.35
 11
1115.2
 20
2236.22
 21
2236.08
  0
LINE
  8
0
 10
1115.2
 11
1115.05
 20
2236.08
 21
2235.96
  0
LINE
  8
0
 10
1115.05
 11
1114.88
 20
2235.96
 21
2235.85
  0
LINE
  8
0
 10
1114.88
 11
1114.7
 20
2235.85
 21
2235.76
  0
LINE
  8
0
 10
1114.7
 11
1114.52
 20
2235.76
 21
2235.68
  0
LINE
  8
0
 10
1114.52
 11
1114.34
 20
2235.68
 21
2235.61
  0
LINE
  8
0
 10
1114.34
 11
1114.14
 20
2235.61
 21
2235.56
  0
LINE
  8
0
 10
1114.14
 11
1113.95
 20
2235.56
 21
2235.52
  0
LINE
  8
0
 10
1113.95
 11
1113.75
 20
2235.52
 21
2235.5
  0
LINE
  8
0
 10
1113.75
 11
1113.55
 20
2235.5
 21
2235.5
  0
LINE
  8
0
 10
1113.55
 11
1113.35
 20
2235.5
 21
2235.51
  0
LINE
  8
0
 10
1113.35
 11
1113.15
 20
2235.51
 21
2235.54
  0
LINE
  8
0
 10
1113.15
 11
1112.96
 20
2235.54
 21
2235.58
  0
LINE
  8
0
 10
1112.96
 11
1112.77
 20
2235.58
 21
2235.64
  0
LINE
  8
0
 10
1112.77
 11
1112.59
 20
2235.64
 21
2235.72
  0
LINE
  8
0
 10
1112.59
 11
1112.41
 20
2235.72
 21
2235.8
  0
LINE
  8
0
 10
1112.41
 11
1112.24
 20
2235.8
 21
2235.9
  0
LINE
  8
0
 10
1112.24
 11
1112.08
 20
2235.9
 21
2236.02
  0
LINE
  8
0
 10
1112.08
 11
1111.92
 20
2236.02
 21
2236.15
  0
LINE
  8
0
 10
1111.92
 11
1111.78
 20
2236.15
 21
2236.29
  0
LINE
  8
0
 10
1111.78
 11
1111.65
 20
2236.29
 21
2236.44
  0
LINE
  8
0
 10
1111.65
 11
1111.53
 20
2236.44
 21
2236.6
  0
LINE
  8
0
 10
1111.53
 11
1111.43
 20
2236.6
 21
2236.76
  0
LINE
  8
0
 10
1111.43
 11
1111.34
 20
2236.76
 21
2236.94
  0
LINE
  8
0
 10
1111.34
 11
1111.26
 20
2236.94
 21
2237.12
  0
LINE
  8
0
 10
1111.26
 11
1111.2
 20
2237.12
 21
2237.31
  0
LINE
  8
0
 10
1111.2
 11
1111.15
 20
2237.31
 21
2237.51
  0
LINE
  8
0
 10
1111.15
 11
1111.12
 20
2237.51
 21
2237.7
  0
LINE
  8
0
 10
1111.12
 11
1111.1
 20
2237.7
 21
2237.9
  0
LINE
  8
0
 10
1138.93
 11
1138.93
 20
1122.4
 21
1178.4
  0
LINE
  8
0
 10
1138.93
 11
1139.02
 20
1178.4
 21
1179.02
  0
LINE
  8
0
 10
1139.02
 11
1139.31
 20
1179.02
 21
1179.58
  0
LINE
  8
0
 10
1139.31
 11
1139.75
 20
1179.58
 21
1180.02
  0
LINE
  8
0
 10
1139.75
 11
1140.31
 20
1180.02
 21
1180.3
  0
LINE
  8
0
 10
1140.31
 11
1140.93
 20
1180.3
 21
1180.4
  0
LINE
  8
0
 10
1140.93
 11
1141.54
 20
1180.4
 21
1180.3
  0
LINE
  8
0
 10
1141.54
 11
1142.1
 20
1180.3
 21
1180.02
  0
LINE
  8
0
 10
1142.1
 11
1142.54
 20
1180.02
 21
1179.58
  0
LINE
  8
0
 10
1142.54
 11
1142.83
 20
1179.58
 21
1179.02
  0
LINE
  8
0
 10
1142.83
 11
1142.93
 20
1179.02
 21
1178.4
  0
LINE
  8
0
 10
1142.93
 11
1142.93
 20
1178.4
 21
1122.4
  0
LINE
  8
0
 10
1142.93
 11
1142.83
 20
1122.4
 21
1121.78
  0
LINE
  8
0
 10
1142.83
 11
1142.54
 20
1121.78
 21
1121.22
  0
LINE
  8
0
 10
1142.54
 11
1142.1
 20
1121.22
 21
1120.78
  0
LINE
  8
0
 10
1142.1
 11
1141.54
 20
1120.78
 21
1120.5
  0
LINE
  8
0
 10
1141.54
 11
1140.93
 20
1120.5
 21
1120.4
  0
LINE
  8
0
 10
1140.93
 11
1140.31
 20
1120.4
 21
1120.5
  0
LINE
  8
0
 10
1140.31
 11
1139.75
 20
1120.5
 21
1120.78
  0
LINE
  8
0
 10
1139.75
 11
1139.31
 20
1120.78
 21
1121.22
  0
LINE
  8
0
 10
1139.31
 11
1139.02
 20
1121.22
 21
1121.78
  0
LINE
  8
0
 10
1139.02
 11
1138.93
 20
1121.78
 21
1122.4
  0
LINE
  8
0
 10
1169.17
 11
1169.17
 20
1122.4
 21
1178.4
  0
LINE
  8
0
 10
1169.17
 11
1169.27
 20
1178.4
 21
1179.02
  0
LINE
  8
0
 10
1169.27
 11
1169.56
 20
1179.02
 21
1179.58
  0
LINE
  8
0
 10
1169.56
 11
1170
 20
1179.58
 21
1180.02
  0
LINE
  8
0
 10
1170
 11
1170.56
 20
1180.02
 21
1180.3
  0
LINE
  8
0
 10
1170.56
 11
1171.17
 20
1180.3
 21
1180.4
  0
LINE
  8
0
 10
1171.17
 11
1171.79
 20
1180.4
 21
1180.3
  0
LINE
  8
0
 10
1171.79
 11
1172.35
 20
1180.3
 21
1180.02
  0
LINE
  8
0
 10
1172.35
 11
1172.79
 20
1180.02
 21
1179.58
  0
LINE
  8
0
 10
1172.79
 11
1173.08
 20
1179.58
 21
1179.02
  0
LINE
  8
0
 10
1173.08
 11
1173.17
 20
1179.02
 21
1178.4
  0
LINE
  8
0
 10
1173.17
 11
1173.17
 20
1178.4
 21
1122.4
  0
LINE
  8
0
 10
1173.17
 11
1173.08
 20
1122.4
 21
1121.78
  0
LINE
  8
0
 10
1173.08
 11
1172.79
 20
1121.78
 21
1121.22
  0
LINE
  8
0
 10
1172.79
 11
1172.35
 20
1121.22
 21
1120.78
  0
LINE
  8
0
 10
1172.35
 11
1171.79
 20
1120.78
 21
1120.5
  0
LINE
  8
0
 10
1171.79
 11
1171.17
 20
1120.5
 21
1120.4
  0
LINE
  8
0
 10
1171.17
 11
1170.56
 20
1120.4
 21
1120.5
  0
LINE
  8
0
 10
1170.56
 11
1170
 20
1120.5
 21
1120.78
  0
LINE
  8
0
 10
1170
 11
1169.56
 20
1120.78
 21
1121.22
  0
LINE
  8
0
 10
1169.56
 11
1169.27
 20
1121.22
 21
1121.78
  0
LINE
  8
0
 10
1169.27
 11
1169.17
 20
1121.78
 21
1122.4
  0
LINE
  8
0
 10
1199.42
 11
1199.42
 20
1122.4
 21
1178.4
  0
LINE
  8
0
 10
1199.42
 11
1199.52
 20
1178.4
 21
1179.02
  0
LINE
  8
0
 10
1199.52
 11
1199.8
 20
1179.02
 21
1179.58
  0
LINE
  8
0
 10
1199.8
 11
1200.25
 20
1179.58
 21
1180.02
  0
LINE
  8
0
 10
1200.25
 11
1200.8
 20
1180.02
 21
1180.3
  0
LINE
  8
0
 10
1200.8
 11
1201.42
 20
1180.3
 21
1180.4
  0
LINE
  8
0
 10
1201.42
 11
1202.04
 20
1180.4
 21
1180.3
  0
LINE
  8
0
 10
1202.04
 11
1202.6
 20
1180.3
 21
1180.02
  0
LINE
  8
0
 10
1202.6
 11
1203.04
 20
1180.02
 21
1179.58
  0
LINE
  8
0
 10
1203.04
 11
1203.32
 20
1179.58
 21
1179.02
  0
LINE
  8
0
 10
1203.32
 11
1203.42
 20
1179.02
 21
1178.4
  0
LINE
  8
0
 10
1203.42
 11
1203.42
 20
1178.4
 21
1122.4
  0
LINE
  8
0
 10
1203.42
 11
1203.32
 20
1122.4
 21
1121.78
  0
LINE
  8
0
 10
1203.32
 11
1203.04
 20
1121.78
 21
1121.22
  0
LINE
  8
0
 10
1203.04
 11
1202.6
 20
1121.22
 21
1120.78
  0
LINE
  8
0
 10
1202.6
 11
1202.04
 20
1120.78
 21
1120.5
  0
LINE
  8
0
 10
1202.04
 11
1201.42
 20
1120.5
 21
1120.4
  0
LINE
  8
0
 10
1201.42
 11
1200.8
 20
1120.4
 21
1120.5
  0
LINE
  8
0
 10
1200.8
 11
1200.25
 20
1120.5
 21
1120.78
  0
LINE
  8
0
 10
1200.25
 11
1199.8
 20
1120.78
 21
1121.22
  0
LINE
  8
0
 10
1199.8
 11
1199.52
 20
1121.22
 21
1121.78
  0
LINE
  8
0
 10
1199.52
 11
1199.42
 20
1121.78
 21
1122.4
  0
LINE
  8
0
 10
1229.67
 11
1229.67
 20
1122.4
 21
1178.4
  0
LINE
  8
0
 10
1229.67
 11
1229.77
 20
1178.4
 21
1179.02
  0
LINE
  8
0
 10
1229.77
 11
1230.05
 20
1179.02
 21
1179.58
  0
LINE
  8
0
 10
1230.05
 11
1230.49
 20
1179.58
 21
1180.02
  0
LINE
  8
0
 10
1230.49
 11
1231.05
 20
1180.02
 21
1180.3
  0
LINE
  8
0
 10
1231.05
 11
1231.67
 20
1180.3
 21
1180.4
  0
LINE
  8
0
 10
1231.67
 11
1232.29
 20
1180.4
 21
1180.3
  0
LINE
  8
0
 10
1232.29
 11
1232.85
 20
1180.3
 21
1180.02
  0
LINE
  8
0
 10
1232.85
 11
1233.29
 20
1180.02
 21
1179.58
  0
LINE
  8
0
 10
1233.29
 11
1233.57
 20
1179.58
 21
1179.02
  0
LINE
  8
0
 10
1233.57
 11
1233.67
 20
1179.02
 21
1178.4
  0
LINE
  8
0
 10
1233.67
 11
1233.67
 20
1178.4
 21
1122.4
  0
LINE
  8
0
 10
1233.67
 11
1233.57
 20
1122.4
 21
1121.78
  0
LINE
  8
0
 10
1233.57
 11
1233.29
 20
1121.78
 21
1121.22
  0
LINE
  8
0
 10
1233.29
 11
1232.85
 20
1121.22
 21
1120.78
  0
LINE
  8
0
 10
1232.85
 11
1232.29
 20
1120.78
 21
1120.5
  0
LINE
  8
0
 10
1232.29
 11
1231.67
 20
1120.5
 21
1120.4
  0
LINE
  8
0
 10
1231.67
 11
1231.05
 20
1120.4
 21
1120.5
  0
LINE
  8
0
 10
1231.05
 11
1230.49
 20
1120.5
 21
1120.78
  0
LINE
  8
0
 10
1230.49
 11
1230.05
 20
1120.78
 21
1121.22
  0
LINE
  8
0
 10
1230.05
 11
1229.77
 20
1121.22
 21
1121.78
  0
LINE
  8
0
 10
1229.77
 11
1229.67
 20
1121.78
 21
1122.4
  0
LINE
  8
0
 10
1259.92
 11
1259.92
 20
1122.4
 21
1178.4
  0
LINE
  8
0
 10
1259.92
 11
1260.02
 20
1178.4
 21
1179.02
  0
LINE
  8
0
 10
1260.02
 11
1260.3
 20
1179.02
 21
1179.58
  0
LINE
  8
0
 10
1260.3
 11
1260.74
 20
1179.58
 21
1180.02
  0
LINE
  8
0
 10
1260.74
 11
1261.3
 20
1180.02
 21
1180.3
  0
LINE
  8
0
 10
1261.3
 11
1261.92
 20
1180.3
 21
1180.4
  0
LINE
  8
0
 10
1261.92
 11
1262.54
 20
1180.4
 21
1180.3
  0
LINE
  8
0
 10
1262.54
 11
1263.09
 20
1180.3
 21
1180.02
  0
LINE
  8
0
 10
1263.09
 11
1263.54
 20
1180.02
 21
1179.58
  0
LINE
  8
0
 10
1263.54
 11
1263.82
 20
1179.58
 21
1179.02
  0
LINE
  8
0
 10
1263.82
 11
1263.92
 20
1179.02
 21
1178.4
  0
LINE
  8
0
 10
1263.92
 11
1263.92
 20
1178.4
 21
1122.4
  0
LINE
  8
0
 10
1263.92
 11
1263.82
 20
1122.4
 21
1121.78
  0
LINE
  8
0
 10
1263.82
 11
1263.54
 20
1121.78
 21
1121.22
  0
LINE
  8
0
 10
1263.54
 11
1263.09
 20
1121.22
 21
1120.78
  0
LINE
  8
0
 10
1263.09
 11
1262.54
 20
1120.78
 21
1120.5
  0
LINE
  8
0
 10
1262.54
 11
1261.92
 20
1120.5
 21
1120.4
  0
LINE
  8
0
 10
1261.92
 11
1261.3
 20
1120.4
 21
1120.5
  0
LINE
  8
0
 10
1261.3
 11
1260.74
 20
1120.5
 21
1120.78
  0
LINE
  8
0
 10
1260.74
 11
1260.3
 20
1120.78
 21
1121.22
  0
LINE
  8
0
 10
1260.3
 11
1260.02
 20
1121.22
 21
1121.78
  0
LINE
  8
0
 10
1260.02
 11
1259.92
 20
1121.78
 21
1122.4
  0
LINE
  8
0
 10
1290.16
 11
1290.16
 20
1122.4
 21
1178.4
  0
LINE
  8
0
 10
1290.16
 11
1290.26
 20
1178.4
 21
1179.02
  0
LINE
  8
0
 10
1290.26
 11
1290.55
 20
1179.02
 21
1179.58
  0
LINE
  8
0
 10
1290.55
 11
1290.99
 20
1179.58
 21
1180.02
  0
LINE
  8
0
 10
1290.99
 11
1291.55
 20
1180.02
 21
1180.3
  0
LINE
  8
0
 10
1291.55
 11
1292.16
 20
1180.3
 21
1180.4
  0
LINE
  8
0
 10
1292.16
 11
1292.78
 20
1180.4
 21
1180.3
  0
LINE
  8
0
 10
1292.78
 11
1293.34
 20
1180.3
 21
1180.02
  0
LINE
  8
0
 10
1293.34
 11
1293.78
 20
1180.02
 21
1179.58
  0
LINE
  8
0
 10
1293.78
 11
1294.07
 20
1179.58
 21
1179.02
  0
LINE
  8
0
 10
1294.07
 11
1294.16
 20
1179.02
 21
1178.4
  0
LINE
  8
0
 10
1294.16
 11
1294.16
 20
1178.4
 21
1122.4
  0
LINE
  8
0
 10
1294.16
 11
1294.07
 20
1122.4
 21
1121.78
  0
LINE
  8
0
 10
1294.07
 11
1293.78
 20
1121.78
 21
1121.22
  0
LINE
  8
0
 10
1293.78
 11
1293.34
 20
1121.22
 21
1120.78
  0
LINE
  8
0
 10
1293.34
 11
1292.78
 20
1120.78
 21
1120.5
  0
LINE
  8
0
 10
1292.78
 11
1292.16
 20
1120.5
 21
1120.4
  0
LINE
  8
0
 10
1292.16
 11
1291.55
 20
1120.4
 21
1120.5
  0
LINE
  8
0
 10
1291.55
 11
1290.99
 20
1120.5
 21
1120.78
  0
LINE
  8
0
 10
1290.99
 11
1290.55
 20
1120.78
 21
1121.22
  0
LINE
  8
0
 10
1290.55
 11
1290.26
 20
1121.22
 21
1121.78
  0
LINE
  8
0
 10
1290.26
 11
1290.16
 20
1121.78
 21
1122.4
  0
LINE
  8
0
 10
1320.41
 11
1320.41
 20
1122.4
 21
1178.4
  0
LINE
  8
0
 10
1320.41
 11
1320.51
 20
1178.4
 21
1179.02
  0
LINE
  8
0
 10
1320.51
 11
1320.8
 20
1179.02
 21
1179.58
  0
LINE
  8
0
 10
1320.8
 11
1321.24
 20
1179.58
 21
1180.02
  0
LINE
  8
0
 10
1321.24
 11
1321.8
 20
1180.02
 21
1180.3
  0
LINE
  8
0
 10
1321.8
 11
1322.41
 20
1180.3
 21
1180.4
  0
LINE
  8
0
 10
1322.41
 11
1323.03
 20
1180.4
 21
1180.3
  0
LINE
  8
0
 10
1323.03
 11
1323.59
 20
1180.3
 21
1180.02
  0
LINE
  8
0
 10
1323.59
 11
1324.03
 20
1180.02
 21
1179.58
  0
LINE
  8
0
 10
1324.03
 11
1324.32
 20
1179.58
 21
1179.02
  0
LINE
  8
0
 10
1324.32
 11
1324.41
 20
1179.02
 21
1178.4
  0
LINE
  8
0
 10
1324.41
 11
1324.41
 20
1178.4
 21
1122.4
  0
LINE
  8
0
 10
1324.41
 11
1324.32
 20
1122.4
 21
1121.78
  0
LINE
  8
0
 10
1324.32
 11
1324.03
 20
1121.78
 21
1121.22
  0
LINE
  8
0
 10
1324.03
 11
1323.59
 20
1121.22
 21
1120.78
  0
LINE
  8
0
 10
1323.59
 11
1323.03
 20
1120.78
 21
1120.5
  0
LINE
  8
0
 10
1323.03
 11
1322.41
 20
1120.5
 21
1120.4
  0
LINE
  8
0
 10
1322.41
 11
1321.8
 20
1120.4
 21
1120.5
  0
LINE
  8
0
 10
1321.8
 11
1321.24
 20
1120.5
 21
1120.78
  0
LINE
  8
0
 10
1321.24
 11
1320.8
 20
1120.78
 21
1121.22
  0
LINE
  8
0
 10
1320.8
 11
1320.51
 20
1121.22
 21
1121.78
  0
LINE
  8
0
 10
1320.51
 11
1320.41
 20
1121.78
 21
1122.4
  0
LINE
  8
0
 10
1350.66
 11
1350.66
 20
1122.4
 21
1178.4
  0
LINE
  8
0
 10
1350.66
 11
1350.76
 20
1178.4
 21
1179.02
  0
LINE
  8
0
 10
1350.76
 11
1351.04
 20
1179.02
 21
1179.58
  0
LINE
  8
0
 10
1351.04
 11
1351.49
 20
1179.58
 21
1180.02
  0
LINE
  8
0
 10
1351.49
 11
1352.04
 20
1180.02
 21
1180.3
  0
LINE
  8
0
 10
1352.04
 11
1352.66
 20
1180.3
 21
1180.4
  0
LINE
  8
0
 10
1352.66
 11
1353.28
 20
1180.4
 21
1180.3
  0
LINE
  8
0
 10
1353.28
 11
1353.84
 20
1180.3
 21
1180.02
  0
LINE
  8
0
 10
1353.84
 11
1354.28
 20
1180.02
 21
1179.58
  0
LINE
  8
0
 10
1354.28
 11
1354.56
 20
1179.58
 21
1179.02
  0
LINE
  8
0
 10
1354.56
 11
1354.66
 20
1179.02
 21
1178.4
  0
LINE
  8
0
 10
1354.66
 11
1354.66
 20
1178.4
 21
1122.4
  0
LINE
  8
0
 10
1354.66
 11
1354.56
 20
1122.4
 21
1121.78
  0
LINE
  8
0
 10
1354.56
 11
1354.28
 20
1121.78
 21
1121.22
  0
LINE
  8
0
 10
1354.28
 11
1353.84
 20
1121.22
 21
1120.78
  0
LINE
  8
0
 10
1353.84
 11
1353.28
 20
1120.78
 21
1120.5
  0
LINE
  8
0
 10
1353.28
 11
1352.66
 20
1120.5
 21
1120.4
  0
LINE
  8
0
 10
1352.66
 11
1352.04
 20
1120.4
 21
1120.5
  0
LINE
  8
0
 10
1352.04
 11
1351.49
 20
1120.5
 21
1120.78
  0
LINE
  8
0
 10
1351.49
 11
1351.04
 20
1120.78
 21
1121.22
  0
LINE
  8
0
 10
1351.04
 11
1350.76
 20
1121.22
 21
1121.78
  0
LINE
  8
0
 10
1350.76
 11
1350.66
 20
1121.78
 21
1122.4
  0
LINE
  8
0
 10
1370.05
 11
1370.05
 20
7.55
 21
10.45
  0
LINE
  8
0
 10
1370.05
 11
1370.17
 20
10.45
 21
11.238
  0
LINE
  8
0
 10
1370.17
 11
1370.54
 20
11.238
 21
11.949
  0
LINE
  8
0
 10
1370.54
 11
1371.1
 20
11.949
 21
12.513
  0
LINE
  8
0
 10
1371.1
 11
1371.81
 20
12.513
 21
12.875
  0
LINE
  8
0
 10
1371.81
 11
1372.6
 20
12.875
 21
13
  0
LINE
  8
0
 10
1372.6
 11
1373.39
 20
13
 21
12.875
  0
LINE
  8
0
 10
1373.39
 11
1374.1
 20
12.875
 21
12.513
  0
LINE
  8
0
 10
1374.1
 11
1374.66
 20
12.513
 21
11.949
  0
LINE
  8
0
 10
1374.66
 11
1375.03
 20
11.949
 21
11.238
  0
LINE
  8
0
 10
1375.03
 11
1375.15
 20
11.238
 21
10.45
  0
LINE
  8
0
 10
1375.15
 11
1375.15
 20
10.45
 21
7.55
  0
LINE
  8
0
 10
1375.15
 11
1375.03
 20
7.55
 21
6.762
  0
LINE
  8
0
 10
1375.03
 11
1374.66
 20
6.762
 21
6.051
  0
LINE
  8
0
 10
1374.66
 11
1374.1
 20
6.051
 21
5.487
  0
LINE
  8
0
 10
1374.1
 11
1373.39
 20
5.487
 21
5.125
  0
LINE
  8
0
 10
1373.39
 11
1372.6
 20
5.125
 21
5
  0
LINE
  8
0
 10
1372.6
 11
1371.81
 20
5
 21
5.125
  0
LINE
  8
0
 10
1371.81
 11
1371.1
 20
5.125
 21
5.487
  0
LINE
  8
0
 10
1371.1
 11
1370.54
 20
5.487
 21
6.051
  0
LINE
  8
0
 10
1370.54
 11
1370.17
 20
6.051
 21
6.762
  0
LINE
  8
0
 10
1370.17
 11
1370.05
 20
6.762
 21
7.55
  0
LINE
  8
0
 10
1370.05
 11
1370.05
 20
923.55
 21
926.45
  0
LINE
  8
0
 10
1370.05
 11
1370.17
 20
926.45
 21
927.238
  0
LINE
  8
0
 10
1370.17
 11
1370.54
 20
927.238
 21
927.949
  0
LINE
  8
0
 10
1370.54
 11
1371.1
 20
927.949
 21
928.513
  0
LINE
  8
0
 10
1371.1
 11
1371.81
 20
928.513
 21
928.875
  0
LINE
  8
0
 10
1371.81
 11
1372.6
 20
928.875
 21
929
  0
LINE
  8
0
 10
1372.6
 11
1373.39
 20
929
 21
928.875
  0
LINE
  8
0
 10
1373.39
 11
1374.1
 20
928.875
 21
928.513
  0
LINE
  8
0
 10
1374.1
 11
1374.66
 20
928.513
 21
927.949
  0
LINE
  8
0
 10
1374.66
 11
1375.03
 20
927.949
 21
927.238
  0
LINE
  8
0
 10
1375.03
 11
1375.15
 20
927.238
 21
926.45
  0
LINE
  8
0
 10
1375.15
 11
1375.15
 20
926.45
 21
923.55
  0
LINE
  8
0
 10
1375.15
 11
1375.03
 20
923.55
 21
922.762
  0
LINE
  8
0
 10
1375.03
 11
1374.66
 20
922.762
 21
922.051
  0
LINE
  8
0
 10
1374.66
 11
1374.1
 20
922.051
 21
921.487
  0
LINE
  8
0
 10
1374.1
 11
1373.39
 20
921.487
 21
921.125
  0
LINE
  8
0
 10
1373.39
 11
1372.6
 20
921.125
 21
921
  0
LINE
  8
0
 10
1372.6
 11
1371.81
 20
921
 21
921.125
  0
LINE
  8
0
 10
1371.81
 11
1371.1
 20
921.125
 21
921.487
  0
LINE
  8
0
 10
1371.1
 11
1370.54
 20
921.487
 21
922.051
  0
LINE
  8
0
 10
1370.54
 11
1370.17
 20
922.051
 21
922.762
  0
LINE
  8
0
 10
1370.17
 11
1370.05
 20
922.762
 21
923.55
  0
LINE
  8
0
 10
1370.08
 11
1370.08
 20
1259.32
 21
1262.28
  0
LINE
  8
0
 10
1370.08
 11
1370.2
 20
1262.28
 21
1263.06
  0
LINE
  8
0
 10
1370.2
 11
1370.56
 20
1263.06
 21
1263.76
  0
LINE
  8
0
 10
1370.56
 11
1371.12
 20
1263.76
 21
1264.32
  0
LINE
  8
0
 10
1371.12
 11
1371.82
 20
1264.32
 21
1264.68
  0
LINE
  8
0
 10
1371.82
 11
1372.6
 20
1264.68
 21
1264.8
  0
LINE
  8
0
 10
1372.6
 11
1373.38
 20
1264.8
 21
1264.68
  0
LINE
  8
0
 10
1373.38
 11
1374.08
 20
1264.68
 21
1264.32
  0
LINE
  8
0
 10
1374.08
 11
1374.64
 20
1264.32
 21
1263.76
  0
LINE
  8
0
 10
1374.64
 11
1375
 20
1263.76
 21
1263.06
  0
LINE
  8
0
 10
1375
 11
1375.12
 20
1263.06
 21
1262.28
  0
LINE
  8
0
 10
1375.12
 11
1375.12
 20
1262.28
 21
1259.32
  0
LINE
  8
0
 10
1375.12
 11
1375
 20
1259.32
 21
1258.54
  0
LINE
  8
0
 10
1375
 11
1374.64
 20
1258.54
 21
1257.84
  0
LINE
  8
0
 10
1374.64
 11
1374.08
 20
1257.84
 21
1257.28
  0
LINE
  8
0
 10
1374.08
 11
1373.38
 20
1257.28
 21
1256.92
  0
LINE
  8
0
 10
1373.38
 11
1372.6
 20
1256.92
 21
1256.8
  0
LINE
  8
0
 10
1372.6
 11
1371.82
 20
1256.8
 21
1256.92
  0
LINE
  8
0
 10
1371.82
 11
1371.12
 20
1256.92
 21
1257.28
  0
LINE
  8
0
 10
1371.12
 11
1370.56
 20
1257.28
 21
1257.84
  0
LINE
  8
0
 10
1370.56
 11
1370.2
 20
1257.84
 21
1258.54
  0
LINE
  8
0
 10
1370.2
 11
1370.08
 20
1258.54
 21
1259.32
  0
LINE
  8
0
 10
1370.08
 11
1370.08
 20
1508.32
 21
1511.28
  0
LINE
  8
0
 10
1370.08
 11
1370.2
 20
1511.28
 21
1512.06
  0
LINE
  8
0
 10
1370.2
 11
1370.56
 20
1512.06
 21
1512.76
  0
LINE
  8
0
 10
1370.56
 11
1371.12
 20
1512.76
 21
1513.32
  0
LINE
  8
0
 10
1371.12
 11
1371.82
 20
1513.32
 21
1513.68
  0
LINE
  8
0
 10
1371.82
 11
1372.6
 20
1513.68
 21
1513.8
  0
LINE
  8
0
 10
1372.6
 11
1373.38
 20
1513.8
 21
1513.68
  0
LINE
  8
0
 10
1373.38
 11
1374.08
 20
1513.68
 21
1513.32
  0
LINE
  8
0
 10
1374.08
 11
1374.64
 20
1513.32
 21
1512.76
  0
LINE
  8
0
 10
1374.64
 11
1375
 20
1512.76
 21
1512.06
  0
LINE
  8
0
 10
1375
 11
1375.12
 20
1512.06
 21
1511.28
  0
LINE
  8
0
 10
1375.12
 11
1375.12
 20
1511.28
 21
1508.32
  0
LINE
  8
0
 10
1375.12
 11
1375
 20
1508.32
 21
1507.54
  0
LINE
  8
0
 10
1375
 11
1374.64
 20
1507.54
 21
1506.84
  0
LINE
  8
0
 10
1374.64
 11
1374.08
 20
1506.84
 21
1506.28
  0
LINE
  8
0
 10
1374.08
 11
1373.38
 20
1506.28
 21
1505.92
  0
LINE
  8
0
 10
1373.38
 11
1372.6
 20
1505.92
 21
1505.8
  0
LINE
  8
0
 10
1372.6
 11
1371.82
 20
1505.8
 21
1505.92
  0
LINE
  8
0
 10
1371.82
 11
1371.12
 20
1505.92
 21
1506.28
  0
LINE
  8
0
 10
1371.12
 11
1370.56
 20
1506.28
 21
1506.84
  0
LINE
  8
0
 10
1370.56
 11
1370.2
 20
1506.84
 21
1507.54
  0
LINE
  8
0
 10
1370.2
 11
1370.08
 20
1507.54
 21
1508.32
  0
LINE
  8
0
 10
1370.1
 11
1370.1
 20
968.301
 21
968.499
  0
LINE
  8
0
 10
1370.1
 11
1370.12
 20
968.499
 21
968.698
  0
LINE
  8
0
 10
1370.12
 11
1370.15
 20
968.698
 21
968.894
  0
LINE
  8
0
 10
1370.15
 11
1370.2
 20
968.894
 21
969.087
  0
LINE
  8
0
 10
1370.2
 11
1370.26
 20
969.087
 21
969.276
  0
LINE
  8
0
 10
1370.26
 11
1370.34
 20
969.276
 21
969.459
  0
LINE
  8
0
 10
1370.34
 11
1370.43
 20
969.459
 21
969.636
  0
LINE
  8
0
 10
1370.43
 11
1370.53
 20
969.636
 21
969.804
  0
LINE
  8
0
 10
1370.53
 11
1370.65
 20
969.804
 21
969.964
  0
LINE
  8
0
 10
1370.65
 11
1370.78
 20
969.964
 21
970.114
  0
LINE
  8
0
 10
1370.78
 11
1370.92
 20
970.114
 21
970.253
  0
LINE
  8
0
 10
1370.92
 11
1371.08
 20
970.253
 21
970.381
  0
LINE
  8
0
 10
1371.08
 11
1371.24
 20
970.381
 21
970.496
  0
LINE
  8
0
 10
1371.24
 11
1371.41
 20
970.496
 21
970.597
  0
LINE
  8
0
 10
1371.41
 11
1371.59
 20
970.597
 21
970.685
  0
LINE
  8
0
 10
1371.59
 11
1371.77
 20
970.685
 21
970.759
  0
LINE
  8
0
 10
1371.77
 11
1371.96
 20
970.759
 21
970.817
  0
LINE
  8
0
 10
1371.96
 11
1372.15
 20
970.817
 21
970.86
  0
LINE
  8
0
 10
1372.15
 11
1372.35
 20
970.86
 21
970.888
  0
LINE
  8
0
 10
1372.35
 11
1372.55
 20
970.888
 21
970.9
  0
LINE
  8
0
 10
1372.55
 11
1372.75
 20
970.9
 21
970.896
  0
LINE
  8
0
 10
1372.75
 11
1372.95
 20
970.896
 21
970.876
  0
LINE
  8
0
 10
1372.95
 11
1373.14
 20
970.876
 21
970.84
  0
LINE
  8
0
 10
1373.14
 11
1373.34
 20
970.84
 21
970.79
  0
LINE
  8
0
 10
1373.34
 11
1373.52
 20
970.79
 21
970.724
  0
LINE
  8
0
 10
1373.52
 11
1373.7
 20
970.724
 21
970.643
  0
LINE
  8
0
 10
1373.7
 11
1373.88
 20
970.643
 21
970.548
  0
LINE
  8
0
 10
1373.88
 11
1374.05
 20
970.548
 21
970.44
  0
LINE
  8
0
 10
1374.05
 11
1374.2
 20
970.44
 21
970.319
  0
LINE
  8
0
 10
1374.2
 11
1374.35
 20
970.319
 21
970.185
  0
LINE
  8
0
 10
1374.35
 11
1374.49
 20
970.185
 21
970.041
  0
LINE
  8
0
 10
1374.49
 11
1374.61
 20
970.041
 21
969.886
  0
LINE
  8
0
 10
1374.61
 11
1374.72
 20
969.886
 21
969.721
  0
LINE
  8
0
 10
1374.72
 11
1374.82
 20
969.721
 21
969.548
  0
LINE
  8
0
 10
1374.82
 11
1374.9
 20
969.548
 21
969.368
  0
LINE
  8
0
 10
1374.9
 11
1374.98
 20
969.368
 21
969.182
  0
LINE
  8
0
 10
1374.98
 11
1375.03
 20
969.182
 21
968.991
  0
LINE
  8
0
 10
1375.03
 11
1375.07
 20
968.991
 21
968.796
  0
LINE
  8
0
 10
1375.07
 11
1375.09
 20
968.796
 21
968.599
  0
LINE
  8
0
 10
1375.09
 11
1375.1
 20
968.599
 21
968.4
  0
LINE
  8
0
 10
1375.1
 11
1375.09
 20
968.4
 21
968.201
  0
LINE
  8
0
 10
1375.09
 11
1375.07
 20
968.201
 21
968.004
  0
LINE
  8
0
 10
1375.07
 11
1375.03
 20
968.004
 21
967.809
  0
LINE
  8
0
 10
1375.03
 11
1374.98
 20
967.809
 21
967.618
  0
LINE
  8
0
 10
1374.98
 11
1374.9
 20
967.618
 21
967.432
  0
LINE
  8
0
 10
1374.9
 11
1374.82
 20
967.432
 21
967.252
  0
LINE
  8
0
 10
1374.82
 11
1374.72
 20
967.252
 21
967.079
  0
LINE
  8
0
 10
1374.72
 11
1374.61
 20
967.079
 21
966.914
  0
LINE
  8
0
 10
1374.61
 11
1374.49
 20
966.914
 21
966.759
  0
LINE
  8
0
 10
1374.49
 11
1374.35
 20
966.759
 21
966.615
  0
LINE
  8
0
 10
1374.35
 11
1374.2
 20
966.615
 21
966.481
  0
LINE
  8
0
 10
1374.2
 11
1374.05
 20
966.481
 21
966.36
  0
LINE
  8
0
 10
1374.05
 11
1373.88
 20
966.36
 21
966.252
  0
LINE
  8
0
 10
1373.88
 11
1373.7
 20
966.252
 21
966.157
  0
LINE
  8
0
 10
1373.7
 11
1373.52
 20
966.157
 21
966.076
  0
LINE
  8
0
 10
1373.52
 11
1373.34
 20
966.076
 21
966.01
  0
LINE
  8
0
 10
1373.34
 11
1373.14
 20
966.01
 21
965.96
  0
LINE
  8
0
 10
1373.14
 11
1372.95
 20
965.96
 21
965.924
  0
LINE
  8
0
 10
1372.95
 11
1372.75
 20
965.924
 21
965.904
  0
LINE
  8
0
 10
1372.75
 11
1372.55
 20
965.904
 21
965.9
  0
LINE
  8
0
 10
1372.55
 11
1372.35
 20
965.9
 21
965.912
  0
LINE
  8
0
 10
1372.35
 11
1372.15
 20
965.912
 21
965.94
  0
LINE
  8
0
 10
1372.15
 11
1371.96
 20
965.94
 21
965.983
  0
LINE
  8
0
 10
1371.96
 11
1371.77
 20
965.983
 21
966.041
  0
LINE
  8
0
 10
1371.77
 11
1371.59
 20
966.041
 21
966.115
  0
LINE
  8
0
 10
1371.59
 11
1371.41
 20
966.115
 21
966.203
  0
LINE
  8
0
 10
1371.41
 11
1371.24
 20
966.203
 21
966.304
  0
LINE
  8
0
 10
1371.24
 11
1371.08
 20
966.304
 21
966.419
  0
LINE
  8
0
 10
1371.08
 11
1370.92
 20
966.419
 21
966.547
  0
LINE
  8
0
 10
1370.92
 11
1370.78
 20
966.547
 21
966.686
  0
LINE
  8
0
 10
1370.78
 11
1370.65
 20
966.686
 21
966.836
  0
LINE
  8
0
 10
1370.65
 11
1370.53
 20
966.836
 21
966.996
  0
LINE
  8
0
 10
1370.53
 11
1370.43
 20
966.996
 21
967.164
  0
LINE
  8
0
 10
1370.43
 11
1370.34
 20
967.164
 21
967.341
  0
LINE
  8
0
 10
1370.34
 11
1370.26
 20
967.341
 21
967.524
  0
LINE
  8
0
 10
1370.26
 11
1370.2
 20
967.524
 21
967.713
  0
LINE
  8
0
 10
1370.2
 11
1370.15
 20
967.713
 21
967.906
  0
LINE
  8
0
 10
1370.15
 11
1370.12
 20
967.906
 21
968.102
  0
LINE
  8
0
 10
1370.12
 11
1370.1
 20
968.102
 21
968.301
  0
LINE
  8
0
 10
1370.1
 11
1370.1
 20
1197.3
 21
1197.5
  0
LINE
  8
0
 10
1370.1
 11
1370.12
 20
1197.5
 21
1197.7
  0
LINE
  8
0
 10
1370.12
 11
1370.15
 20
1197.7
 21
1197.89
  0
LINE
  8
0
 10
1370.15
 11
1370.2
 20
1197.89
 21
1198.09
  0
LINE
  8
0
 10
1370.2
 11
1370.26
 20
1198.09
 21
1198.28
  0
LINE
  8
0
 10
1370.26
 11
1370.34
 20
1198.28
 21
1198.46
  0
LINE
  8
0
 10
1370.34
 11
1370.43
 20
1198.46
 21
1198.64
  0
LINE
  8
0
 10
1370.43
 11
1370.53
 20
1198.64
 21
1198.8
  0
LINE
  8
0
 10
1370.53
 11
1370.65
 20
1198.8
 21
1198.96
  0
LINE
  8
0
 10
1370.65
 11
1370.78
 20
1198.96
 21
1199.11
  0
LINE
  8
0
 10
1370.78
 11
1370.92
 20
1199.11
 21
1199.25
  0
LINE
  8
0
 10
1370.92
 11
1371.08
 20
1199.25
 21
1199.38
  0
LINE
  8
0
 10
1371.08
 11
1371.24
 20
1199.38
 21
1199.5
  0
LINE
  8
0
 10
1371.24
 11
1371.41
 20
1199.5
 21
1199.6
  0
LINE
  8
0
 10
1371.41
 11
1371.59
 20
1199.6
 21
1199.68
  0
LINE
  8
0
 10
1371.59
 11
1371.77
 20
1199.68
 21
1199.76
  0
LINE
  8
0
 10
1371.77
 11
1371.96
 20
1199.76
 21
1199.82
  0
LINE
  8
0
 10
1371.96
 11
1372.15
 20
1199.82
 21
1199.86
  0
LINE
  8
0
 10
1372.15
 11
1372.35
 20
1199.86
 21
1199.89
  0
LINE
  8
0
 10
1372.35
 11
1372.55
 20
1199.89
 21
1199.9
  0
LINE
  8
0
 10
1372.55
 11
1372.75
 20
1199.9
 21
1199.9
  0
LINE
  8
0
 10
1372.75
 11
1372.95
 20
1199.9
 21
1199.88
  0
LINE
  8
0
 10
1372.95
 11
1373.14
 20
1199.88
 21
1199.84
  0
LINE
  8
0
 10
1373.14
 11
1373.34
 20
1199.84
 21
1199.79
  0
LINE
  8
0
 10
1373.34
 11
1373.52
 20
1199.79
 21
1199.72
  0
LINE
  8
0
 10
1373.52
 11
1373.7
 20
1199.72
 21
1199.64
  0
LINE
  8
0
 10
1373.7
 11
1373.88
 20
1199.64
 21
1199.55
  0
LINE
  8
0
 10
1373.88
 11
1374.05
 20
1199.55
 21
1199.44
  0
LINE
  8
0
 10
1374.05
 11
1374.2
 20
1199.44
 21
1199.32
  0
LINE
  8
0
 10
1374.2
 11
1374.35
 20
1199.32
 21
1199.18
  0
LINE
  8
0
 10
1374.35
 11
1374.49
 20
1199.18
 21
1199.04
  0
LINE
  8
0
 10
1374.49
 11
1374.61
 20
1199.04
 21
1198.89
  0
LINE
  8
0
 10
1374.61
 11
1374.72
 20
1198.89
 21
1198.72
  0
LINE
  8
0
 10
1374.72
 11
1374.82
 20
1198.72
 21
1198.55
  0
LINE
  8
0
 10
1374.82
 11
1374.9
 20
1198.55
 21
1198.37
  0
LINE
  8
0
 10
1374.9
 11
1374.98
 20
1198.37
 21
1198.18
  0
LINE
  8
0
 10
1374.98
 11
1375.03
 20
1198.18
 21
1197.99
  0
LINE
  8
0
 10
1375.03
 11
1375.07
 20
1197.99
 21
1197.8
  0
LINE
  8
0
 10
1375.07
 11
1375.09
 20
1197.8
 21
1197.6
  0
LINE
  8
0
 10
1375.09
 11
1375.1
 20
1197.6
 21
1197.4
  0
LINE
  8
0
 10
1375.1
 11
1375.09
 20
1197.4
 21
1197.2
  0
LINE
  8
0
 10
1375.09
 11
1375.07
 20
1197.2
 21
1197
  0
LINE
  8
0
 10
1375.07
 11
1375.03
 20
1197
 21
1196.81
  0
LINE
  8
0
 10
1375.03
 11
1374.98
 20
1196.81
 21
1196.62
  0
LINE
  8
0
 10
1374.98
 11
1374.9
 20
1196.62
 21
1196.43
  0
LINE
  8
0
 10
1374.9
 11
1374.82
 20
1196.43
 21
1196.25
  0
LINE
  8
0
 10
1374.82
 11
1374.72
 20
1196.25
 21
1196.08
  0
LINE
  8
0
 10
1374.72
 11
1374.61
 20
1196.08
 21
1195.91
  0
LINE
  8
0
 10
1374.61
 11
1374.49
 20
1195.91
 21
1195.76
  0
LINE
  8
0
 10
1374.49
 11
1374.35
 20
1195.76
 21
1195.62
  0
LINE
  8
0
 10
1374.35
 11
1374.2
 20
1195.62
 21
1195.48
  0
LINE
  8
0
 10
1374.2
 11
1374.05
 20
1195.48
 21
1195.36
  0
LINE
  8
0
 10
1374.05
 11
1373.88
 20
1195.36
 21
1195.25
  0
LINE
  8
0
 10
1373.88
 11
1373.7
 20
1195.25
 21
1195.16
  0
LINE
  8
0
 10
1373.7
 11
1373.52
 20
1195.16
 21
1195.08
  0
LINE
  8
0
 10
1373.52
 11
1373.34
 20
1195.08
 21
1195.01
  0
LINE
  8
0
 10
1373.34
 11
1373.14
 20
1195.01
 21
1194.96
  0
LINE
  8
0
 10
1373.14
 11
1372.95
 20
1194.96
 21
1194.92
  0
LINE
  8
0
 10
1372.95
 11
1372.75
 20
1194.92
 21
1194.9
  0
LINE
  8
0
 10
1372.75
 11
1372.55
 20
1194.9
 21
1194.9
  0
LINE
  8
0
 10
1372.55
 11
1372.35
 20
1194.9
 21
1194.91
  0
LINE
  8
0
 10
1372.35
 11
1372.15
 20
1194.91
 21
1194.94
  0
LINE
  8
0
 10
1372.15
 11
1371.96
 20
1194.94
 21
1194.98
  0
LINE
  8
0
 10
1371.96
 11
1371.77
 20
1194.98
 21
1195.04
  0
LINE
  8
0
 10
1371.77
 11
1371.59
 20
1195.04
 21
1195.12
  0
LINE
  8
0
 10
1371.59
 11
1371.41
 20
1195.12
 21
1195.2
  0
LINE
  8
0
 10
1371.41
 11
1371.24
 20
1195.2
 21
1195.3
  0
LINE
  8
0
 10
1371.24
 11
1371.08
 20
1195.3
 21
1195.42
  0
LINE
  8
0
 10
1371.08
 11
1370.92
 20
1195.42
 21
1195.55
  0
LINE
  8
0
 10
1370.92
 11
1370.78
 20
1195.55
 21
1195.69
  0
LINE
  8
0
 10
1370.78
 11
1370.65
 20
1195.69
 21
1195.84
  0
LINE
  8
0
 10
1370.65
 11
1370.53
 20
1195.84
 21
1196
  0
LINE
  8
0
 10
1370.53
 11
1370.43
 20
1196
 21
1196.16
  0
LINE
  8
0
 10
1370.43
 11
1370.34
 20
1196.16
 21
1196.34
  0
LINE
  8
0
 10
1370.34
 11
1370.26
 20
1196.34
 21
1196.52
  0
LINE
  8
0
 10
1370.26
 11
1370.2
 20
1196.52
 21
1196.71
  0
LINE
  8
0
 10
1370.2
 11
1370.15
 20
1196.71
 21
1196.91
  0
LINE
  8
0
 10
1370.15
 11
1370.12
 20
1196.91
 21
1197.1
  0
LINE
  8
0
 10
1370.12
 11
1370.1
 20
1197.1
 21
1197.3
  0
LINE
  8
0
 10
1380.91
 11
1380.91
 20
1122.4
 21
1178.4
  0
LINE
  8
0
 10
1380.91
 11
1381.01
 20
1178.4
 21
1179.02
  0
LINE
  8
0
 10
1381.01
 11
1381.29
 20
1179.02
 21
1179.58
  0
LINE
  8
0
 10
1381.29
 11
1381.73
 20
1179.58
 21
1180.02
  0
LINE
  8
0
 10
1381.73
 11
1382.29
 20
1180.02
 21
1180.3
  0
LINE
  8
0
 10
1382.29
 11
1382.91
 20
1180.3
 21
1180.4
  0
LINE
  8
0
 10
1382.91
 11
1383.53
 20
1180.4
 21
1180.3
  0
LINE
  8
0
 10
1383.53
 11
1384.09
 20
1180.3
 21
1180.02
  0
LINE
  8
0
 10
1384.09
 11
1384.53
 20
1180.02
 21
1179.58
  0
LINE
  8
0
 10
1384.53
 11
1384.81
 20
1179.58
 21
1179.02
  0
LINE
  8
0
 10
1384.81
 11
1384.91
 20
1179.02
 21
1178.4
  0
LINE
  8
0
 10
1384.91
 11
1384.91
 20
1178.4
 21
1122.4
  0
LINE
  8
0
 10
1384.91
 11
1384.81
 20
1122.4
 21
1121.78
  0
LINE
  8
0
 10
1384.81
 11
1384.53
 20
1121.78
 21
1121.22
  0
LINE
  8
0
 10
1384.53
 11
1384.09
 20
1121.22
 21
1120.78
  0
LINE
  8
0
 10
1384.09
 11
1383.53
 20
1120.78
 21
1120.5
  0
LINE
  8
0
 10
1383.53
 11
1382.91
 20
1120.5
 21
1120.4
  0
LINE
  8
0
 10
1382.91
 11
1382.29
 20
1120.4
 21
1120.5
  0
LINE
  8
0
 10
1382.29
 11
1381.73
 20
1120.5
 21
1120.78
  0
LINE
  8
0
 10
1381.73
 11
1381.29
 20
1120.78
 21
1121.22
  0
LINE
  8
0
 10
1381.29
 11
1381.01
 20
1121.22
 21
1121.78
  0
LINE
  8
0
 10
1381.01
 11
1380.91
 20
1121.78
 21
1122.4
  0
LINE
  8
0
 10
1411.16
 11
1411.16
 20
1122.4
 21
1178.4
  0
LINE
  8
0
 10
1411.16
 11
1411.26
 20
1178.4
 21
1179.02
  0
LINE
  8
0
 10
1411.26
 11
1411.54
 20
1179.02
 21
1179.58
  0
LINE
  8
0
 10
1411.54
 11
1411.98
 20
1179.58
 21
1180.02
  0
LINE
  8
0
 10
1411.98
 11
1412.54
 20
1180.02
 21
1180.3
  0
LINE
  8
0
 10
1412.54
 11
1413.16
 20
1180.3
 21
1180.4
  0
LINE
  8
0
 10
1413.16
 11
1413.78
 20
1180.4
 21
1180.3
  0
LINE
  8
0
 10
1413.78
 11
1414.33
 20
1180.3
 21
1180.02
  0
LINE
  8
0
 10
1414.33
 11
1414.78
 20
1180.02
 21
1179.58
  0
LINE
  8
0
 10
1414.78
 11
1415.06
 20
1179.58
 21
1179.02
  0
LINE
  8
0
 10
1415.06
 11
1415.16
 20
1179.02
 21
1178.4
  0
LINE
  8
0
 10
1415.16
 11
1415.16
 20
1178.4
 21
1122.4
  0
LINE
  8
0
 10
1415.16
 11
1415.06
 20
1122.4
 21
1121.78
  0
LINE
  8
0
 10
1415.06
 11
1414.78
 20
1121.78
 21
1121.22
  0
LINE
  8
0
 10
1414.78
 11
1414.33
 20
1121.22
 21
1120.78
  0
LINE
  8
0
 10
1414.33
 11
1413.78
 20
1120.78
 21
1120.5
  0
LINE
  8
0
 10
1413.78
 11
1413.16
 20
1120.5
 21
1120.4
  0
LINE
  8
0
 10
1413.16
 11
1412.54
 20
1120.4
 21
1120.5
  0
LINE
  8
0
 10
1412.54
 11
1411.98
 20
1120.5
 21
1120.78
  0
LINE
  8
0
 10
1411.98
 11
1411.54
 20
1120.78
 21
1121.22
  0
LINE
  8
0
 10
1411.54
 11
1411.26
 20
1121.22
 21
1121.78
  0
LINE
  8
0
 10
1411.26
 11
1411.16
 20
1121.78
 21
1122.4
  0
LINE
  8
0
 10
1441.4
 11
1441.4
 20
1122.4
 21
1178.4
  0
LINE
  8
0
 10
1441.4
 11
1441.5
 20
1178.4
 21
1179.02
  0
LINE
  8
0
 10
1441.5
 11
1441.79
 20
1179.02
 21
1179.58
  0
LINE
  8
0
 10
1441.79
 11
1442.23
 20
1179.58
 21
1180.02
  0
LINE
  8
0
 10
1442.23
 11
1442.79
 20
1180.02
 21
1180.3
  0
LINE
  8
0
 10
1442.79
 11
1443.4
 20
1180.3
 21
1180.4
  0
LINE
  8
0
 10
1443.4
 11
1444.02
 20
1180.4
 21
1180.3
  0
LINE
  8
0
 10
1444.02
 11
1444.58
 20
1180.3
 21
1180.02
  0
LINE
  8
0
 10
1444.58
 11
1445.02
 20
1180.02
 21
1179.58
  0
LINE
  8
0
 10
1445.02
 11
1445.31
 20
1179.58
 21
1179.02
  0
LINE
  8
0
 10
1445.31
 11
1445.4
 20
1179.02
 21
1178.4
  0
LINE
  8
0
 10
1445.4
 11
1445.4
 20
1178.4
 21
1122.4
  0
LINE
  8
0
 10
1445.4
 11
1445.31
 20
1122.4
 21
1121.78
  0
LINE
  8
0
 10
1445.31
 11
1445.02
 20
1121.78
 21
1121.22
  0
LINE
  8
0
 10
1445.02
 11
1444.58
 20
1121.22
 21
1120.78
  0
LINE
  8
0
 10
1444.58
 11
1444.02
 20
1120.78
 21
1120.5
  0
LINE
  8
0
 10
1444.02
 11
1443.4
 20
1120.5
 21
1120.4
  0
LINE
  8
0
 10
1443.4
 11
1442.79
 20
1120.4
 21
1120.5
  0
LINE
  8
0
 10
1442.79
 11
1442.23
 20
1120.5
 21
1120.78
  0
LINE
  8
0
 10
1442.23
 11
1441.79
 20
1120.78
 21
1121.22
  0
LINE
  8
0
 10
1441.79
 11
1441.5
 20
1121.22
 21
1121.78
  0
LINE
  8
0
 10
1441.5
 11
1441.4
 20
1121.78
 21
1122.4
  0
LINE
  8
0
 10
1449.3
 11
1449.3
 20
2137.9
 21
2138.1
  0
LINE
  8
0
 10
1449.3
 11
1449.32
 20
2138.1
 21
2138.3
  0
LINE
  8
0
 10
1449.32
 11
1449.35
 20
2138.3
 21
2138.49
  0
LINE
  8
0
 10
1449.35
 11
1449.4
 20
2138.49
 21
2138.69
  0
LINE
  8
0
 10
1449.4
 11
1449.46
 20
2138.69
 21
2138.88
  0
LINE
  8
0
 10
1449.46
 11
1449.54
 20
2138.88
 21
2139.06
  0
LINE
  8
0
 10
1449.54
 11
1449.63
 20
2139.06
 21
2139.24
  0
LINE
  8
0
 10
1449.63
 11
1449.73
 20
2139.24
 21
2139.4
  0
LINE
  8
0
 10
1449.73
 11
1449.85
 20
2139.4
 21
2139.56
  0
LINE
  8
0
 10
1449.85
 11
1449.98
 20
2139.56
 21
2139.71
  0
LINE
  8
0
 10
1449.98
 11
1450.12
 20
2139.71
 21
2139.85
  0
LINE
  8
0
 10
1450.12
 11
1450.28
 20
2139.85
 21
2139.98
  0
LINE
  8
0
 10
1450.28
 11
1450.44
 20
2139.98
 21
2140.1
  0
LINE
  8
0
 10
1450.44
 11
1450.61
 20
2140.1
 21
2140.2
  0
LINE
  8
0
 10
1450.61
 11
1450.79
 20
2140.2
 21
2140.28
  0
LINE
  8
0
 10
1450.79
 11
1450.97
 20
2140.28
 21
2140.36
  0
LINE
  8
0
 10
1450.97
 11
1451.16
 20
2140.36
 21
2140.42
  0
LINE
  8
0
 10
1451.16
 11
1451.36
 20
2140.42
 21
2140.46
  0
LINE
  8
0
 10
1451.36
 11
1451.55
 20
2140.46
 21
2140.49
  0
LINE
  8
0
 10
1451.55
 11
1451.75
 20
2140.49
 21
2140.5
  0
LINE
  8
0
 10
1451.75
 11
1451.95
 20
2140.5
 21
2140.5
  0
LINE
  8
0
 10
1451.95
 11
1452.15
 20
2140.5
 21
2140.48
  0
LINE
  8
0
 10
1452.15
 11
1452.34
 20
2140.48
 21
2140.44
  0
LINE
  8
0
 10
1452.34
 11
1452.54
 20
2140.44
 21
2140.39
  0
LINE
  8
0
 10
1452.54
 11
1452.72
 20
2140.39
 21
2140.32
  0
LINE
  8
0
 10
1452.72
 11
1452.9
 20
2140.32
 21
2140.24
  0
LINE
  8
0
 10
1452.9
 11
1453.08
 20
2140.24
 21
2140.15
  0
LINE
  8
0
 10
1453.08
 11
1453.25
 20
2140.15
 21
2140.04
  0
LINE
  8
0
 10
1453.25
 11
1453.4
 20
2140.04
 21
2139.92
  0
LINE
  8
0
 10
1453.4
 11
1453.55
 20
2139.92
 21
2139.78
  0
LINE
  8
0
 10
1453.55
 11
1453.69
 20
2139.78
 21
2139.64
  0
LINE
  8
0
 10
1453.69
 11
1453.81
 20
2139.64
 21
2139.49
  0
LINE
  8
0
 10
1453.81
 11
1453.92
 20
2139.49
 21
2139.32
  0
LINE
  8
0
 10
1453.92
 11
1454.02
 20
2139.32
 21
2139.15
  0
LINE
  8
0
 10
1454.02
 11
1454.11
 20
2139.15
 21
2138.97
  0
LINE
  8
0
 10
1454.11
 11
1454.17
 20
2138.97
 21
2138.78
  0
LINE
  8
0
 10
1454.17
 11
1454.23
 20
2138.78
 21
2138.59
  0
LINE
  8
0
 10
1454.23
 11
1454.27
 20
2138.59
 21
2138.4
  0
LINE
  8
0
 10
1454.27
 11
1454.29
 20
2138.4
 21
2138.2
  0
LINE
  8
0
 10
1454.29
 11
1454.3
 20
2138.2
 21
2138
  0
LINE
  8
0
 10
1454.3
 11
1454.29
 20
2138
 21
2137.8
  0
LINE
  8
0
 10
1454.29
 11
1454.27
 20
2137.8
 21
2137.6
  0
LINE
  8
0
 10
1454.27
 11
1454.23
 20
2137.6
 21
2137.41
  0
LINE
  8
0
 10
1454.23
 11
1454.17
 20
2137.41
 21
2137.22
  0
LINE
  8
0
 10
1454.17
 11
1454.11
 20
2137.22
 21
2137.03
  0
LINE
  8
0
 10
1454.11
 11
1454.02
 20
2137.03
 21
2136.85
  0
LINE
  8
0
 10
1454.02
 11
1453.92
 20
2136.85
 21
2136.68
  0
LINE
  8
0
 10
1453.92
 11
1453.81
 20
2136.68
 21
2136.51
  0
LINE
  8
0
 10
1453.81
 11
1453.69
 20
2136.51
 21
2136.36
  0
LINE
  8
0
 10
1453.69
 11
1453.55
 20
2136.36
 21
2136.22
  0
LINE
  8
0
 10
1453.55
 11
1453.4
 20
2136.22
 21
2136.08
  0
LINE
  8
0
 10
1453.4
 11
1453.25
 20
2136.08
 21
2135.96
  0
LINE
  8
0
 10
1453.25
 11
1453.08
 20
2135.96
 21
2135.85
  0
LINE
  8
0
 10
1453.08
 11
1452.9
 20
2135.85
 21
2135.76
  0
LINE
  8
0
 10
1452.9
 11
1452.72
 20
2135.76
 21
2135.68
  0
LINE
  8
0
 10
1452.72
 11
1452.54
 20
2135.68
 21
2135.61
  0
LINE
  8
0
 10
1452.54
 11
1452.34
 20
2135.61
 21
2135.56
  0
LINE
  8
0
 10
1452.34
 11
1452.15
 20
2135.56
 21
2135.52
  0
LINE
  8
0
 10
1452.15
 11
1451.95
 20
2135.52
 21
2135.5
  0
LINE
  8
0
 10
1451.95
 11
1451.75
 20
2135.5
 21
2135.5
  0
LINE
  8
0
 10
1451.75
 11
1451.55
 20
2135.5
 21
2135.51
  0
LINE
  8
0
 10
1451.55
 11
1451.36
 20
2135.51
 21
2135.54
  0
LINE
  8
0
 10
1451.36
 11
1451.16
 20
2135.54
 21
2135.58
  0
LINE
  8
0
 10
1451.16
 11
1450.97
 20
2135.58
 21
2135.64
  0
LINE
  8
0
 10
1450.97
 11
1450.79
 20
2135.64
 21
2135.72
  0
LINE
  8
0
 10
1450.79
 11
1450.61
 20
2135.72
 21
2135.8
  0
LINE
  8
0
 10
1450.61
 11
1450.44
 20
2135.8
 21
2135.9
  0
LINE
  8
0
 10
1450.44
 11
1450.28
 20
2135.9
 21
2136.02
  0
LINE
  8
0
 10
1450.28
 11
1450.12
 20
2136.02
 21
2136.15
  0
LINE
  8
0
 10
1450.12
 11
1449.98
 20
2136.15
 21
2136.29
  0
LINE
  8
0
 10
1449.98
 11
1449.85
 20
2136.29
 21
2136.44
  0
LINE
  8
0
 10
1449.85
 11
1449.73
 20
2136.44
 21
2136.6
  0
LINE
  8
0
 10
1449.73
 11
1449.63
 20
2136.6
 21
2136.76
  0
LINE
  8
0
 10
1449.63
 11
1449.54
 20
2136.76
 21
2136.94
  0
LINE
  8
0
 10
1449.54
 11
1449.46
 20
2136.94
 21
2137.12
  0
LINE
  8
0
 10
1449.46
 11
1449.4
 20
2137.12
 21
2137.31
  0
LINE
  8
0
 10
1449.4
 11
1449.35
 20
2137.31
 21
2137.51
  0
LINE
  8
0
 10
1449.35
 11
1449.32
 20
2137.51
 21
2137.7
  0
LINE
  8
0
 10
1449.32
 11
1449.3
 20
2137.7
 21
2137.9
  0
LINE
  8
0
 10
1449.3
 11
1449.3
 20
2237.9
 21
2238.1
  0
LINE
  8
0
 10
1449.3
 11
1449.32
 20
2238.1
 21
2238.3
  0
LINE
  8
0
 10
1449.32
 11
1449.35
 20
2238.3
 21
2238.49
  0
LINE
  8
0
 10
1449.35
 11
1449.4
 20
2238.49
 21
2238.69
  0
LINE
  8
0
 10
1449.4
 11
1449.46
 20
2238.69
 21
2238.88
  0
LINE
  8
0
 10
1449.46
 11
1449.54
 20
2238.88
 21
2239.06
  0
LINE
  8
0
 10
1449.54
 11
1449.63
 20
2239.06
 21
2239.24
  0
LINE
  8
0
 10
1449.63
 11
1449.73
 20
2239.24
 21
2239.4
  0
LINE
  8
0
 10
1449.73
 11
1449.85
 20
2239.4
 21
2239.56
  0
LINE
  8
0
 10
1449.85
 11
1449.98
 20
2239.56
 21
2239.71
  0
LINE
  8
0
 10
1449.98
 11
1450.12
 20
2239.71
 21
2239.85
  0
LINE
  8
0
 10
1450.12
 11
1450.28
 20
2239.85
 21
2239.98
  0
LINE
  8
0
 10
1450.28
 11
1450.44
 20
2239.98
 21
2240.1
  0
LINE
  8
0
 10
1450.44
 11
1450.61
 20
2240.1
 21
2240.2
  0
LINE
  8
0
 10
1450.61
 11
1450.79
 20
2240.2
 21
2240.28
  0
LINE
  8
0
 10
1450.79
 11
1450.97
 20
2240.28
 21
2240.36
  0
LINE
  8
0
 10
1450.97
 11
1451.16
 20
2240.36
 21
2240.42
  0
LINE
  8
0
 10
1451.16
 11
1451.36
 20
2240.42
 21
2240.46
  0
LINE
  8
0
 10
1451.36
 11
1451.55
 20
2240.46
 21
2240.49
  0
LINE
  8
0
 10
1451.55
 11
1451.75
 20
2240.49
 21
2240.5
  0
LINE
  8
0
 10
1451.75
 11
1451.95
 20
2240.5
 21
2240.5
  0
LINE
  8
0
 10
1451.95
 11
1452.15
 20
2240.5
 21
2240.48
  0
LINE
  8
0
 10
1452.15
 11
1452.34
 20
2240.48
 21
2240.44
  0
LINE
  8
0
 10
1452.34
 11
1452.54
 20
2240.44
 21
2240.39
  0
LINE
  8
0
 10
1452.54
 11
1452.72
 20
2240.39
 21
2240.32
  0
LINE
  8
0
 10
1452.72
 11
1452.9
 20
2240.32
 21
2240.24
  0
LINE
  8
0
 10
1452.9
 11
1453.08
 20
2240.24
 21
2240.15
  0
LINE
  8
0
 10
1453.08
 11
1453.25
 20
2240.15
 21
2240.04
  0
LINE
  8
0
 10
1453.25
 11
1453.4
 20
2240.04
 21
2239.92
  0
LINE
  8
0
 10
1453.4
 11
1453.55
 20
2239.92
 21
2239.78
  0
LINE
  8
0
 10
1453.55
 11
1453.69
 20
2239.78
 21
2239.64
  0
LINE
  8
0
 10
1453.69
 11
1453.81
 20
2239.64
 21
2239.49
  0
LINE
  8
0
 10
1453.81
 11
1453.92
 20
2239.49
 21
2239.32
  0
LINE
  8
0
 10
1453.92
 11
1454.02
 20
2239.32
 21
2239.15
  0
LINE
  8
0
 10
1454.02
 11
1454.11
 20
2239.15
 21
2238.97
  0
LINE
  8
0
 10
1454.11
 11
1454.17
 20
2238.97
 21
2238.78
  0
LINE
  8
0
 10
1454.17
 11
1454.23
 20
2238.78
 21
2238.59
  0
LINE
  8
0
 10
1454.23
 11
1454.27
 20
2238.59
 21
2238.4
  0
LINE
  8
0
 10
1454.27
 11
1454.29
 20
2238.4
 21
2238.2
  0
LINE
  8
0
 10
1454.29
 11
1454.3
 20
2238.2
 21
2238
  0
LINE
  8
0
 10
1454.3
 11
1454.29
 20
2238
 21
2237.8
  0
LINE
  8
0
 10
1454.29
 11
1454.27
 20
2237.8
 21
2237.6
  0
LINE
  8
0
 10
1454.27
 11
1454.23
 20
2237.6
 21
2237.41
  0
LINE
  8
0
 10
1454.23
 11
1454.17
 20
2237.41
 21
2237.22
  0
LINE
  8
0
 10
1454.17
 11
1454.11
 20
2237.22
 21
2237.03
  0
LINE
  8
0
 10
1454.11
 11
1454.02
 20
2237.03
 21
2236.85
  0
LINE
  8
0
 10
1454.02
 11
1453.92
 20
2236.85
 21
2236.68
  0
LINE
  8
0
 10
1453.92
 11
1453.81
 20
2236.68
 21
2236.51
  0
LINE
  8
0
 10
1453.81
 11
1453.69
 20
2236.51
 21
2236.36
  0
LINE
  8
0
 10
1453.69
 11
1453.55
 20
2236.36
 21
2236.22
  0
LINE
  8
0
 10
1453.55
 11
1453.4
 20
2236.22
 21
2236.08
  0
LINE
  8
0
 10
1453.4
 11
1453.25
 20
2236.08
 21
2235.96
  0
LINE
  8
0
 10
1453.25
 11
1453.08
 20
2235.96
 21
2235.85
  0
LINE
  8
0
 10
1453.08
 11
1452.9
 20
2235.85
 21
2235.76
  0
LINE
  8
0
 10
1452.9
 11
1452.72
 20
2235.76
 21
2235.68
  0
LINE
  8
0
 10
1452.72
 11
1452.54
 20
2235.68
 21
2235.61
  0
LINE
  8
0
 10
1452.54
 11
1452.34
 20
2235.61
 21
2235.56
  0
LINE
  8
0
 10
1452.34
 11
1452.15
 20
2235.56
 21
2235.52
  0
LINE
  8
0
 10
1452.15
 11
1451.95
 20
2235.52
 21
2235.5
  0
LINE
  8
0
 10
1451.95
 11
1451.75
 20
2235.5
 21
2235.5
  0
LINE
  8
0
 10
1451.75
 11
1451.55
 20
2235.5
 21
2235.51
  0
LINE
  8
0
 10
1451.55
 11
1451.36
 20
2235.51
 21
2235.54
  0
LINE
  8
0
 10
1451.36
 11
1451.16
 20
2235.54
 21
2235.58
  0
LINE
  8
0
 10
1451.16
 11
1450.97
 20
2235.58
 21
2235.64
  0
LINE
  8
0
 10
1450.97
 11
1450.79
 20
2235.64
 21
2235.72
  0
LINE
  8
0
 10
1450.79
 11
1450.61
 20
2235.72
 21
2235.8
  0
LINE
  8
0
 10
1450.61
 11
1450.44
 20
2235.8
 21
2235.9
  0
LINE
  8
0
 10
1450.44
 11
1450.28
 20
2235.9
 21
2236.02
  0
LINE
  8
0
 10
1450.28
 11
1450.12
 20
2236.02
 21
2236.15
  0
LINE
  8
0
 10
1450.12
 11
1449.98
 20
2236.15
 21
2236.29
  0
LINE
  8
0
 10
1449.98
 11
1449.85
 20
2236.29
 21
2236.44
  0
LINE
  8
0
 10
1449.85
 11
1449.73
 20
2236.44
 21
2236.6
  0
LINE
  8
0
 10
1449.73
 11
1449.63
 20
2236.6
 21
2236.76
  0
LINE
  8
0
 10
1449.63
 11
1449.54
 20
2236.76
 21
2236.94
  0
LINE
  8
0
 10
1449.54
 11
1449.46
 20
2236.94
 21
2237.12
  0
LINE
  8
0
 10
1449.46
 11
1449.4
 20
2237.12
 21
2237.31
  0
LINE
  8
0
 10
1449.4
 11
1449.35
 20
2237.31
 21
2237.51
  0
LINE
  8
0
 10
1449.35
 11
1449.32
 20
2237.51
 21
2237.7
  0
LINE
  8
0
 10
1449.32
 11
1449.3
 20
2237.7
 21
2237.9
  0
LINE
  8
0
 10
1471.65
 11
1471.65
 20
1122.4
 21
1178.4
  0
LINE
  8
0
 10
1471.65
 11
1471.75
 20
1178.4
 21
1179.02
  0
LINE
  8
0
 10
1471.75
 11
1472.04
 20
1179.02
 21
1179.58
  0
LINE
  8
0
 10
1472.04
 11
1472.48
 20
1179.58
 21
1180.02
  0
LINE
  8
0
 10
1472.48
 11
1473.04
 20
1180.02
 21
1180.3
  0
LINE
  8
0
 10
1473.04
 11
1473.65
 20
1180.3
 21
1180.4
  0
LINE
  8
0
 10
1473.65
 11
1474.27
 20
1180.4
 21
1180.3
  0
LINE
  8
0
 10
1474.27
 11
1474.83
 20
1180.3
 21
1180.02
  0
LINE
  8
0
 10
1474.83
 11
1475.27
 20
1180.02
 21
1179.58
  0
LINE
  8
0
 10
1475.27
 11
1475.56
 20
1179.58
 21
1179.02
  0
LINE
  8
0
 10
1475.56
 11
1475.65
 20
1179.02
 21
1178.4
  0
LINE
  8
0
 10
1475.65
 11
1475.65
 20
1178.4
 21
1122.4
  0
LINE
  8
0
 10
1475.65
 11
1475.56
 20
1122.4
 21
1121.78
  0
LINE
  8
0
 10
1475.56
 11
1475.27
 20
1121.78
 21
1121.22
  0
LINE
  8
0
 10
1475.27
 11
1474.83
 20
1121.22
 21
1120.78
  0
LINE
  8
0
 10
1474.83
 11
1474.27
 20
1120.78
 21
1120.5
  0
LINE
  8
0
 10
1474.27
 11
1473.65
 20
1120.5
 21
1120.4
  0
LINE
  8
0
 10
1473.65
 11
1473.04
 20
1120.4
 21
1120.5
  0
LINE
  8
0
 10
1473.04
 11
1472.48
 20
1120.5
 21
1120.78
  0
LINE
  8
0
 10
1472.48
 11
1472.04
 20
1120.78
 21
1121.22
  0
LINE
  8
0
 10
1472.04
 11
1471.75
 20
1121.22
 21
1121.78
  0
LINE
  8
0
 10
1471.75
 11
1471.65
 20
1121.78
 21
1122.4
  0
LINE
  8
0
 10
1501.9
 11
1501.9
 20
1122.4
 21
1178.4
  0
LINE
  8
0
 10
1501.9
 11
1502
 20
1178.4
 21
1179.02
  0
LINE
  8
0
 10
1502
 11
1502.28
 20
1179.02
 21
1179.58
  0
LINE
  8
0
 10
1502.28
 11
1502.73
 20
1179.58
 21
1180.02
  0
LINE
  8
0
 10
1502.73
 11
1503.28
 20
1180.02
 21
1180.3
  0
LINE
  8
0
 10
1503.28
 11
1503.9
 20
1180.3
 21
1180.4
  0
LINE
  8
0
 10
1503.9
 11
1504.52
 20
1180.4
 21
1180.3
  0
LINE
  8
0
 10
1504.52
 11
1505.08
 20
1180.3
 21
1180.02
  0
LINE
  8
0
 10
1505.08
 11
1505.52
 20
1180.02
 21
1179.58
  0
LINE
  8
0
 10
1505.52
 11
1505.8
 20
1179.58
 21
1179.02
  0
LINE
  8
0
 10
1505.8
 11
1505.9
 20
1179.02
 21
1178.4
  0
LINE
  8
0
 10
1505.9
 11
1505.9
 20
1178.4
 21
1122.4
  0
LINE
  8
0
 10
1505.9
 11
1505.8
 20
1122.4
 21
1121.78
  0
LINE
  8
0
 10
1505.8
 11
1505.52
 20
1121.78
 21
1121.22
  0
LINE
  8
0
 10
1505.52
 11
1505.08
 20
1121.22
 21
1120.78
  0
LINE
  8
0
 10
1505.08
 11
1504.52
 20
1120.78
 21
1120.5
  0
LINE
  8
0
 10
1504.52
 11
1503.9
 20
1120.5
 21
1120.4
  0
LINE
  8
0
 10
1503.9
 11
1503.28
 20
1120.4
 21
1120.5
  0
LINE
  8
0
 10
1503.28
 11
1502.73
 20
1120.5
 21
1120.78
  0
LINE
  8
0
 10
1502.73
 11
1502.28
 20
1120.78
 21
1121.22
  0
LINE
  8
0
 10
1502.28
 11
1502
 20
1121.22
 21
1121.78
  0
LINE
  8
0
 10
1502
 11
1501.9
 20
1121.78
 21
1122.4
  0
LINE
  8
0
 10
1589.5
 11
1589.5
 20
1217.3
 21
1217.5
  0
LINE
  8
0
 10
1589.5
 11
1589.52
 20
1217.5
 21
1217.7
  0
LINE
  8
0
 10
1589.52
 11
1589.55
 20
1217.7
 21
1217.89
  0
LINE
  8
0
 10
1589.55
 11
1589.6
 20
1217.89
 21
1218.09
  0
LINE
  8
0
 10
1589.6
 11
1589.66
 20
1218.09
 21
1218.28
  0
LINE
  8
0
 10
1589.66
 11
1589.74
 20
1218.28
 21
1218.46
  0
LINE
  8
0
 10
1589.74
 11
1589.83
 20
1218.46
 21
1218.64
  0
LINE
  8
0
 10
1589.83
 11
1589.93
 20
1218.64
 21
1218.8
  0
LINE
  8
0
 10
1589.93
 11
1590.05
 20
1218.8
 21
1218.96
  0
LINE
  8
0
 10
1590.05
 11
1590.18
 20
1218.96
 21
1219.11
  0
LINE
  8
0
 10
1590.18
 11
1590.32
 20
1219.11
 21
1219.25
  0
LINE
  8
0
 10
1590.32
 11
1590.48
 20
1219.25
 21
1219.38
  0
LINE
  8
0
 10
1590.48
 11
1590.64
 20
1219.38
 21
1219.5
  0
LINE
  8
0
 10
1590.64
 11
1590.81
 20
1219.5
 21
1219.6
  0
LINE
  8
0
 10
1590.81
 11
1590.99
 20
1219.6
 21
1219.68
  0
LINE
  8
0
 10
1590.99
 11
1591.17
 20
1219.68
 21
1219.76
  0
LINE
  8
0
 10
1591.17
 11
1591.36
 20
1219.76
 21
1219.82
  0
LINE
  8
0
 10
1591.36
 11
1591.56
 20
1219.82
 21
1219.86
  0
LINE
  8
0
 10
1591.56
 11
1591.75
 20
1219.86
 21
1219.89
  0
LINE
  8
0
 10
1591.75
 11
1591.95
 20
1219.89
 21
1219.9
  0
LINE
  8
0
 10
1591.95
 11
1592.15
 20
1219.9
 21
1219.9
  0
LINE
  8
0
 10
1592.15
 11
1592.35
 20
1219.9
 21
1219.88
  0
LINE
  8
0
 10
1592.35
 11
1592.54
 20
1219.88
 21
1219.84
  0
LINE
  8
0
 10
1592.54
 11
1592.74
 20
1219.84
 21
1219.79
  0
LINE
  8
0
 10
1592.74
 11
1592.92
 20
1219.79
 21
1219.72
  0
LINE
  8
0
 10
1592.92
 11
1593.1
 20
1219.72
 21
1219.64
  0
LINE
  8
0
 10
1593.1
 11
1593.28
 20
1219.64
 21
1219.55
  0
LINE
  8
0
 10
1593.28
 11
1593.44
 20
1219.55
 21
1219.44
  0
LINE
  8
0
 10
1593.44
 11
1593.6
 20
1219.44
 21
1219.32
  0
LINE
  8
0
 10
1593.6
 11
1593.75
 20
1219.32
 21
1219.18
  0
LINE
  8
0
 10
1593.75
 11
1593.89
 20
1219.18
 21
1219.04
  0
LINE
  8
0
 10
1593.89
 11
1594.01
 20
1219.04
 21
1218.89
  0
LINE
  8
0
 10
1594.01
 11
1594.12
 20
1218.89
 21
1218.72
  0
LINE
  8
0
 10
1594.12
 11
1594.22
 20
1218.72
 21
1218.55
  0
LINE
  8
0
 10
1594.22
 11
1594.31
 20
1218.55
 21
1218.37
  0
LINE
  8
0
 10
1594.31
 11
1594.38
 20
1218.37
 21
1218.18
  0
LINE
  8
0
 10
1594.38
 11
1594.43
 20
1218.18
 21
1217.99
  0
LINE
  8
0
 10
1594.43
 11
1594.47
 20
1217.99
 21
1217.8
  0
LINE
  8
0
 10
1594.47
 11
1594.49
 20
1217.8
 21
1217.6
  0
LINE
  8
0
 10
1594.49
 11
1594.5
 20
1217.6
 21
1217.4
  0
LINE
  8
0
 10
1594.5
 11
1594.49
 20
1217.4
 21
1217.2
  0
LINE
  8
0
 10
1594.49
 11
1594.47
 20
1217.2
 21
1217
  0
LINE
  8
0
 10
1594.47
 11
1594.43
 20
1217
 21
1216.81
  0
LINE
  8
0
 10
1594.43
 11
1594.38
 20
1216.81
 21
1216.62
  0
LINE
  8
0
 10
1594.38
 11
1594.31
 20
1216.62
 21
1216.43
  0
LINE
  8
0
 10
1594.31
 11
1594.22
 20
1216.43
 21
1216.25
  0
LINE
  8
0
 10
1594.22
 11
1594.12
 20
1216.25
 21
1216.08
  0
LINE
  8
0
 10
1594.12
 11
1594.01
 20
1216.08
 21
1215.91
  0
LINE
  8
0
 10
1594.01
 11
1593.89
 20
1215.91
 21
1215.76
  0
LINE
  8
0
 10
1593.89
 11
1593.75
 20
1215.76
 21
1215.62
  0
LINE
  8
0
 10
1593.75
 11
1593.6
 20
1215.62
 21
1215.48
  0
LINE
  8
0
 10
1593.6
 11
1593.44
 20
1215.48
 21
1215.36
  0
LINE
  8
0
 10
1593.44
 11
1593.28
 20
1215.36
 21
1215.25
  0
LINE
  8
0
 10
1593.28
 11
1593.1
 20
1215.25
 21
1215.16
  0
LINE
  8
0
 10
1593.1
 11
1592.92
 20
1215.16
 21
1215.08
  0
LINE
  8
0
 10
1592.92
 11
1592.74
 20
1215.08
 21
1215.01
  0
LINE
  8
0
 10
1592.74
 11
1592.54
 20
1215.01
 21
1214.96
  0
LINE
  8
0
 10
1592.54
 11
1592.35
 20
1214.96
 21
1214.92
  0
LINE
  8
0
 10
1592.35
 11
1592.15
 20
1214.92
 21
1214.9
  0
LINE
  8
0
 10
1592.15
 11
1591.95
 20
1214.9
 21
1214.9
  0
LINE
  8
0
 10
1591.95
 11
1591.75
 20
1214.9
 21
1214.91
  0
LINE
  8
0
 10
1591.75
 11
1591.56
 20
1214.91
 21
1214.94
  0
LINE
  8
0
 10
1591.56
 11
1591.36
 20
1214.94
 21
1214.98
  0
LINE
  8
0
 10
1591.36
 11
1591.17
 20
1214.98
 21
1215.04
  0
LINE
  8
0
 10
1591.17
 11
1590.99
 20
1215.04
 21
1215.12
  0
LINE
  8
0
 10
1590.99
 11
1590.81
 20
1215.12
 21
1215.2
  0
LINE
  8
0
 10
1590.81
 11
1590.64
 20
1215.2
 21
1215.3
  0
LINE
  8
0
 10
1590.64
 11
1590.48
 20
1215.3
 21
1215.42
  0
LINE
  8
0
 10
1590.48
 11
1590.32
 20
1215.42
 21
1215.55
  0
LINE
  8
0
 10
1590.32
 11
1590.18
 20
1215.55
 21
1215.69
  0
LINE
  8
0
 10
1590.18
 11
1590.05
 20
1215.69
 21
1215.84
  0
LINE
  8
0
 10
1590.05
 11
1589.93
 20
1215.84
 21
1216
  0
LINE
  8
0
 10
1589.93
 11
1589.83
 20
1216
 21
1216.16
  0
LINE
  8
0
 10
1589.83
 11
1589.74
 20
1216.16
 21
1216.34
  0
LINE
  8
0
 10
1589.74
 11
1589.66
 20
1216.34
 21
1216.52
  0
LINE
  8
0
 10
1589.66
 11
1589.6
 20
1216.52
 21
1216.71
  0
LINE
  8
0
 10
1589.6
 11
1589.55
 20
1216.71
 21
1216.91
  0
LINE
  8
0
 10
1589.55
 11
1589.52
 20
1216.91
 21
1217.1
  0
LINE
  8
0
 10
1589.52
 11
1589.5
 20
1217.1
 21
1217.3
  0
LINE
  8
0
 10
1688.45
 11
1688.45
 20
7.55
 21
10.45
  0
LINE
  8
0
 10
1688.45
 11
1688.58
 20
10.45
 21
11.238
  0
LINE
  8
0
 10
1688.58
 11
1688.94
 20
11.238
 21
11.949
  0
LINE
  8
0
 10
1688.94
 11
1689.5
 20
11.949
 21
12.513
  0
LINE
  8
0
 10
1689.5
 11
1690.21
 20
12.513
 21
12.875
  0
LINE
  8
0
 10
1690.21
 11
1691
 20
12.875
 21
13
  0
LINE
  8
0
 10
1691
 11
1691.79
 20
13
 21
12.875
  0
LINE
  8
0
 10
1691.79
 11
1692.5
 20
12.875
 21
12.513
  0
LINE
  8
0
 10
1692.5
 11
1693.06
 20
12.513
 21
11.949
  0
LINE
  8
0
 10
1693.06
 11
1693.42
 20
11.949
 21
11.238
  0
LINE
  8
0
 10
1693.42
 11
1693.55
 20
11.238
 21
10.45
  0
LINE
  8
0
 10
1693.55
 11
1693.55
 20
10.45
 21
7.55
  0
LINE
  8
0
 10
1693.55
 11
1693.42
 20
7.55
 21
6.762
  0
LINE
  8
0
 10
1693.42
 11
1693.06
 20
6.762
 21
6.051
  0
LINE
  8
0
 10
1693.06
 11
1692.5
 20
6.051
 21
5.487
  0
LINE
  8
0
 10
1692.5
 11
1691.79
 20
5.487
 21
5.125
  0
LINE
  8
0
 10
1691.79
 11
1691
 20
5.125
 21
5
  0
LINE
  8
0
 10
1691
 11
1690.21
 20
5
 21
5.125
  0
LINE
  8
0
 10
1690.21
 11
1689.5
 20
5.125
 21
5.487
  0
LINE
  8
0
 10
1689.5
 11
1688.94
 20
5.487
 21
6.051
  0
LINE
  8
0
 10
1688.94
 11
1688.58
 20
6.051
 21
6.762
  0
LINE
  8
0
 10
1688.58
 11
1688.45
 20
6.762
 21
7.55
  0
LINE
  8
0
 10
1688.45
 11
1688.45
 20
923.55
 21
926.45
  0
LINE
  8
0
 10
1688.45
 11
1688.58
 20
926.45
 21
927.238
  0
LINE
  8
0
 10
1688.58
 11
1688.94
 20
927.238
 21
927.949
  0
LINE
  8
0
 10
1688.94
 11
1689.5
 20
927.949
 21
928.513
  0
LINE
  8
0
 10
1689.5
 11
1690.21
 20
928.513
 21
928.875
  0
LINE
  8
0
 10
1690.21
 11
1691
 20
928.875
 21
929
  0
LINE
  8
0
 10
1691
 11
1691.79
 20
929
 21
928.875
  0
LINE
  8
0
 10
1691.79
 11
1692.5
 20
928.875
 21
928.513
  0
LINE
  8
0
 10
1692.5
 11
1693.06
 20
928.513
 21
927.949
  0
LINE
  8
0
 10
1693.06
 11
1693.42
 20
927.949
 21
927.238
  0
LINE
  8
0
 10
1693.42
 11
1693.55
 20
927.238
 21
926.45
  0
LINE
  8
0
 10
1693.55
 11
1693.55
 20
926.45
 21
923.55
  0
LINE
  8
0
 10
1693.55
 11
1693.42
 20
923.55
 21
922.762
  0
LINE
  8
0
 10
1693.42
 11
1693.06
 20
922.762
 21
922.051
  0
LINE
  8
0
 10
1693.06
 11
1692.5
 20
922.051
 21
921.487
  0
LINE
  8
0
 10
1692.5
 11
1691.79
 20
921.487
 21
921.125
  0
LINE
  8
0
 10
1691.79
 11
1691
 20
921.125
 21
921
  0
LINE
  8
0
 10
1691
 11
1690.21
 20
921
 21
921.125
  0
LINE
  8
0
 10
1690.21
 11
1689.5
 20
921.125
 21
921.487
  0
LINE
  8
0
 10
1689.5
 11
1688.94
 20
921.487
 21
922.051
  0
LINE
  8
0
 10
1688.94
 11
1688.58
 20
922.051
 21
922.762
  0
LINE
  8
0
 10
1688.58
 11
1688.45
 20
922.762
 21
923.55
  0
LINE
  8
0
 10
1688.48
 11
1688.48
 20
1259.32
 21
1262.28
  0
LINE
  8
0
 10
1688.48
 11
1688.6
 20
1262.28
 21
1263.06
  0
LINE
  8
0
 10
1688.6
 11
1688.96
 20
1263.06
 21
1263.76
  0
LINE
  8
0
 10
1688.96
 11
1689.52
 20
1263.76
 21
1264.32
  0
LINE
  8
0
 10
1689.52
 11
1690.22
 20
1264.32
 21
1264.68
  0
LINE
  8
0
 10
1690.22
 11
1691
 20
1264.68
 21
1264.8
  0
LINE
  8
0
 10
1691
 11
1691.78
 20
1264.8
 21
1264.68
  0
LINE
  8
0
 10
1691.78
 11
1692.48
 20
1264.68
 21
1264.32
  0
LINE
  8
0
 10
1692.48
 11
1693.04
 20
1264.32
 21
1263.76
  0
LINE
  8
0
 10
1693.04
 11
1693.4
 20
1263.76
 21
1263.06
  0
LINE
  8
0
 10
1693.4
 11
1693.52
 20
1263.06
 21
1262.28
  0
LINE
  8
0
 10
1693.52
 11
1693.52
 20
1262.28
 21
1259.32
  0
LINE
  8
0
 10
1693.52
 11
1693.4
 20
1259.32
 21
1258.54
  0
LINE
  8
0
 10
1693.4
 11
1693.04
 20
1258.54
 21
1257.84
  0
LINE
  8
0
 10
1693.04
 11
1692.48
 20
1257.84
 21
1257.28
  0
LINE
  8
0
 10
1692.48
 11
1691.78
 20
1257.28
 21
1256.92
  0
LINE
  8
0
 10
1691.78
 11
1691
 20
1256.92
 21
1256.8
  0
LINE
  8
0
 10
1691
 11
1690.22
 20
1256.8
 21
1256.92
  0
LINE
  8
0
 10
1690.22
 11
1689.52
 20
1256.92
 21
1257.28
  0
LINE
  8
0
 10
1689.52
 11
1688.96
 20
1257.28
 21
1257.84
  0
LINE
  8
0
 10
1688.96
 11
1688.6
 20
1257.84
 21
1258.54
  0
LINE
  8
0
 10
1688.6
 11
1688.48
 20
1258.54
 21
1259.32
  0
LINE
  8
0
 10
1688.48
 11
1688.48
 20
1508.32
 21
1511.28
  0
LINE
  8
0
 10
1688.48
 11
1688.6
 20
1511.28
 21
1512.06
  0
LINE
  8
0
 10
1688.6
 11
1688.96
 20
1512.06
 21
1512.76
  0
LINE
  8
0
 10
1688.96
 11
1689.52
 20
1512.76
 21
1513.32
  0
LINE
  8
0
 10
1689.52
 11
1690.22
 20
1513.32
 21
1513.68
  0
LINE
  8
0
 10
1690.22
 11
1691
 20
1513.68
 21
1513.8
  0
LINE
  8
0
 10
1691
 11
1691.78
 20
1513.8
 21
1513.68
  0
LINE
  8
0
 10
1691.78
 11
1692.48
 20
1513.68
 21
1513.32
  0
LINE
  8
0
 10
1692.48
 11
1693.04
 20
1513.32
 21
1512.76
  0
LINE
  8
0
 10
1693.04
 11
1693.4
 20
1512.76
 21
1512.06
  0
LINE
  8
0
 10
1693.4
 11
1693.52
 20
1512.06
 21
1511.28
  0
LINE
  8
0
 10
1693.52
 11
1693.52
 20
1511.28
 21
1508.32
  0
LINE
  8
0
 10
1693.52
 11
1693.4
 20
1508.32
 21
1507.54
  0
LINE
  8
0
 10
1693.4
 11
1693.04
 20
1507.54
 21
1506.84
  0
LINE
  8
0
 10
1693.04
 11
1692.48
 20
1506.84
 21
1506.28
  0
LINE
  8
0
 10
1692.48
 11
1691.78
 20
1506.28
 21
1505.92
  0
LINE
  8
0
 10
1691.78
 11
1691
 20
1505.92
 21
1505.8
  0
LINE
  8
0
 10
1691
 11
1690.22
 20
1505.8
 21
1505.92
  0
LINE
  8
0
 10
1690.22
 11
1689.52
 20
1505.92
 21
1506.28
  0
LINE
  8
0
 10
1689.52
 11
1688.96
 20
1506.28
 21
1506.84
  0
LINE
  8
0
 10
1688.96
 11
1688.6
 20
1506.84
 21
1507.54
  0
LINE
  8
0
 10
1688.6
 11
1688.48
 20
1507.54
 21
1508.32
  0
LINE
  8
0
 10
1688.5
 11
1688.5
 20
968.301
 21
968.499
  0
LINE
  8
0
 10
1688.5
 11
1688.52
 20
968.499
 21
968.698
  0
LINE
  8
0
 10
1688.52
 11
1688.55
 20
968.698
 21
968.894
  0
LINE
  8
0
 10
1688.55
 11
1688.6
 20
968.894
 21
969.087
  0
LINE
  8
0
 10
1688.6
 11
1688.66
 20
969.087
 21
969.276
  0
LINE
  8
0
 10
1688.66
 11
1688.74
 20
969.276
 21
969.459
  0
LINE
  8
0
 10
1688.74
 11
1688.83
 20
969.459
 21
969.636
  0
LINE
  8
0
 10
1688.83
 11
1688.93
 20
969.636
 21
969.804
  0
LINE
  8
0
 10
1688.93
 11
1689.05
 20
969.804
 21
969.964
  0
LINE
  8
0
 10
1689.05
 11
1689.18
 20
969.964
 21
970.114
  0
LINE
  8
0
 10
1689.18
 11
1689.32
 20
970.114
 21
970.253
  0
LINE
  8
0
 10
1689.32
 11
1689.48
 20
970.253
 21
970.381
  0
LINE
  8
0
 10
1689.48
 11
1689.64
 20
970.381
 21
970.496
  0
LINE
  8
0
 10
1689.64
 11
1689.81
 20
970.496
 21
970.597
  0
LINE
  8
0
 10
1689.81
 11
1689.99
 20
970.597
 21
970.685
  0
LINE
  8
0
 10
1689.99
 11
1690.17
 20
970.685
 21
970.759
  0
LINE
  8
0
 10
1690.17
 11
1690.36
 20
970.759
 21
970.817
  0
LINE
  8
0
 10
1690.36
 11
1690.56
 20
970.817
 21
970.86
  0
LINE
  8
0
 10
1690.56
 11
1690.75
 20
970.86
 21
970.888
  0
LINE
  8
0
 10
1690.75
 11
1690.95
 20
970.888
 21
970.9
  0
LINE
  8
0
 10
1690.95
 11
1691.15
 20
970.9
 21
970.896
  0
LINE
  8
0
 10
1691.15
 11
1691.35
 20
970.896
 21
970.876
  0
LINE
  8
0
 10
1691.35
 11
1691.54
 20
970.876
 21
970.84
  0
LINE
  8
0
 10
1691.54
 11
1691.74
 20
970.84
 21
970.79
  0
LINE
  8
0
 10
1691.74
 11
1691.92
 20
970.79
 21
970.724
  0
LINE
  8
0
 10
1691.92
 11
1692.1
 20
970.724
 21
970.643
  0
LINE
  8
0
 10
1692.1
 11
1692.28
 20
970.643
 21
970.548
  0
LINE
  8
0
 10
1692.28
 11
1692.44
 20
970.548
 21
970.44
  0
LINE
  8
0
 10
1692.44
 11
1692.6
 20
970.44
 21
970.319
  0
LINE
  8
0
 10
1692.6
 11
1692.75
 20
970.319
 21
970.185
  0
LINE
  8
0
 10
1692.75
 11
1692.89
 20
970.185
 21
970.041
  0
LINE
  8
0
 10
1692.89
 11
1693.01
 20
970.041
 21
969.886
  0
LINE
  8
0
 10
1693.01
 11
1693.12
 20
969.886
 21
969.721
  0
LINE
  8
0
 10
1693.12
 11
1693.22
 20
969.721
 21
969.548
  0
LINE
  8
0
 10
1693.22
 11
1693.31
 20
969.548
 21
969.368
  0
LINE
  8
0
 10
1693.31
 11
1693.38
 20
969.368
 21
969.182
  0
LINE
  8
0
 10
1693.38
 11
1693.43
 20
969.182
 21
968.991
  0
LINE
  8
0
 10
1693.43
 11
1693.47
 20
968.991
 21
968.796
  0
LINE
  8
0
 10
1693.47
 11
1693.49
 20
968.796
 21
968.599
  0
LINE
  8
0
 10
1693.49
 11
1693.5
 20
968.599
 21
968.4
  0
LINE
  8
0
 10
1693.5
 11
1693.49
 20
968.4
 21
968.201
  0
LINE
  8
0
 10
1693.49
 11
1693.47
 20
968.201
 21
968.004
  0
LINE
  8
0
 10
1693.47
 11
1693.43
 20
968.004
 21
967.809
  0
LINE
  8
0
 10
1693.43
 11
1693.38
 20
967.809
 21
967.618
  0
LINE
  8
0
 10
1693.38
 11
1693.31
 20
967.618
 21
967.432
  0
LINE
  8
0
 10
1693.31
 11
1693.22
 20
967.432
 21
967.252
  0
LINE
  8
0
 10
1693.22
 11
1693.12
 20
967.252
 21
967.079
  0
LINE
  8
0
 10
1693.12
 11
1693.01
 20
967.079
 21
966.914
  0
LINE
  8
0
 10
1693.01
 11
1692.89
 20
966.914
 21
966.759
  0
LINE
  8
0
 10
1692.89
 11
1692.75
 20
966.759
 21
966.615
  0
LINE
  8
0
 10
1692.75
 11
1692.6
 20
966.615
 21
966.481
  0
LINE
  8
0
 10
1692.6
 11
1692.44
 20
966.481
 21
966.36
  0
LINE
  8
0
 10
1692.44
 11
1692.28
 20
966.36
 21
966.252
  0
LINE
  8
0
 10
1692.28
 11
1692.1
 20
966.252
 21
966.157
  0
LINE
  8
0
 10
1692.1
 11
1691.92
 20
966.157
 21
966.076
  0
LINE
  8
0
 10
1691.92
 11
1691.74
 20
966.076
 21
966.01
  0
LINE
  8
0
 10
1691.74
 11
1691.54
 20
966.01
 21
965.96
  0
LINE
  8
0
 10
1691.54
 11
1691.35
 20
965.96
 21
965.924
  0
LINE
  8
0
 10
1691.35
 11
1691.15
 20
965.924
 21
965.904
  0
LINE
  8
0
 10
1691.15
 11
1690.95
 20
965.904
 21
965.9
  0
LINE
  8
0
 10
1690.95
 11
1690.75
 20
965.9
 21
965.912
  0
LINE
  8
0
 10
1690.75
 11
1690.56
 20
965.912
 21
965.94
  0
LINE
  8
0
 10
1690.56
 11
1690.36
 20
965.94
 21
965.983
  0
LINE
  8
0
 10
1690.36
 11
1690.17
 20
965.983
 21
966.041
  0
LINE
  8
0
 10
1690.17
 11
1689.99
 20
966.041
 21
966.115
  0
LINE
  8
0
 10
1689.99
 11
1689.81
 20
966.115
 21
966.203
  0
LINE
  8
0
 10
1689.81
 11
1689.64
 20
966.203
 21
966.304
  0
LINE
  8
0
 10
1689.64
 11
1689.48
 20
966.304
 21
966.419
  0
LINE
  8
0
 10
1689.48
 11
1689.32
 20
966.419
 21
966.547
  0
LINE
  8
0
 10
1689.32
 11
1689.18
 20
966.547
 21
966.686
  0
LINE
  8
0
 10
1689.18
 11
1689.05
 20
966.686
 21
966.836
  0
LINE
  8
0
 10
1689.05
 11
1688.93
 20
966.836
 21
966.996
  0
LINE
  8
0
 10
1688.93
 11
1688.83
 20
966.996
 21
967.164
  0
LINE
  8
0
 10
1688.83
 11
1688.74
 20
967.164
 21
967.341
  0
LINE
  8
0
 10
1688.74
 11
1688.66
 20
967.341
 21
967.524
  0
LINE
  8
0
 10
1688.66
 11
1688.6
 20
967.524
 21
967.713
  0
LINE
  8
0
 10
1688.6
 11
1688.55
 20
967.713
 21
967.906
  0
LINE
  8
0
 10
1688.55
 11
1688.52
 20
967.906
 21
968.102
  0
LINE
  8
0
 10
1688.52
 11
1688.5
 20
968.102
 21
968.301
  0
LINE
  8
0
 10
1737.5
 11
1737.5
 20
1217.3
 21
1217.5
  0
LINE
  8
0
 10
1737.5
 11
1737.52
 20
1217.5
 21
1217.7
  0
LINE
  8
0
 10
1737.52
 11
1737.55
 20
1217.7
 21
1217.89
  0
LINE
  8
0
 10
1737.55
 11
1737.6
 20
1217.89
 21
1218.09
  0
LINE
  8
0
 10
1737.6
 11
1737.66
 20
1218.09
 21
1218.28
  0
LINE
  8
0
 10
1737.66
 11
1737.74
 20
1218.28
 21
1218.46
  0
LINE
  8
0
 10
1737.74
 11
1737.83
 20
1218.46
 21
1218.64
  0
LINE
  8
0
 10
1737.83
 11
1737.93
 20
1218.64
 21
1218.8
  0
LINE
  8
0
 10
1737.93
 11
1738.05
 20
1218.8
 21
1218.96
  0
LINE
  8
0
 10
1738.05
 11
1738.18
 20
1218.96
 21
1219.11
  0
LINE
  8
0
 10
1738.18
 11
1738.32
 20
1219.11
 21
1219.25
  0
LINE
  8
0
 10
1738.32
 11
1738.48
 20
1219.25
 21
1219.38
  0
LINE
  8
0
 10
1738.48
 11
1738.64
 20
1219.38
 21
1219.5
  0
LINE
  8
0
 10
1738.64
 11
1738.81
 20
1219.5
 21
1219.6
  0
LINE
  8
0
 10
1738.81
 11
1738.99
 20
1219.6
 21
1219.68
  0
LINE
  8
0
 10
1738.99
 11
1739.17
 20
1219.68
 21
1219.76
  0
LINE
  8
0
 10
1739.17
 11
1739.36
 20
1219.76
 21
1219.82
  0
LINE
  8
0
 10
1739.36
 11
1739.56
 20
1219.82
 21
1219.86
  0
LINE
  8
0
 10
1739.56
 11
1739.75
 20
1219.86
 21
1219.89
  0
LINE
  8
0
 10
1739.75
 11
1739.95
 20
1219.89
 21
1219.9
  0
LINE
  8
0
 10
1739.95
 11
1740.15
 20
1219.9
 21
1219.9
  0
LINE
  8
0
 10
1740.15
 11
1740.35
 20
1219.9
 21
1219.88
  0
LINE
  8
0
 10
1740.35
 11
1740.54
 20
1219.88
 21
1219.84
  0
LINE
  8
0
 10
1740.54
 11
1740.74
 20
1219.84
 21
1219.79
  0
LINE
  8
0
 10
1740.74
 11
1740.92
 20
1219.79
 21
1219.72
  0
LINE
  8
0
 10
1740.92
 11
1741.1
 20
1219.72
 21
1219.64
  0
LINE
  8
0
 10
1741.1
 11
1741.28
 20
1219.64
 21
1219.55
  0
LINE
  8
0
 10
1741.28
 11
1741.44
 20
1219.55
 21
1219.44
  0
LINE
  8
0
 10
1741.44
 11
1741.6
 20
1219.44
 21
1219.32
  0
LINE
  8
0
 10
1741.6
 11
1741.75
 20
1219.32
 21
1219.18
  0
LINE
  8
0
 10
1741.75
 11
1741.89
 20
1219.18
 21
1219.04
  0
LINE
  8
0
 10
1741.89
 11
1742.01
 20
1219.04
 21
1218.89
  0
LINE
  8
0
 10
1742.01
 11
1742.12
 20
1218.89
 21
1218.72
  0
LINE
  8
0
 10
1742.12
 11
1742.22
 20
1218.72
 21
1218.55
  0
LINE
  8
0
 10
1742.22
 11
1742.31
 20
1218.55
 21
1218.37
  0
LINE
  8
0
 10
1742.31
 11
1742.38
 20
1218.37
 21
1218.18
  0
LINE
  8
0
 10
1742.38
 11
1742.43
 20
1218.18
 21
1217.99
  0
LINE
  8
0
 10
1742.43
 11
1742.47
 20
1217.99
 21
1217.8
  0
LINE
  8
0
 10
1742.47
 11
1742.49
 20
1217.8
 21
1217.6
  0
LINE
  8
0
 10
1742.49
 11
1742.5
 20
1217.6
 21
1217.4
  0
LINE
  8
0
 10
1742.5
 11
1742.49
 20
1217.4
 21
1217.2
  0
LINE
  8
0
 10
1742.49
 11
1742.47
 20
1217.2
 21
1217
  0
LINE
  8
0
 10
1742.47
 11
1742.43
 20
1217
 21
1216.81
  0
LINE
  8
0
 10
1742.43
 11
1742.38
 20
1216.81
 21
1216.62
  0
LINE
  8
0
 10
1742.38
 11
1742.31
 20
1216.62
 21
1216.43
  0
LINE
  8
0
 10
1742.31
 11
1742.22
 20
1216.43
 21
1216.25
  0
LINE
  8
0
 10
1742.22
 11
1742.12
 20
1216.25
 21
1216.08
  0
LINE
  8
0
 10
1742.12
 11
1742.01
 20
1216.08
 21
1215.91
  0
LINE
  8
0
 10
1742.01
 11
1741.89
 20
1215.91
 21
1215.76
  0
LINE
  8
0
 10
1741.89
 11
1741.75
 20
1215.76
 21
1215.62
  0
LINE
  8
0
 10
1741.75
 11
1741.6
 20
1215.62
 21
1215.48
  0
LINE
  8
0
 10
1741.6
 11
1741.44
 20
1215.48
 21
1215.36
  0
LINE
  8
0
 10
1741.44
 11
1741.28
 20
1215.36
 21
1215.25
  0
LINE
  8
0
 10
1741.28
 11
1741.1
 20
1215.25
 21
1215.16
  0
LINE
  8
0
 10
1741.1
 11
1740.92
 20
1215.16
 21
1215.08
  0
LINE
  8
0
 10
1740.92
 11
1740.74
 20
1215.08
 21
1215.01
  0
LINE
  8
0
 10
1740.74
 11
1740.54
 20
1215.01
 21
1214.96
  0
LINE
  8
0
 10
1740.54
 11
1740.35
 20
1214.96
 21
1214.92
  0
LINE
  8
0
 10
1740.35
 11
1740.15
 20
1214.92
 21
1214.9
  0
LINE
  8
0
 10
1740.15
 11
1739.95
 20
1214.9
 21
1214.9
  0
LINE
  8
0
 10
1739.95
 11
1739.75
 20
1214.9
 21
1214.91
  0
LINE
  8
0
 10
1739.75
 11
1739.56
 20
1214.91
 21
1214.94
  0
LINE
  8
0
 10
1739.56
 11
1739.36
 20
1214.94
 21
1214.98
  0
LINE
  8
0
 10
1739.36
 11
1739.17
 20
1214.98
 21
1215.04
  0
LINE
  8
0
 10
1739.17
 11
1738.99
 20
1215.04
 21
1215.12
  0
LINE
  8
0
 10
1738.99
 11
1738.81
 20
1215.12
 21
1215.2
  0
LINE
  8
0
 10
1738.81
 11
1738.64
 20
1215.2
 21
1215.3
  0
LINE
  8
0
 10
1738.64
 11
1738.48
 20
1215.3
 21
1215.42
  0
LINE
  8
0
 10
1738.48
 11
1738.32
 20
1215.42
 21
1215.55
  0
LINE
  8
0
 10
1738.32
 11
1738.18
 20
1215.55
 21
1215.69
  0
LINE
  8
0
 10
1738.18
 11
1738.05
 20
1215.69
 21
1215.84
  0
LINE
  8
0
 10
1738.05
 11
1737.93
 20
1215.84
 21
1216
  0
LINE
  8
0
 10
1737.93
 11
1737.83
 20
1216
 21
1216.16
  0
LINE
  8
0
 10
1737.83
 11
1737.74
 20
1216.16
 21
1216.34
  0
LINE
  8
0
 10
1737.74
 11
1737.66
 20
1216.34
 21
1216.52
  0
LINE
  8
0
 10
1737.66
 11
1737.6
 20
1216.52
 21
1216.71
  0
LINE
  8
0
 10
1737.6
 11
1737.55
 20
1216.71
 21
1216.91
  0
LINE
  8
0
 10
1737.55
 11
1737.52
 20
1216.91
 21
1217.1
  0
LINE
  8
0
 10
1737.52
 11
1737.5
 20
1217.1
 21
1217.3
  0
LINE
  8
0
 10
1777
 11
1777.12
 20
99
 21
99.788
  0
LINE
  8
0
 10
1777.12
 11
1777.49
 20
99.788
 21
100.499
  0
LINE
  8
0
 10
1777.49
 11
1778.05
 20
100.499
 21
101.063
  0
LINE
  8
0
 10
1778.05
 11
1778.76
 20
101.063
 21
101.425
  0
LINE
  8
0
 10
1778.76
 11
1779.55
 20
101.425
 21
101.55
  0
LINE
  8
0
 10
1779.55
 11
1782.45
 20
101.55
 21
101.55
  0
LINE
  8
0
 10
1782.45
 11
1783.24
 20
101.55
 21
101.425
  0
LINE
  8
0
 10
1783.24
 11
1783.95
 20
101.425
 21
101.063
  0
LINE
  8
0
 10
1783.95
 11
1784.51
 20
101.063
 21
100.499
  0
LINE
  8
0
 10
1784.51
 11
1784.88
 20
100.499
 21
99.788
  0
LINE
  8
0
 10
1784.88
 11
1785
 20
99.788
 21
99
  0
LINE
  8
0
 10
1785
 11
1784.88
 20
99
 21
98.212
  0
LINE
  8
0
 10
1784.88
 11
1784.51
 20
98.212
 21
97.501
  0
LINE
  8
0
 10
1784.51
 11
1783.95
 20
97.501
 21
96.937
  0
LINE
  8
0
 10
1783.95
 11
1783.24
 20
96.937
 21
96.575
  0
LINE
  8
0
 10
1783.24
 11
1782.45
 20
96.575
 21
96.45
  0
LINE
  8
0
 10
1782.45
 11
1779.55
 20
96.45
 21
96.45
  0
LINE
  8
0
 10
1779.55
 11
1778.76
 20
96.45
 21
96.575
  0
LINE
  8
0
 10
1778.76
 11
1778.05
 20
96.575
 21
96.937
  0
LINE
  8
0
 10
1778.05
 11
1777.49
 20
96.937
 21
97.501
  0
LINE
  8
0
 10
1777.49
 11
1777.12
 20
97.501
 21
98.212
  0
LINE
  8
0
 10
1777.12
 11
1777
 20
98.212
 21
99
  0
LINE
  8
0
 10
1777
 11
1777.12
 20
344.333
 21
345.121
  0
LINE
  8
0
 10
1777.12
 11
1777.49
 20
345.121
 21
345.832
  0
LINE
  8
0
 10
1777.49
 11
1778.05
 20
345.832
 21
346.396
  0
LINE
  8
0
 10
1778.05
 11
1778.76
 20
346.396
 21
346.758
  0
LINE
  8
0
 10
1778.76
 11
1779.55
 20
346.758
 21
346.883
  0
LINE
  8
0
 10
1779.55
 11
1782.45
 20
346.883
 21
346.883
  0
LINE
  8
0
 10
1782.45
 11
1783.24
 20
346.883
 21
346.758
  0
LINE
  8
0
 10
1783.24
 11
1783.95
 20
346.758
 21
346.396
  0
LINE
  8
0
 10
1783.95
 11
1784.51
 20
346.396
 21
345.832
  0
LINE
  8
0
 10
1784.51
 11
1784.88
 20
345.832
 21
345.121
  0
LINE
  8
0
 10
1784.88
 11
1785
 20
345.121
 21
344.333
  0
LINE
  8
0
 10
1785
 11
1784.88
 20
344.333
 21
343.545
  0
LINE
  8
0
 10
1784.88
 11
1784.51
 20
343.545
 21
342.834
  0
LINE
  8
0
 10
1784.51
 11
1783.95
 20
342.834
 21
342.27
  0
LINE
  8
0
 10
1783.95
 11
1783.24
 20
342.27
 21
341.908
  0
LINE
  8
0
 10
1783.24
 11
1782.45
 20
341.908
 21
341.783
  0
LINE
  8
0
 10
1782.45
 11
1779.55
 20
341.783
 21
341.783
  0
LINE
  8
0
 10
1779.55
 11
1778.76
 20
341.783
 21
341.908
  0
LINE
  8
0
 10
1778.76
 11
1778.05
 20
341.908
 21
342.27
  0
LINE
  8
0
 10
1778.05
 11
1777.49
 20
342.27
 21
342.834
  0
LINE
  8
0
 10
1777.49
 11
1777.12
 20
342.834
 21
343.545
  0
LINE
  8
0
 10
1777.12
 11
1777
 20
343.545
 21
344.333
  0
LINE
  8
0
 10
1777
 11
1777.12
 20
589.667
 21
590.455
  0
LINE
  8
0
 10
1777.12
 11
1777.49
 20
590.455
 21
591.166
  0
LINE
  8
0
 10
1777.49
 11
1778.05
 20
591.166
 21
591.73
  0
LINE
  8
0
 10
1778.05
 11
1778.76
 20
591.73
 21
592.092
  0
LINE
  8
0
 10
1778.76
 11
1779.55
 20
592.092
 21
592.217
  0
LINE
  8
0
 10
1779.55
 11
1782.45
 20
592.217
 21
592.217
  0
LINE
  8
0
 10
1782.45
 11
1783.24
 20
592.217
 21
592.092
  0
LINE
  8
0
 10
1783.24
 11
1783.95
 20
592.092
 21
591.73
  0
LINE
  8
0
 10
1783.95
 11
1784.51
 20
591.73
 21
591.166
  0
LINE
  8
0
 10
1784.51
 11
1784.88
 20
591.166
 21
590.455
  0
LINE
  8
0
 10
1784.88
 11
1785
 20
590.455
 21
589.667
  0
LINE
  8
0
 10
1785
 11
1784.88
 20
589.667
 21
588.879
  0
LINE
  8
0
 10
1784.88
 11
1784.51
 20
588.879
 21
588.168
  0
LINE
  8
0
 10
1784.51
 11
1783.95
 20
588.168
 21
587.604
  0
LINE
  8
0
 10
1783.95
 11
1783.24
 20
587.604
 21
587.242
  0
LINE
  8
0
 10
1783.24
 11
1782.45
 20
587.242
 21
587.117
  0
LINE
  8
0
 10
1782.45
 11
1779.55
 20
587.117
 21
587.117
  0
LINE
  8
0
 10
1779.55
 11
1778.76
 20
587.117
 21
587.242
  0
LINE
  8
0
 10
1778.76
 11
1778.05
 20
587.242
 21
587.604
  0
LINE
  8
0
 10
1778.05
 11
1777.49
 20
587.604
 21
588.168
  0
LINE
  8
0
 10
1777.49
 11
1777.12
 20
588.168
 21
588.879
  0
LINE
  8
0
 10
1777.12
 11
1777
 20
588.879
 21
589.667
  0
LINE
  8
0
 10
1777
 11
1777.12
 20
835
 21
835.788
  0
LINE
  8
0
 10
1777.12
 11
1777.49
 20
835.788
 21
836.499
  0
LINE
  8
0
 10
1777.49
 11
1778.05
 20
836.499
 21
837.063
  0
LINE
  8
0
 10
1778.05
 11
1778.76
 20
837.063
 21
837.425
  0
LINE
  8
0
 10
1778.76
 11
1779.55
 20
837.425
 21
837.55
  0
LINE
  8
0
 10
1779.55
 11
1782.45
 20
837.55
 21
837.55
  0
LINE
  8
0
 10
1782.45
 11
1783.24
 20
837.55
 21
837.425
  0
LINE
  8
0
 10
1783.24
 11
1783.95
 20
837.425
 21
837.063
  0
LINE
  8
0
 10
1783.95
 11
1784.51
 20
837.063
 21
836.499
  0
LINE
  8
0
 10
1784.51
 11
1784.88
 20
836.499
 21
835.788
  0
LINE
  8
0
 10
1784.88
 11
1785
 20
835.788
 21
835
  0
LINE
  8
0
 10
1785
 11
1784.88
 20
835
 21
834.212
  0
LINE
  8
0
 10
1784.88
 11
1784.51
 20
834.212
 21
833.501
  0
LINE
  8
0
 10
1784.51
 11
1783.95
 20
833.501
 21
832.937
  0
LINE
  8
0
 10
1783.95
 11
1783.24
 20
832.937
 21
832.575
  0
LINE
  8
0
 10
1783.24
 11
1782.45
 20
832.575
 21
832.45
  0
LINE
  8
0
 10
1782.45
 11
1779.55
 20
832.45
 21
832.45
  0
LINE
  8
0
 10
1779.55
 11
1778.76
 20
832.45
 21
832.575
  0
LINE
  8
0
 10
1778.76
 11
1778.05
 20
832.575
 21
832.937
  0
LINE
  8
0
 10
1778.05
 11
1777.49
 20
832.937
 21
833.501
  0
LINE
  8
0
 10
1777.49
 11
1777.12
 20
833.501
 21
834.212
  0
LINE
  8
0
 10
1777.12
 11
1777
 20
834.212
 21
835
  0
LINE
  8
0
 10
1778.5
 11
1778.5
 20
1092.8
 21
1093
  0
LINE
  8
0
 10
1778.5
 11
1778.52
 20
1093
 21
1093.2
  0
LINE
  8
0
 10
1778.52
 11
1778.55
 20
1093.2
 21
1093.39
  0
LINE
  8
0
 10
1778.55
 11
1778.6
 20
1093.39
 21
1093.59
  0
LINE
  8
0
 10
1778.6
 11
1778.66
 20
1093.59
 21
1093.78
  0
LINE
  8
0
 10
1778.66
 11
1778.74
 20
1093.78
 21
1093.96
  0
LINE
  8
0
 10
1778.74
 11
1778.83
 20
1093.96
 21
1094.14
  0
LINE
  8
0
 10
1778.83
 11
1778.93
 20
1094.14
 21
1094.3
  0
LINE
  8
0
 10
1778.93
 11
1779.05
 20
1094.3
 21
1094.46
  0
LINE
  8
0
 10
1779.05
 11
1779.18
 20
1094.46
 21
1094.61
  0
LINE
  8
0
 10
1779.18
 11
1779.32
 20
1094.61
 21
1094.75
  0
LINE
  8
0
 10
1779.32
 11
1779.48
 20
1094.75
 21
1094.88
  0
LINE
  8
0
 10
1779.48
 11
1779.64
 20
1094.88
 21
1095
  0
LINE
  8
0
 10
1779.64
 11
1779.81
 20
1095
 21
1095.1
  0
LINE
  8
0
 10
1779.81
 11
1779.99
 20
1095.1
 21
1095.18
  0
LINE
  8
0
 10
1779.99
 11
1780.17
 20
1095.18
 21
1095.26
  0
LINE
  8
0
 10
1780.17
 11
1780.36
 20
1095.26
 21
1095.32
  0
LINE
  8
0
 10
1780.36
 11
1780.56
 20
1095.32
 21
1095.36
  0
LINE
  8
0
 10
1780.56
 11
1780.75
 20
1095.36
 21
1095.39
  0
LINE
  8
0
 10
1780.75
 11
1780.95
 20
1095.39
 21
1095.4
  0
LINE
  8
0
 10
1780.95
 11
1781.15
 20
1095.4
 21
1095.4
  0
LINE
  8
0
 10
1781.15
 11
1781.35
 20
1095.4
 21
1095.38
  0
LINE
  8
0
 10
1781.35
 11
1781.54
 20
1095.38
 21
1095.34
  0
LINE
  8
0
 10
1781.54
 11
1781.74
 20
1095.34
 21
1095.29
  0
LINE
  8
0
 10
1781.74
 11
1781.92
 20
1095.29
 21
1095.22
  0
LINE
  8
0
 10
1781.92
 11
1782.1
 20
1095.22
 21
1095.14
  0
LINE
  8
0
 10
1782.1
 11
1782.28
 20
1095.14
 21
1095.05
  0
LINE
  8
0
 10
1782.28
 11
1782.44
 20
1095.05
 21
1094.94
  0
LINE
  8
0
 10
1782.44
 11
1782.6
 20
1094.94
 21
1094.82
  0
LINE
  8
0
 10
1782.6
 11
1782.75
 20
1094.82
 21
1094.68
  0
LINE
  8
0
 10
1782.75
 11
1782.89
 20
1094.68
 21
1094.54
  0
LINE
  8
0
 10
1782.89
 11
1783.01
 20
1094.54
 21
1094.39
  0
LINE
  8
0
 10
1783.01
 11
1783.12
 20
1094.39
 21
1094.22
  0
LINE
  8
0
 10
1783.12
 11
1783.22
 20
1094.22
 21
1094.05
  0
LINE
  8
0
 10
1783.22
 11
1783.31
 20
1094.05
 21
1093.87
  0
LINE
  8
0
 10
1783.31
 11
1783.38
 20
1093.87
 21
1093.68
  0
LINE
  8
0
 10
1783.38
 11
1783.43
 20
1093.68
 21
1093.49
  0
LINE
  8
0
 10
1783.43
 11
1783.47
 20
1093.49
 21
1093.3
  0
LINE
  8
0
 10
1783.47
 11
1783.49
 20
1093.3
 21
1093.1
  0
LINE
  8
0
 10
1783.49
 11
1783.5
 20
1093.1
 21
1092.9
  0
LINE
  8
0
 10
1783.5
 11
1783.49
 20
1092.9
 21
1092.7
  0
LINE
  8
0
 10
1783.49
 11
1783.47
 20
1092.7
 21
1092.5
  0
LINE
  8
0
 10
1783.47
 11
1783.43
 20
1092.5
 21
1092.31
  0
LINE
  8
0
 10
1783.43
 11
1783.38
 20
1092.31
 21
1092.12
  0
LINE
  8
0
 10
1783.38
 11
1783.31
 20
1092.12
 21
1091.93
  0
LINE
  8
0
 10
1783.31
 11
1783.22
 20
1091.93
 21
1091.75
  0
LINE
  8
0
 10
1783.22
 11
1783.12
 20
1091.75
 21
1091.58
  0
LINE
  8
0
 10
1783.12
 11
1783.01
 20
1091.58
 21
1091.41
  0
LINE
  8
0
 10
1783.01
 11
1782.89
 20
1091.41
 21
1091.26
  0
LINE
  8
0
 10
1782.89
 11
1782.75
 20
1091.26
 21
1091.12
  0
LINE
  8
0
 10
1782.75
 11
1782.6
 20
1091.12
 21
1090.98
  0
LINE
  8
0
 10
1782.6
 11
1782.44
 20
1090.98
 21
1090.86
  0
LINE
  8
0
 10
1782.44
 11
1782.28
 20
1090.86
 21
1090.75
  0
LINE
  8
0
 10
1782.28
 11
1782.1
 20
1090.75
 21
1090.66
  0
LINE
  8
0
 10
1782.1
 11
1781.92
 20
1090.66
 21
1090.58
  0
LINE
  8
0
 10
1781.92
 11
1781.74
 20
1090.58
 21
1090.51
  0
LINE
  8
0
 10
1781.74
 11
1781.54
 20
1090.51
 21
1090.46
  0
LINE
  8
0
 10
1781.54
 11
1781.35
 20
1090.46
 21
1090.42
  0
LINE
  8
0
 10
1781.35
 11
1781.15
 20
1090.42
 21
1090.4
  0
LINE
  8
0
 10
1781.15
 11
1780.95
 20
1090.4
 21
1090.4
  0
LINE
  8
0
 10
1780.95
 11
1780.75
 20
1090.4
 21
1090.41
  0
LINE
  8
0
 10
1780.75
 11
1780.56
 20
1090.41
 21
1090.44
  0
LINE
  8
0
 10
1780.56
 11
1780.36
 20
1090.44
 21
1090.48
  0
LINE
  8
0
 10
1780.36
 11
1780.17
 20
1090.48
 21
1090.54
  0
LINE
  8
0
 10
1780.17
 11
1779.99
 20
1090.54
 21
1090.62
  0
LINE
  8
0
 10
1779.99
 11
1779.81
 20
1090.62
 21
1090.7
  0
LINE
  8
0
 10
1779.81
 11
1779.64
 20
1090.7
 21
1090.8
  0
LINE
  8
0
 10
1779.64
 11
1779.48
 20
1090.8
 21
1090.92
  0
LINE
  8
0
 10
1779.48
 11
1779.32
 20
1090.92
 21
1091.05
  0
LINE
  8
0
 10
1779.32
 11
1779.18
 20
1091.05
 21
1091.19
  0
LINE
  8
0
 10
1779.18
 11
1779.05
 20
1091.19
 21
1091.34
  0
LINE
  8
0
 10
1779.05
 11
1778.93
 20
1091.34
 21
1091.5
  0
LINE
  8
0
 10
1778.93
 11
1778.83
 20
1091.5
 21
1091.66
  0
LINE
  8
0
 10
1778.83
 11
1778.74
 20
1091.66
 21
1091.84
  0
LINE
  8
0
 10
1778.74
 11
1778.66
 20
1091.84
 21
1092.02
  0
LINE
  8
0
 10
1778.66
 11
1778.6
 20
1092.02
 21
1092.21
  0
LINE
  8
0
 10
1778.6
 11
1778.55
 20
1092.21
 21
1092.41
  0
LINE
  8
0
 10
1778.55
 11
1778.52
 20
1092.41
 21
1092.6
  0
LINE
  8
0
 10
1778.52
 11
1778.5
 20
1092.6
 21
1092.8
  0
LINE
  8
0
 10
1782.48
 11
1782.48
 20
1379.82
 21
1382.78
  0
LINE
  8
0
 10
1782.48
 11
1782.6
 20
1382.78
 21
1383.56
  0
LINE
  8
0
 10
1782.6
 11
1782.96
 20
1383.56
 21
1384.26
  0
LINE
  8
0
 10
1782.96
 11
1783.52
 20
1384.26
 21
1384.82
  0
LINE
  8
0
 10
1783.52
 11
1784.22
 20
1384.82
 21
1385.18
  0
LINE
  8
0
 10
1784.22
 11
1785
 20
1385.18
 21
1385.3
  0
LINE
  8
0
 10
1785
 11
1785.78
 20
1385.3
 21
1385.18
  0
LINE
  8
0
 10
1785.78
 11
1786.48
 20
1385.18
 21
1384.82
  0
LINE
  8
0
 10
1786.48
 11
1787.04
 20
1384.82
 21
1384.26
  0
LINE
  8
0
 10
1787.04
 11
1787.4
 20
1384.26
 21
1383.56
  0
LINE
  8
0
 10
1787.4
 11
1787.52
 20
1383.56
 21
1382.78
  0
LINE
  8
0
 10
1787.52
 11
1787.52
 20
1382.78
 21
1379.82
  0
LINE
  8
0
 10
1787.52
 11
1787.4
 20
1379.82
 21
1379.04
  0
LINE
  8
0
 10
1787.4
 11
1787.04
 20
1379.04
 21
1378.34
  0
LINE
  8
0
 10
1787.04
 11
1786.48
 20
1378.34
 21
1377.78
  0
LINE
  8
0
 10
1786.48
 11
1785.78
 20
1377.78
 21
1377.42
  0
LINE
  8
0
 10
1785.78
 11
1785
 20
1377.42
 21
1377.3
  0
LINE
  8
0
 10
1785
 11
1784.22
 20
1377.3
 21
1377.42
  0
LINE
  8
0
 10
1784.22
 11
1783.52
 20
1377.42
 21
1377.78
  0
LINE
  8
0
 10
1783.52
 11
1782.96
 20
1377.78
 21
1378.34
  0
LINE
  8
0
 10
1782.96
 11
1782.6
 20
1378.34
 21
1379.04
  0
LINE
  8
0
 10
1782.6
 11
1782.48
 20
1379.04
 21
1379.82
  0
ENDSEC
  0
SECTION
  2
OBJECTS
  0
DICTIONARY
  0
ENDSEC
  0
EOF
