  0
SECTION
  2
HEADER
  9
$ACADVER
  1
AC1021
  9
$ACADMAINTVER
 70
    25
  9
$DWGCODEPAGE
  3
ANSI_1252
  9
$INSBASE
 10
0.0
 20
0.0
 30
0.0
  9
$EXTMIN
 10
-7.43529
 20
-11.31996
 30
0.0
  9
$EXTMAX
 10
6.58235
 20
10.19768
 30
0.0
  9
$LIMMIN
 10
0.0
 20
0.0
  9
$LIMMAX
 10
12.0
 20
9.0
  9
$ORTHOMODE
 70
     0
  9
$REGENMODE
 70
     1
  9
$FILLMODE
 70
     1
  9
$QTEXTMODE
 70
     0
  9
$MIRRTEXT
 70
     1
  9
$LTSCALE
 40
1.0
  9
$ATTMODE
 70
     1
  9
$TEXTSIZE
 40
0.2
  9
$TRACEWID
 40
0.05
  9
$TEXTSTYLE
  7
Standard
  9
$CLAYER
  8
0
  9
$CELTYPE
  6
ByLayer
  9
$CECOLOR
 62
   256
  9
$CELTSCALE
 40
1.0
  9
$DISPSILH
 70
     0
  9
$DIMSCALE
 40
1.0
  9
$DIMASZ
 40
0.18
  9
$DIMEXO
 40
0.0625
  9
$DIMDLI
 40
0.38
  9
$DIMRND
 40
0.0
  9
$DIMDLE
 40
0.0
  9
$DIMEXE
 40
0.18
  9
$DIMTP
 40
0.0
  9
$DIMTM
 40
0.0
  9
$DIMTXT
 40
0.18
  9
$DIMCEN
 40
0.09
  9
$DIMTSZ
 40
0.0
  9
$DIMTOL
 70
     0
  9
$DIMLIM
 70
     0
  9
$DIMTIH
 70
     1
  9
$DIMTOH
 70
     1
  9
$DIMSE1
 70
     0
  9
$DIMSE2
 70
     0
  9
$DIMTAD
 70
     0
  9
$DIMZIN
 70
     0
  9
$DIMBLK
  1

  9
$DIMASO
 70
     1
  9
$DIMSHO
 70
     1
  9
$DIMPOST
  1

  9
$DIMAPOST
  1

  9
$DIMALT
 70
     0
  9
$DIMALTD
 70
     2
  9
$DIMALTF
 40
25.4
  9
$DIMLFAC
 40
1.0
  9
$DIMTOFL
 70
     0
  9
$DIMTVP
 40
0.0
  9
$DIMTIX
 70
     0
  9
$DIMSOXD
 70
     0
  9
$DIMSAH
 70
     0
  9
$DIMBLK1
  1

  9
$DIMBLK2
  1

  9
$DIMSTYLE
  2
Standard
  9
$DIMCLRD
 70
     0
  9
$DIMCLRE
 70
     0
  9
$DIMCLRT
 70
     0
  9
$DIMTFAC
 40
1.0
  9
$DIMGAP
 40
0.09
  9
$DIMJUST
 70
     0
  9
$DIMSD1
 70
     0
  9
$DIMSD2
 70
     0
  9
$DIMTOLJ
 70
     1
  9
$DIMTZIN
 70
     0
  9
$DIMALTZ
 70
     0
  9
$DIMALTTZ
 70
     0
  9
$DIMUPT
 70
     0
  9
$DIMDEC
 70
     4
  9
$DIMTDEC
 70
     4
  9
$DIMALTU
 70
     2
  9
$DIMALTTD
 70
     2
  9
$DIMTXSTY
  7
Standard
  9
$DIMAUNIT
 70
     0
  9
$DIMADEC
 70
     0
  9
$DIMALTRND
 40
0.0
  9
$DIMAZIN
 70
     0
  9
$DIMDSEP
 70
    46
  9
$DIMATFIT
 70
     3
  9
$DIMFRAC
 70
     0
  9
$DIMLDRBLK
  1

  9
$DIMLUNIT
 70
     2
  9
$DIMLWD
 70
    -2
  9
$DIMLWE
 70
    -2
  9
$DIMTMOVE
 70
     0
  9
$DIMFXL
 40
1.0
  9
$DIMFXLON
 70
     0
  9
$DIMJOGANG
 40
0.7853981633974483
  9
$DIMTFILL
 70
     0
  9
$DIMTFILLCLR
 70
     0
  9
$DIMARCSYM
 70
     0
  9
$DIMLTYPE
  6

  9
$DIMLTEX1
  6

  9
$DIMLTEX2
  6

  9
$LUNITS
 70
     2
  9
$LUPREC
 70
     4
  9
$SKETCHINC
 40
0.1
  9
$FILLETRAD
 40
0.5
  9
$AUNITS
 70
     0
  9
$AUPREC
 70
     0
  9
$MENU
  1
.
  9
$ELEVATION
 40
0.0
  9
$PELEVATION
 40
0.0
  9
$THICKNESS
 40
0.0
  9
$LIMCHECK
 70
     0
  9
$CHAMFERA
 40
0.5
  9
$CHAMFERB
 40
0.5
  9
$CHAMFERC
 40
1.0
  9
$CHAMFERD
 40
0.0
  9
$SKPOLY
 70
     0
  9
$TDCREATE
 40
2456237.468294433
  9
$TDUCREATE
 40
2456237.426627766
  9
$TDUPDATE
 40
2456237.468295463
  9
$TDUUPDATE
 40
2456237.426628796
  9
$TDINDWG
 40
0.0000000116
  9
$TDUSRTIMER
 40
0.0000000116
  9
$USRTIMER
 70
     1
  9
$ANGBASE
 50
0.0
  9
$ANGDIR
 70
     0
  9
$PDMODE
 70
     0
  9
$PDSIZE
 40
0.0
  9
$PLINEWID
 40
0.0
  9
$SPLFRAME
 70
     0
  9
$SPLINETYPE
 70
     6
  9
$SPLINESEGS
 70
     8
  9
$HANDSEED
  5
D1
  9
$SURFTAB1
 70
     6
  9
$SURFTAB2
 70
     6
  9
$SURFTYPE
 70
     6
  9
$SURFU
 70
     6
  9
$SURFV
 70
     6
  9
$UCSBASE
  2

  9
$UCSNAME
  2

  9
$UCSORG
 10
0.0
 20
0.0
 30
0.0
  9
$UCSXDIR
 10
1.0
 20
0.0
 30
0.0
  9
$UCSYDIR
 10
0.0
 20
1.0
 30
0.0
  9
$UCSORTHOREF
  2

  9
$UCSORTHOVIEW
 70
     0
  9
$UCSORGTOP
 10
0.0
 20
0.0
 30
0.0
  9
$UCSORGBOTTOM
 10
0.0
 20
0.0
 30
0.0
  9
$UCSORGLEFT
 10
0.0
 20
0.0
 30
0.0
  9
$UCSORGRIGHT
 10
0.0
 20
0.0
 30
0.0
  9
$UCSORGFRONT
 10
0.0
 20
0.0
 30
0.0
  9
$UCSORGBACK
 10
0.0
 20
0.0
 30
0.0
  9
$PUCSBASE
  2

  9
$PUCSNAME
  2

  9
$PUCSORG
 10
0.0
 20
0.0
 30
0.0
  9
$PUCSXDIR
 10
1.0
 20
0.0
 30
0.0
  9
$PUCSYDIR
 10
0.0
 20
1.0
 30
0.0
  9
$PUCSORTHOREF
  2

  9
$PUCSORTHOVIEW
 70
     0
  9
$PUCSORGTOP
 10
0.0
 20
0.0
 30
0.0
  9
$PUCSORGBOTTOM
 10
0.0
 20
0.0
 30
0.0
  9
$PUCSORGLEFT
 10
0.0
 20
0.0
 30
0.0
  9
$PUCSORGRIGHT
 10
0.0
 20
0.0
 30
0.0
  9
$PUCSORGFRONT
 10
0.0
 20
0.0
 30
0.0
  9
$PUCSORGBACK
 10
0.0
 20
0.0
 30
0.0
  9
$USERI1
 70
     0
  9
$USERI2
 70
     0
  9
$USERI3
 70
     0
  9
$USERI4
 70
     0
  9
$USERI5
 70
     0
  9
$USERR1
 40
0.0
  9
$USERR2
 40
0.0
  9
$USERR3
 40
0.0
  9
$USERR4
 40
0.0
  9
$USERR5
 40
0.0
  9
$WORLDVIEW
 70
     1
  9
$SHADEDGE
 70
     3
  9
$SHADEDIF
 70
    70
  9
$TILEMODE
 70
     1
  9
$MAXACTVP
 70
    64
  9
$PINSBASE
 10
0.0
 20
0.0
 30
0.0
  9
$PLIMCHECK
 70
     0
  9
$PEXTMIN
 10
1.000000000000000E+20
 20
1.000000000000000E+20
 30
1.000000000000000E+20
  9
$PEXTMAX
 10
-1.000000000000000E+20
 20
-1.000000000000000E+20
 30
-1.000000000000000E+20
  9
$PLIMMIN
 10
0.0
 20
0.0
  9
$PLIMMAX
 10
12.0
 20
9.0
  9
$UNITMODE
 70
     0
  9
$VISRETAIN
 70
     1
  9
$PLINEGEN
 70
     0
  9
$PSLTSCALE
 70
     1
  9
$TREEDEPTH
 70
  3020
  9
$CMLSTYLE
  2
Standard
  9
$CMLJUST
 70
     0
  9
$CMLSCALE
 40
1.0
  9
$PROXYGRAPHICS
 70
     1
  9
$MEASUREMENT
 70
     0
  9
$CELWEIGHT
370
    -1
  9
$ENDCAPS
280
     0
  9
$JOINSTYLE
280
     0
  9
$LWDISPLAY
290
     0
  9
$INSUNITS
 70
     5
  9
$HYPERLINKBASE
  1

  9
$STYLESHEET
  1

  9
$XEDIT
290
     1
  9
$CEPSNTYPE
380
     0
  9
$PSTYLEMODE
290
     1
  9
$FINGERPRINTGUID
  2
{E6F45385-1163-4E5A-A90A-1C9D2CA719C4}
  9
$VERSIONGUID
  2
{FAEB1C32-E019-11D5-929B-00C0DF256EC4}
  9
$EXTNAMES
290
     1
  9
$PSVPSCALE
 40
0.0
  9
$OLESTARTUP
290
     0
  9
$SORTENTS
280
   127
  9
$INDEXCTL
280
     0
  9
$HIDETEXT
280
     1
  9
$XCLIPFRAME
290
     0
  9
$HALOGAP
280
     0
  9
$OBSCOLOR
 70
   257
  9
$OBSLTYPE
280
     0
  9
$INTERSECTIONDISPLAY
280
     0
  9
$INTERSECTIONCOLOR
 70
   257
  9
$DIMASSOC
280
     2
  9
$PROJECTNAME
  1

  9
$CAMERADISPLAY
290
     0
  9
$LENSLENGTH
 40
50.0
  9
$CAMERAHEIGHT
 40
0.0
  9
$STEPSPERSEC
 40
2.0
  9
$STEPSIZE
 40
6.0
  9
$3DDWFPREC
 40
2.0
  9
$PSOLWIDTH
 40
0.25
  9
$PSOLHEIGHT
 40
4.0
  9
$LOFTANG1
 40
1.570796326794897
  9
$LOFTANG2
 40
1.570796326794897
  9
$LOFTMAG1
 40
0.0
  9
$LOFTMAG2
 40
0.0
  9
$LOFTPARAM
 70
     7
  9
$LOFTNORMALS
280
     1
  9
$LATITUDE
 40
37.795
  9
$LONGITUDE
 40
-122.394
  9
$NORTHDIRECTION
 40
0.0
  9
$TIMEZONE
 70
 -8000
  9
$LIGHTGLYPHDISPLAY
280
     1
  9
$TILEMODELIGHTSYNCH
280
     1
  9
$SOLIDHIST
280
     1
  9
$SHOWHIST
280
     1
  9
$DWFFRAME
280
     2
  9
$DGNFRAME
280
     2
  9
$REALWORLDSCALE
290
     1
  9
$INTERFERECOLOR
 62
   256
  9
$CSHADOW
280
     0
  9
$SHADOWPLANELOCATION
 40
0.0
  0
ENDSEC
  0
SECTION
  2
CLASSES
  0
CLASS
  1
ACDBDICTIONARYWDFLT
  2
AcDbDictionaryWithDefault
  3
ObjectDBX Classes
 90
        0
 91
        4
280
     0
281
     0
  0
CLASS
  1
VISUALSTYLE
  2
AcDbVisualStyle
  3
ObjectDBX Classes
 90
     4095
 91
        4
280
     0
281
     0
  0
CLASS
  1
MATERIAL
  2
AcDbMaterial
  3
ObjectDBX Classes
 90
     1153
 91
        4
280
     0
281
     0
  0
ENDSEC
  0
SECTION
  2
TABLES
  0
TABLE
  2
VPORT
  5
8
330
0
100
AcDbSymbolTable
 70
     1
  0
VPORT
  5
29
330
8
100
AcDbSymbolTableRecord
100
AcDbViewportTableRecord
  2
*Active
 70
     0
 10
0.0
 20
0.0
 11
1.0
 21
1.0
 12
10.42990654205607
 22
4.5
 13
0.0
 23
0.0
 14
0.5
 24
0.5
 15
0.5
 25
0.5
 16
0.0
 26
0.0
 36
1.0
 17
0.0
 27
0.0
 37
0.0
 40
9.0
 41
1.972972972850329
 42
50.0
 43
0.0
 44
0.0
 50
0.0
 51
0.0
 71
     0
 72
   100
 73
     1
 74
     3
 75
     0
 76
     0
 77
     0
 78
     0
281
     0
 65
     1
110
0.0
120
0.0
130
0.0
111
1.0
121
0.0
131
0.0
112
0.0
122
1.0
132
0.0
 79
     0
146
0.0
 60
     3
 61
     5
292
     1
282
     1
141
0.0
142
0.0
 63
   250
  0
ENDTAB
  0
TABLE
  2
LTYPE
  5
5
330
0
100
AcDbSymbolTable
 70
     1
  0
LTYPE
  5
14
330
5
100
AcDbSymbolTableRecord
100
AcDbLinetypeTableRecord
  2
ByBlock
 70
     0
  3

 72
    65
 73
     0
 40
0.0
  0
LTYPE
  5
15
330
5
100
AcDbSymbolTableRecord
100
AcDbLinetypeTableRecord
  2
ByLayer
 70
     0
  3

 72
    65
 73
     0
 40
0.0
  0
LTYPE
  5
16
330
5
100
AcDbSymbolTableRecord
100
AcDbLinetypeTableRecord
  2
Continuous
 70
     0
  3
Solid line
 72
    65
 73
     0
 40
0.0
  0
ENDTAB
  0
TABLE
  2
LAYER
  5
2
330
0
100
AcDbSymbolTable
 70
     2
  0
LAYER
  5
10
330
2
100
AcDbSymbolTableRecord
100
AcDbLayerTableRecord
  2
0
 70
     0
 62
     7
  6
Continuous
370
    -3
390
F
347
3E
  0
LAYER
  5
40
330
2
100
AcDbSymbolTableRecord
100
AcDbLayerTableRecord
  2
Layer 1
 70
     0
 62
     7
  6
Continuous
370
    -3
390
F
347
3E
  0
ENDTAB
  0
TABLE
  2
STYLE
  5
3
330
0
100
AcDbSymbolTable
 70
     1
  0
STYLE
  5
11
330
3
100
AcDbSymbolTableRecord
100
AcDbTextStyleTableRecord
  2
Standard
 70
     0
 40
0.0
 41
1.0
 50
0.0
 71
     0
 42
0.2
  3
txt
  4

  0
ENDTAB
  0
TABLE
  2
VIEW
  5
6
330
0
100
AcDbSymbolTable
 70
     0
  0
ENDTAB
  0
TABLE
  2
UCS
  5
7
330
0
100
AcDbSymbolTable
 70
     0
  0
ENDTAB
  0
TABLE
  2
APPID
  5
9
330
0
100
AcDbSymbolTable
 70
     2
  0
APPID
  5
12
330
9
100
AcDbSymbolTableRecord
100
AcDbRegAppTableRecord
  2
ACAD
 70
     0
  0
APPID
  5
3F
330
9
100
AcDbSymbolTableRecord
100
AcDbRegAppTableRecord
  2
ODA
 70
     0
  0
ENDTAB
  0
TABLE
  2
DIMSTYLE
  5
A
330
0
100
AcDbSymbolTable
 70
     1
100
AcDbDimStyleTable
  0
DIMSTYLE
105
27
330
A
100
AcDbSymbolTableRecord
100
AcDbDimStyleTableRecord
  2
Standard
 70
     0
178
     0
340
11
  0
ENDTAB
  0
TABLE
  2
BLOCK_RECORD
  5
1
330
0
100
AcDbSymbolTable
 70
     1
  0
BLOCK_RECORD
  5
1F
330
1
100
AcDbSymbolTableRecord
100
AcDbBlockTableRecord
  2
*Model_Space
340
22
 70
     0
280
     1
281
     0
  0
BLOCK_RECORD
  5
1B
330
1
100
AcDbSymbolTableRecord
100
AcDbBlockTableRecord
  2
*Paper_Space
340
1E
 70
     0
280
     1
281
     0
  0
BLOCK_RECORD
  5
23
330
1
100
AcDbSymbolTableRecord
100
AcDbBlockTableRecord
  2
*Paper_Space0
340
26
 70
     0
280
     1
281
     0
  0
ENDTAB
  0
ENDSEC
  0
SECTION
  2
BLOCKS
  0
BLOCK
  5
20
330
1F
100
AcDbEntity
  8
0
100
AcDbBlockBegin
  2
*Model_Space
 70
     0
 10
0.0
 20
0.0
 30
0.0
  3
*Model_Space
  1

  0
ENDBLK
  5
21
330
1F
100
AcDbEntity
  8
0
100
AcDbBlockEnd
  0
BLOCK
  5
1C
330
1B
100
AcDbEntity
 67
     1
  8
0
100
AcDbBlockBegin
  2
*Paper_Space
 70
     0
 10
0.0
 20
0.0
 30
0.0
  3
*Paper_Space
  1

  0
ENDBLK
  5
1D
330
1B
100
AcDbEntity
 67
     1
  8
0
100
AcDbBlockEnd
  0
BLOCK
  5
24
330
23
100
AcDbEntity
  8
0
100
AcDbBlockBegin
  2
*Paper_Space0
 70
     0
 10
0.0
 20
0.0
 30
0.0
  3
*Paper_Space0
  1

  0
ENDBLK
  5
25
330
23
100
AcDbEntity
  8
0
100
AcDbBlockEnd
  0
ENDSEC
  0
SECTION
  2
ENTITIES
  0
LWPOLYLINE
  5
41
330
1F
100
AcDbEntity
  8
Layer 1
370
    18
100
AcDbPolyline
 90
        5
 70
     1
 43
0.0
 10
-7.42647
 20
-11.31114
 10
6.57353
 20
-11.31114
 10
6.57353
 20
10.18886
 10
-7.42647
 20
10.18886
 10
-7.42647
 20
-11.31114
  0
ELLIPSE
  5
42
330
1F
100
AcDbEntity
  8
Layer 1
370
    18
100
AcDbEllipse
 10
-4.42544
 20
9.68026
 30
0.0
 11
0.35
 21
0.0
 31
0.0
210
0.0
220
0.0
230
1.0
 40
0.9999714285714287
 41
0.0
 42
6.283185307179586
  0
ELLIPSE
  5
43
330
1F
100
AcDbEntity
  8
Layer 1
370
    18
100
AcDbEllipse
 10
3.58123
 20
9.69608
 30
0.0
 11
0.35
 21
0.0
 31
0.0
210
0.0
220
0.0
230
1.0
 40
0.9999714285714287
 41
0.0
 42
6.283185307179586
  0
ELLIPSE
  5
44
330
1F
100
AcDbEntity
  8
Layer 1
370
    18
100
AcDbEllipse
 10
-4.42544
 20
-10.80126
 30
0.0
 11
0.35
 21
0.0
 31
0.0
210
0.0
220
0.0
230
1.0
 40
0.9999714285714287
 41
0.0
 42
6.283185307179586
  0
ELLIPSE
  5
45
330
1F
100
AcDbEntity
  8
Layer 1
370
    18
100
AcDbEllipse
 10
3.56272
 20
-10.81188
 30
0.0
 11
0.35
 21
0.0
 31
0.0
210
0.0
220
0.0
230
1.0
 40
0.9999714285714287
 41
0.0
 42
6.283185307179586
  0
ELLIPSE
  5
46
330
1F
100
AcDbEntity
  8
Layer 1
370
    18
100
AcDbEllipse
 10
-6.93759
 20
-0.55705
 30
0.0
 11
0.35
 21
0.0
 31
0.0
210
0.0
220
0.0
230
1.0
 40
0.9999714285714287
 41
0.0
 42
6.283185307179586
  0
ELLIPSE
  5
47
330
1F
100
AcDbEntity
  8
Layer 1
370
    18
100
AcDbEllipse
 10
6.13283
 20
-0.55705
 30
0.0
 11
0.35
 21
0.0
 31
0.0
210
0.0
220
0.0
230
1.0
 40
0.9999714285714287
 41
0.0
 42
6.283185307179586
  0
ELLIPSE
  5
48
330
1F
100
AcDbEntity
  8
Layer 1
370
    18
100
AcDbEllipse
 10
-3.20168
 20
5.68631
 30
0.0
 11
0.0
 21
2.05001
 31
0.0
210
0.0
220
0.0
230
1.0
 40
1.0
 41
0.0
 42
6.283185307179586
  0
ELLIPSE
  5
49
330
1F
100
AcDbEntity
  8
Layer 1
370
    18
100
AcDbEllipse
 10
-4.96525
 20
3.92276
 30
0.0
 11
0.0
 21
0.2
 31
0.0
210
0.0
220
0.0
230
1.0
 40
1.0
 41
0.0
 42
6.283185307179586
  0
ELLIPSE
  5
4A
330
1F
100
AcDbEntity
  8
Layer 1
370
    18
100
AcDbEllipse
 10
-1.43813
 20
3.92276
 30
0.0
 11
0.0
 21
0.2
 31
0.0
210
0.0
220
0.0
230
1.0
 40
1.0
 41
0.0
 42
6.283185307179586
  0
ELLIPSE
  5
4B
330
1F
100
AcDbEntity
  8
Layer 1
370
    18
100
AcDbEllipse
 10
2.78319
 20
2.42396
 30
0.0
 11
0.0
 21
1.25
 31
0.0
210
0.0
220
0.0
230
1.0
 40
1.0
 41
0.0
 42
6.283185307179586
  0
SPLINE
  5
4C
330
1F
100
AcDbEntity
  8
Layer 1
 62
     1
100
AcDbSpline
210
0.0
220
0.0
230
1.0
 70
    11
 71
     3
 72
    40
 73
    36
 74
     0
 42
0.0000000001
 43
0.0000000001
 12
1.0
 22
0.0
 32
0.0
 13
1.0
 23
0.0
 33
0.0
 40
0.0
 40
0.0
 40
0.0
 40
0.0
 40
0.1
 40
0.1
 40
0.1
 40
0.1
 40
0.2
 40
0.2
 40
0.2
 40
0.2
 40
0.3
 40
0.3
 40
0.3
 40
0.3
 40
0.4
 40
0.4
 40
0.4
 40
0.4
 40
0.5
 40
0.5
 40
0.5
 40
0.5
 40
0.6
 40
0.6
 40
0.6
 40
0.6
 40
0.7
 40
0.7
 40
0.7
 40
0.7
 40
0.8
 40
0.8
 40
0.8
 40
0.8
 40
1.0
 40
1.0
 40
1.0
 40
1.0
 10
0.93005
 20
0.5191
 30
0.0
 10
0.93005
 20
0.60024
 30
0.0
 10
0.95263
 20
0.66035
 30
0.0
 10
0.99792
 20
0.69944
 30
0.0
 10
0.99792
 20
0.69944
 30
0.0
 10
1.0356
 20
0.7319
 30
0.0
 10
1.08175
 20
0.74813
 30
0.0
 10
1.13607
 20
0.74813
 30
0.0
 10
1.13607
 20
0.74813
 30
0.0
 10
1.19633
 20
0.74813
 30
0.0
 10
1.24572
 20
0.72837
 30
0.0
 10
1.2841
 20
0.68886
 30
0.0
 10
1.2841
 20
0.68886
 30
0.0
 10
1.32234
 20
0.64949
 30
0.0
 10
1.34153
 20
0.59488
 30
0.0
 10
1.34153
 20
0.52531
 30
0.0
 10
1.34153
 20
0.52531
 30
0.0
 10
1.34153
 20
0.46887
 30
0.0
 10
1.33307
 20
0.42456
 30
0.0
 10
1.31613
 20
0.39224
 30
0.0
 10
1.31613
 20
0.39224
 30
0.0
 10
1.2992
 20
0.35993
 30
0.0
 10
1.2745
 20
0.33481
 30
0.0
 10
1.24205
 20
0.31689
 30
0.0
 10
1.24205
 20
0.31689
 30
0.0
 10
1.20973
 20
0.29897
 30
0.0
 10
1.17431
 20
0.29008
 30
0.0
 10
1.13607
 20
0.29008
 30
0.0
 10
1.13607
 20
0.29008
 30
0.0
 10
1.07455
 20
0.29008
 30
0.0
 10
1.02488
 20
0.30969
 30
0.0
 10
0.98692
 20
0.34906
 30
0.0
 10
0.98692
 20
0.34906
 30
0.0
 10
0.94896
 20
0.38843
 30
0.0
 10
0.93005
 20
0.44516
 30
0.0
 10
0.93005
 20
0.5191
 30
0.0
  0
SPLINE
  5
4D
330
1F
100
AcDbEntity
  8
Layer 1
 62
     1
100
AcDbSpline
210
0.0
220
0.0
230
1.0
 70
    11
 71
     3
 72
    36
 73
    32
 74
     0
 42
0.0000000001
 43
0.0000000001
 12
1.0
 22
0.0
 32
0.0
 13
1.0
 23
0.0
 33
0.0
 40
0.0
 40
0.0
 40
0.0
 40
0.0
 40
0.1111111111111111
 40
0.1111111111111111
 40
0.1111111111111111
 40
0.1111111111111111
 40
0.2222222222222222
 40
0.2222222222222222
 40
0.2222222222222222
 40
0.2222222222222222
 40
0.3333333333333333
 40
0.3333333333333333
 40
0.3333333333333333
 40
0.3333333333333333
 40
0.4444444444444444
 40
0.4444444444444444
 40
0.4444444444444444
 40
0.4444444444444444
 40
0.5555555555555556
 40
0.5555555555555556
 40
0.5555555555555556
 40
0.5555555555555556
 40
0.6666666666666666
 40
0.6666666666666666
 40
0.6666666666666666
 40
0.6666666666666666
 40
0.7777777777777778
 40
0.7777777777777778
 40
0.7777777777777778
 40
0.7777777777777778
 40
1.0
 40
1.0
 40
1.0
 40
1.0
 10
1.00625
 20
0.51896
 30
0.0
 10
1.00625
 20
0.4628
 30
0.0
 10
1.01853
 20
0.42075
 30
0.0
 10
1.04308
 20
0.39295
 30
0.0
 10
1.04308
 20
0.39295
 30
0.0
 10
1.06778
 20
0.36501
 30
0.0
 10
1.09868
 20
0.35104
 30
0.0
 10
1.13607
 20
0.35104
 30
0.0
 10
1.13607
 20
0.35104
 30
0.0
 10
1.17304
 20
0.35104
 30
0.0
 10
1.20381
 20
0.36501
 30
0.0
 10
1.2285
 20
0.39309
 30
0.0
 10
1.2285
 20
0.39309
 30
0.0
 10
1.25305
 20
0.42117
 30
0.0
 10
1.26533
 20
0.46393
 30
0.0
 10
1.26533
 20
0.52136
 30
0.0
 10
1.26533
 20
0.52136
 30
0.0
 10
1.26533
 20
0.57555
 30
0.0
 10
1.25291
 20
0.61661
 30
0.0
 10
1.22822
 20
0.64441
 30
0.0
 10
1.22822
 20
0.64441
 30
0.0
 10
1.20352
 20
0.67235
 30
0.0
 10
1.17276
 20
0.68632
 30
0.0
 10
1.13607
 20
0.68632
 30
0.0
 10
1.13607
 20
0.68632
 30
0.0
 10
1.09868
 20
0.68632
 30
0.0
 10
1.06778
 20
0.67249
 30
0.0
 10
1.04308
 20
0.64469
 30
0.0
 10
1.04308
 20
0.64469
 30
0.0
 10
1.01853
 20
0.61689
 30
0.0
 10
1.00625
 20
0.57498
 30
0.0
 10
1.00625
 20
0.51896
 30
0.0
  0
SPLINE
  5
4E
330
1F
100
AcDbEntity
  8
Layer 1
 62
     1
100
AcDbSpline
210
0.0
220
0.0
230
1.0
 70
    11
 71
     3
 72
    76
 73
    72
 74
     0
 42
0.0000000001
 43
0.0000000001
 12
1.0
 22
0.0
 32
0.0
 13
1.0
 23
0.0
 33
0.0
 40
0.0
 40
0.0
 40
0.0
 40
0.0
 40
0.0526315789473684
 40
0.0526315789473684
 40
0.0526315789473684
 40
0.0526315789473684
 40
0.1052631578947368
 40
0.1052631578947368
 40
0.1052631578947368
 40
0.1052631578947368
 40
0.1578947368421053
 40
0.1578947368421053
 40
0.1578947368421053
 40
0.1578947368421053
 40
0.2105263157894737
 40
0.2105263157894737
 40
0.2105263157894737
 40
0.2105263157894737
 40
0.2631578947368421
 40
0.2631578947368421
 40
0.2631578947368421
 40
0.2631578947368421
 40
0.3157894736842105
 40
0.3157894736842105
 40
0.3157894736842105
 40
0.3157894736842105
 40
0.3684210526315789
 40
0.3684210526315789
 40
0.3684210526315789
 40
0.3684210526315789
 40
0.4210526315789473
 40
0.4210526315789473
 40
0.4210526315789473
 40
0.4210526315789473
 40
0.4736842105263158
 40
0.4736842105263158
 40
0.4736842105263158
 40
0.4736842105263158
 40
0.5263157894736842
 40
0.5263157894736842
 40
0.5263157894736842
 40
0.5263157894736842
 40
0.5789473684210527
 40
0.5789473684210527
 40
0.5789473684210527
 40
0.5789473684210527
 40
0.631578947368421
 40
0.631578947368421
 40
0.631578947368421
 40
0.631578947368421
 40
0.6842105263157895
 40
0.6842105263157895
 40
0.6842105263157895
 40
0.6842105263157895
 40
0.7368421052631579
 40
0.7368421052631579
 40
0.7368421052631579
 40
0.7368421052631579
 40
0.7894736842105263
 40
0.7894736842105263
 40
0.7894736842105263
 40
0.7894736842105263
 40
0.8421052631578947
 40
0.8421052631578947
 40
0.8421052631578947
 40
0.8421052631578947
 40
0.8947368421052632
 40
0.8947368421052632
 40
0.8947368421052632
 40
0.8947368421052632
 40
1.0
 40
1.0
 40
1.0
 40
1.0
 10
1.42888
 20
0.29939
 30
0.0
 10
1.42888
 20
0.29939
 30
0.0
 10
1.42888
 20
0.73881
 30
0.0
 10
1.42888
 20
0.73881
 30
0.0
 10
1.42888
 20
0.73881
 30
0.0
 10
1.42888
 20
0.73881
 30
0.0
 10
1.49577
 20
0.73881
 30
0.0
 10
1.49577
 20
0.73881
 30
0.0
 10
1.49577
 20
0.73881
 30
0.0
 10
1.49577
 20
0.73881
 30
0.0
 10
1.49577
 20
0.67644
 30
0.0
 10
1.49577
 20
0.67644
 30
0.0
 10
1.49577
 20
0.67644
 30
0.0
 10
1.52794
 20
0.72428
 30
0.0
 10
1.57451
 20
0.74813
 30
0.0
 10
1.63533
 20
0.74813
 30
0.0
 10
1.63533
 20
0.74813
 30
0.0
 10
1.66186
 20
0.74813
 30
0.0
 10
1.68613
 20
0.74333
 30
0.0
 10
1.70828
 20
0.73387
 30
0.0
 10
1.70828
 20
0.73387
 30
0.0
 10
1.73044
 20
0.72442
 30
0.0
 10
1.74709
 20
0.71186
 30
0.0
 10
1.75809
 20
0.69648
 30
0.0
 10
1.75809
 20
0.69648
 30
0.0
 10
1.7691
 20
0.6811
 30
0.0
 10
1.77686
 20
0.66275
 30
0.0
 10
1.78124
 20
0.64159
 30
0.0
 10
1.78124
 20
0.64159
 30
0.0
 10
1.78392
 20
0.62776
 30
0.0
 10
1.78533
 20
0.60363
 30
0.0
 10
1.78533
 20
0.5692
 30
0.0
 10
1.78533
 20
0.5692
 30
0.0
 10
1.78533
 20
0.5692
 30
0.0
 10
1.78533
 20
0.29939
 30
0.0
 10
1.78533
 20
0.29939
 30
0.0
 10
1.78533
 20
0.29939
 30
0.0
 10
1.78533
 20
0.29939
 30
0.0
 10
1.71082
 20
0.29939
 30
0.0
 10
1.71082
 20
0.29939
 30
0.0
 10
1.71082
 20
0.29939
 30
0.0
 10
1.71082
 20
0.29939
 30
0.0
 10
1.71082
 20
0.56637
 30
0.0
 10
1.71082
 20
0.56637
 30
0.0
 10
1.71082
 20
0.56637
 30
0.0
 10
1.71082
 20
0.59671
 30
0.0
 10
1.708
 20
0.61943
 30
0.0
 10
1.70221
 20
0.63439
 30
0.0
 10
1.70221
 20
0.63439
 30
0.0
 10
1.69643
 20
0.64935
 30
0.0
 10
1.68613
 20
0.66134
 30
0.0
 10
1.67145
 20
0.67037
 30
0.0
 10
1.67145
 20
0.67037
 30
0.0
 10
1.65678
 20
0.67926
 30
0.0
 10
1.63942
 20
0.68378
 30
0.0
 10
1.61966
 20
0.68378
 30
0.0
 10
1.61966
 20
0.68378
 30
0.0
 10
1.58805
 20
0.68378
 30
0.0
 10
1.56082
 20
0.67376
 30
0.0
 10
1.53782
 20
0.65358
 30
0.0
 10
1.53782
 20
0.65358
 30
0.0
 10
1.51482
 20
0.63354
 30
0.0
 10
1.50339
 20
0.5953
 30
0.0
 10
1.50339
 20
0.53914
 30
0.0
 10
1.50339
 20
0.53914
 30
0.0
 10
1.50339
 20
0.53914
 30
0.0
 10
1.50339
 20
0.29939
 30
0.0
 10
1.50339
 20
0.29939
 30
0.0
 10
1.50339
 20
0.29939
 30
0.0
 10
1.50339
 20
0.29939
 30
0.0
 10
1.42888
 20
0.29939
 30
0.0
 10
1.42888
 20
0.29939
 30
0.0
  0
SPLINE
  5
4F
330
1F
100
AcDbEntity
  8
Layer 1
 62
     1
100
AcDbSpline
210
0.0
220
0.0
230
1.0
 70
    11
 71
     3
 72
    40
 73
    36
 74
     0
 42
0.0000000001
 43
0.0000000001
 12
1.0
 22
0.0
 32
0.0
 13
1.0
 23
0.0
 33
0.0
 40
0.0
 40
0.0
 40
0.0
 40
0.0
 40
0.1
 40
0.1
 40
0.1
 40
0.1
 40
0.2
 40
0.2
 40
0.2
 40
0.2
 40
0.3
 40
0.3
 40
0.3
 40
0.3
 40
0.4
 40
0.4
 40
0.4
 40
0.4
 40
0.5
 40
0.5
 40
0.5
 40
0.5
 40
0.6
 40
0.6
 40
0.6
 40
0.6
 40
0.7
 40
0.7
 40
0.7
 40
0.7
 40
0.8
 40
0.8
 40
0.8
 40
0.8
 40
1.0
 40
1.0
 40
1.0
 40
1.0
 10
3.9964
 20
0.54126
 30
0.0
 10
3.9964
 20
0.6224
 30
0.0
 10
4.01898
 20
0.68251
 30
0.0
 10
4.06427
 20
0.7216
 30
0.0
 10
4.06427
 20
0.7216
 30
0.0
 10
4.10195
 20
0.75406
 30
0.0
 10
4.1481
 20
0.77029
 30
0.0
 10
4.20242
 20
0.77029
 30
0.0
 10
4.20242
 20
0.77029
 30
0.0
 10
4.26268
 20
0.77029
 30
0.0
 10
4.31207
 20
0.75053
 30
0.0
 10
4.35045
 20
0.71102
 30
0.0
 10
4.35045
 20
0.71102
 30
0.0
 10
4.38869
 20
0.67165
 30
0.0
 10
4.40788
 20
0.61704
 30
0.0
 10
4.40788
 20
0.54747
 30
0.0
 10
4.40788
 20
0.54747
 30
0.0
 10
4.40788
 20
0.49103
 30
0.0
 10
4.39942
 20
0.44672
 30
0.0
 10
4.38248
 20
0.4144
 30
0.0
 10
4.38248
 20
0.4144
 30
0.0
 10
4.36555
 20
0.38209
 30
0.0
 10
4.34085
 20
0.35697
 30
0.0
 10
4.3084
 20
0.33905
 30
0.0
 10
4.3084
 20
0.33905
 30
0.0
 10
4.27608
 20
0.32113
 30
0.0
 10
4.24066
 20
0.31224
 30
0.0
 10
4.20242
 20
0.31224
 30
0.0
 10
4.20242
 20
0.31224
 30
0.0
 10
4.1409
 20
0.31224
 30
0.0
 10
4.09123
 20
0.33185
 30
0.0
 10
4.05327
 20
0.37122
 30
0.0
 10
4.05327
 20
0.37122
 30
0.0
 10
4.01531
 20
0.41059
 30
0.0
 10
3.9964
 20
0.46732
 30
0.0
 10
3.9964
 20
0.54126
 30
0.0
  0
SPLINE
  5
50
330
1F
100
AcDbEntity
  8
Layer 1
 62
     1
100
AcDbSpline
210
0.0
220
0.0
230
1.0
 70
    11
 71
     3
 72
    36
 73
    32
 74
     0
 42
0.0000000001
 43
0.0000000001
 12
1.0
 22
0.0
 32
0.0
 13
1.0
 23
0.0
 33
0.0
 40
0.0
 40
0.0
 40
0.0
 40
0.0
 40
0.1111111111111111
 40
0.1111111111111111
 40
0.1111111111111111
 40
0.1111111111111111
 40
0.2222222222222222
 40
0.2222222222222222
 40
0.2222222222222222
 40
0.2222222222222222
 40
0.3333333333333333
 40
0.3333333333333333
 40
0.3333333333333333
 40
0.3333333333333333
 40
0.4444444444444444
 40
0.4444444444444444
 40
0.4444444444444444
 40
0.4444444444444444
 40
0.5555555555555556
 40
0.5555555555555556
 40
0.5555555555555556
 40
0.5555555555555556
 40
0.6666666666666666
 40
0.6666666666666666
 40
0.6666666666666666
 40
0.6666666666666666
 40
0.7777777777777778
 40
0.7777777777777778
 40
0.7777777777777778
 40
0.7777777777777778
 40
1.0
 40
1.0
 40
1.0
 40
1.0
 10
4.0726
 20
0.54112
 30
0.0
 10
4.0726
 20
0.48496
 30
0.0
 10
4.08488
 20
0.44291
 30
0.0
 10
4.10943
 20
0.41511
 30
0.0
 10
4.10943
 20
0.41511
 30
0.0
 10
4.13413
 20
0.38717
 30
0.0
 10
4.16503
 20
0.3732
 30
0.0
 10
4.20242
 20
0.3732
 30
0.0
 10
4.20242
 20
0.3732
 30
0.0
 10
4.23939
 20
0.3732
 30
0.0
 10
4.27016
 20
0.38717
 30
0.0
 10
4.29485
 20
0.41525
 30
0.0
 10
4.29485
 20
0.41525
 30
0.0
 10
4.3194
 20
0.44333
 30
0.0
 10
4.33168
 20
0.48609
 30
0.0
 10
4.33168
 20
0.54352
 30
0.0
 10
4.33168
 20
0.54352
 30
0.0
 10
4.33168
 20
0.59771
 30
0.0
 10
4.31926
 20
0.63877
 30
0.0
 10
4.29457
 20
0.66657
 30
0.0
 10
4.29457
 20
0.66657
 30
0.0
 10
4.26987
 20
0.69451
 30
0.0
 10
4.23911
 20
0.70848
 30
0.0
 10
4.20242
 20
0.70848
 30
0.0
 10
4.20242
 20
0.70848
 30
0.0
 10
4.16503
 20
0.70848
 30
0.0
 10
4.13413
 20
0.69465
 30
0.0
 10
4.10943
 20
0.66685
 30
0.0
 10
4.10943
 20
0.66685
 30
0.0
 10
4.08488
 20
0.63905
 30
0.0
 10
4.0726
 20
0.59714
 30
0.0
 10
4.0726
 20
0.54112
 30
0.0
  0
SPLINE
  5
51
330
1F
100
AcDbEntity
  8
Layer 1
 62
     1
100
AcDbSpline
210
0.0
220
0.0
230
1.0
 70
    11
 71
     3
 72
    80
 73
    76
 74
     0
 42
0.0000000001
 43
0.0000000001
 12
1.0
 22
0.0
 32
0.0
 13
1.0
 23
0.0
 33
0.0
 40
0.0
 40
0.0
 40
0.0
 40
0.0
 40
0.05
 40
0.05
 40
0.05
 40
0.05
 40
0.1
 40
0.1
 40
0.1
 40
0.1
 40
0.15
 40
0.15
 40
0.15
 40
0.15
 40
0.2
 40
0.2
 40
0.2
 40
0.2
 40
0.25
 40
0.25
 40
0.25
 40
0.25
 40
0.3
 40
0.3
 40
0.3
 40
0.3
 40
0.35
 40
0.35
 40
0.35
 40
0.35
 40
0.4
 40
0.4
 40
0.4
 40
0.4
 40
0.45
 40
0.45
 40
0.45
 40
0.45
 40
0.5
 40
0.5
 40
0.5
 40
0.5
 40
0.55
 40
0.55
 40
0.55
 40
0.55
 40
0.6
 40
0.6
 40
0.6
 40
0.6
 40
0.65
 40
0.65
 40
0.65
 40
0.65
 40
0.7
 40
0.7
 40
0.7
 40
0.7
 40
0.75
 40
0.75
 40
0.75
 40
0.75
 40
0.8
 40
0.8
 40
0.8
 40
0.8
 40
0.85
 40
0.85
 40
0.85
 40
0.85
 40
0.9
 40
0.9
 40
0.9
 40
0.9
 40
1.0
 40
1.0
 40
1.0
 40
1.0
 10
4.51301
 20
0.32155
 30
0.0
 10
4.51301
 20
0.32155
 30
0.0
 10
4.51301
 20
0.7034
 30
0.0
 10
4.51301
 20
0.7034
 30
0.0
 10
4.51301
 20
0.7034
 30
0.0
 10
4.51301
 20
0.7034
 30
0.0
 10
4.44697
 20
0.7034
 30
0.0
 10
4.44697
 20
0.7034
 30
0.0
 10
4.44697
 20
0.7034
 30
0.0
 10
4.44697
 20
0.7034
 30
0.0
 10
4.44697
 20
0.76097
 30
0.0
 10
4.44697
 20
0.76097
 30
0.0
 10
4.44697
 20
0.76097
 30
0.0
 10
4.44697
 20
0.76097
 30
0.0
 10
4.51301
 20
0.76097
 30
0.0
 10
4.51301
 20
0.76097
 30
0.0
 10
4.51301
 20
0.76097
 30
0.0
 10
4.51301
 20
0.76097
 30
0.0
 10
4.51301
 20
0.80754
 30
0.0
 10
4.51301
 20
0.80754
 30
0.0
 10
4.51301
 20
0.80754
 30
0.0
 10
4.51301
 20
0.83703
 30
0.0
 10
4.51555
 20
0.8589
 30
0.0
 10
4.52077
 20
0.87316
 30
0.0
 10
4.52077
 20
0.87316
 30
0.0
 10
4.52797
 20
0.89235
 30
0.0
 10
4.54039
 20
0.90801
 30
0.0
 10
4.55845
 20
0.92
 30
0.0
 10
4.55845
 20
0.92
 30
0.0
 10
4.57637
 20
0.932
 30
0.0
 10
4.60163
 20
0.93793
 30
0.0
 10
4.63408
 20
0.93793
 30
0.0
 10
4.63408
 20
0.93793
 30
0.0
 10
4.65511
 20
0.93793
 30
0.0
 10
4.67825
 20
0.93539
 30
0.0
 10
4.70365
 20
0.93045
 30
0.0
 10
4.70365
 20
0.93045
 30
0.0
 10
4.70365
 20
0.93045
 30
0.0
 10
4.6925
 20
0.86525
 30
0.0
 10
4.6925
 20
0.86525
 30
0.0
 10
4.6925
 20
0.86525
 30
0.0
 10
4.67698
 20
0.86793
 30
0.0
 10
4.66245
 20
0.86935
 30
0.0
 10
4.64862
 20
0.86935
 30
0.0
 10
4.64862
 20
0.86935
 30
0.0
 10
4.62604
 20
0.86935
 30
0.0
 10
4.6101
 20
0.86455
 30
0.0
 10
4.60064
 20
0.85495
 30
0.0
 10
4.60064
 20
0.85495
 30
0.0
 10
4.59133
 20
0.84536
 30
0.0
 10
4.58667
 20
0.82744
 30
0.0
 10
4.58667
 20
0.80119
 30
0.0
 10
4.58667
 20
0.80119
 30
0.0
 10
4.58667
 20
0.80119
 30
0.0
 10
4.58667
 20
0.76097
 30
0.0
 10
4.58667
 20
0.76097
 30
0.0
 10
4.58667
 20
0.76097
 30
0.0
 10
4.58667
 20
0.76097
 30
0.0
 10
4.67218
 20
0.76097
 30
0.0
 10
4.67218
 20
0.76097
 30
0.0
 10
4.67218
 20
0.76097
 30
0.0
 10
4.67218
 20
0.76097
 30
0.0
 10
4.67218
 20
0.7034
 30
0.0
 10
4.67218
 20
0.7034
 30
0.0
 10
4.67218
 20
0.7034
 30
0.0
 10
4.67218
 20
0.7034
 30
0.0
 10
4.58752
 20
0.7034
 30
0.0
 10
4.58752
 20
0.7034
 30
0.0
 10
4.58752
 20
0.7034
 30
0.0
 10
4.58752
 20
0.7034
 30
0.0
 10
4.58752
 20
0.32155
 30
0.0
 10
4.58752
 20
0.32155
 30
0.0
 10
4.58752
 20
0.32155
 30
0.0
 10
4.58752
 20
0.32155
 30
0.0
 10
4.51301
 20
0.32155
 30
0.0
 10
4.51301
 20
0.32155
 30
0.0
  0
SPLINE
  5
52
330
1F
100
AcDbEntity
  8
Layer 1
 62
     1
100
AcDbSpline
210
0.0
220
0.0
230
1.0
 70
    11
 71
     3
 72
    80
 73
    76
 74
     0
 42
0.0000000001
 43
0.0000000001
 12
1.0
 22
0.0
 32
0.0
 13
1.0
 23
0.0
 33
0.0
 40
0.0
 40
0.0
 40
0.0
 40
0.0
 40
0.05
 40
0.05
 40
0.05
 40
0.05
 40
0.1
 40
0.1
 40
0.1
 40
0.1
 40
0.15
 40
0.15
 40
0.15
 40
0.15
 40
0.2
 40
0.2
 40
0.2
 40
0.2
 40
0.25
 40
0.25
 40
0.25
 40
0.25
 40
0.3
 40
0.3
 40
0.3
 40
0.3
 40
0.35
 40
0.35
 40
0.35
 40
0.35
 40
0.4
 40
0.4
 40
0.4
 40
0.4
 40
0.45
 40
0.45
 40
0.45
 40
0.45
 40
0.5
 40
0.5
 40
0.5
 40
0.5
 40
0.55
 40
0.55
 40
0.55
 40
0.55
 40
0.6
 40
0.6
 40
0.6
 40
0.6
 40
0.65
 40
0.65
 40
0.65
 40
0.65
 40
0.7
 40
0.7
 40
0.7
 40
0.7
 40
0.75
 40
0.75
 40
0.75
 40
0.75
 40
0.8
 40
0.8
 40
0.8
 40
0.8
 40
0.85
 40
0.85
 40
0.85
 40
0.85
 40
0.9
 40
0.9
 40
0.9
 40
0.9
 40
1.0
 40
1.0
 40
1.0
 40
1.0
 10
4.733
 20
0.32155
 30
0.0
 10
4.733
 20
0.32155
 30
0.0
 10
4.733
 20
0.7034
 30
0.0
 10
4.733
 20
0.7034
 30
0.0
 10
4.733
 20
0.7034
 30
0.0
 10
4.733
 20
0.7034
 30
0.0
 10
4.66696
 20
0.7034
 30
0.0
 10
4.66696
 20
0.7034
 30
0.0
 10
4.66696
 20
0.7034
 30
0.0
 10
4.66696
 20
0.7034
 30
0.0
 10
4.66696
 20
0.76097
 30
0.0
 10
4.66696
 20
0.76097
 30
0.0
 10
4.66696
 20
0.76097
 30
0.0
 10
4.66696
 20
0.76097
 30
0.0
 10
4.733
 20
0.76097
 30
0.0
 10
4.733
 20
0.76097
 30
0.0
 10
4.733
 20
0.76097
 30
0.0
 10
4.733
 20
0.76097
 30
0.0
 10
4.733
 20
0.80754
 30
0.0
 10
4.733
 20
0.80754
 30
0.0
 10
4.733
 20
0.80754
 30
0.0
 10
4.733
 20
0.83703
 30
0.0
 10
4.73554
 20
0.8589
 30
0.0
 10
4.74076
 20
0.87316
 30
0.0
 10
4.74076
 20
0.87316
 30
0.0
 10
4.74796
 20
0.89235
 30
0.0
 10
4.76038
 20
0.90801
 30
0.0
 10
4.77844
 20
0.92
 30
0.0
 10
4.77844
 20
0.92
 30
0.0
 10
4.79636
 20
0.932
 30
0.0
 10
4.82162
 20
0.93793
 30
0.0
 10
4.85407
 20
0.93793
 30
0.0
 10
4.85407
 20
0.93793
 30
0.0
 10
4.8751
 20
0.93793
 30
0.0
 10
4.89824
 20
0.93539
 30
0.0
 10
4.92364
 20
0.93045
 30
0.0
 10
4.92364
 20
0.93045
 30
0.0
 10
4.92364
 20
0.93045
 30
0.0
 10
4.91249
 20
0.86525
 30
0.0
 10
4.91249
 20
0.86525
 30
0.0
 10
4.91249
 20
0.86525
 30
0.0
 10
4.89697
 20
0.86793
 30
0.0
 10
4.88244
 20
0.86935
 30
0.0
 10
4.86861
 20
0.86935
 30
0.0
 10
4.86861
 20
0.86935
 30
0.0
 10
4.84603
 20
0.86935
 30
0.0
 10
4.83009
 20
0.86455
 30
0.0
 10
4.82063
 20
0.85495
 30
0.0
 10
4.82063
 20
0.85495
 30
0.0
 10
4.81132
 20
0.84536
 30
0.0
 10
4.80666
 20
0.82744
 30
0.0
 10
4.80666
 20
0.80119
 30
0.0
 10
4.80666
 20
0.80119
 30
0.0
 10
4.80666
 20
0.80119
 30
0.0
 10
4.80666
 20
0.76097
 30
0.0
 10
4.80666
 20
0.76097
 30
0.0
 10
4.80666
 20
0.76097
 30
0.0
 10
4.80666
 20
0.76097
 30
0.0
 10
4.89217
 20
0.76097
 30
0.0
 10
4.89217
 20
0.76097
 30
0.0
 10
4.89217
 20
0.76097
 30
0.0
 10
4.89217
 20
0.76097
 30
0.0
 10
4.89217
 20
0.7034
 30
0.0
 10
4.89217
 20
0.7034
 30
0.0
 10
4.89217
 20
0.7034
 30
0.0
 10
4.89217
 20
0.7034
 30
0.0
 10
4.80751
 20
0.7034
 30
0.0
 10
4.80751
 20
0.7034
 30
0.0
 10
4.80751
 20
0.7034
 30
0.0
 10
4.80751
 20
0.7034
 30
0.0
 10
4.80751
 20
0.32155
 30
0.0
 10
4.80751
 20
0.32155
 30
0.0
 10
4.80751
 20
0.32155
 30
0.0
 10
4.80751
 20
0.32155
 30
0.0
 10
4.733
 20
0.32155
 30
0.0
 10
4.733
 20
0.32155
 30
0.0
  0
SPLINE
  5
53
330
1F
100
AcDbEntity
  8
Layer 1
 62
     1
100
AcDbSpline
210
0.0
220
0.0
230
1.0
 70
    11
 71
     3
 72
    36
 73
    32
 74
     0
 42
0.0000000001
 43
0.0000000001
 12
1.0
 22
0.0
 32
0.0
 13
1.0
 23
0.0
 33
0.0
 40
0.0
 40
0.0
 40
0.0
 40
0.0
 40
0.1111111111111111
 40
0.1111111111111111
 40
0.1111111111111111
 40
0.1111111111111111
 40
0.2222222222222222
 40
0.2222222222222222
 40
0.2222222222222222
 40
0.2222222222222222
 40
0.3333333333333333
 40
0.3333333333333333
 40
0.3333333333333333
 40
0.3333333333333333
 40
0.4444444444444444
 40
0.4444444444444444
 40
0.4444444444444444
 40
0.4444444444444444
 40
0.5555555555555556
 40
0.5555555555555556
 40
0.5555555555555556
 40
0.5555555555555556
 40
0.6666666666666666
 40
0.6666666666666666
 40
0.6666666666666666
 40
0.6666666666666666
 40
0.7777777777777778
 40
0.7777777777777778
 40
0.7777777777777778
 40
0.7777777777777778
 40
1.0
 40
1.0
 40
1.0
 40
1.0
 10
-4.73646
 20
8.28934
 30
0.0
 10
-4.73646
 20
8.28934
 30
0.0
 10
-4.58142
 20
8.69348
 30
0.0
 10
-4.58142
 20
8.69348
 30
0.0
 10
-4.58142
 20
8.69348
 30
0.0
 10
-4.58142
 20
8.69348
 30
0.0
 10
-4.52263
 20
8.69348
 30
0.0
 10
-4.52263
 20
8.69348
 30
0.0
 10
-4.52263
 20
8.69348
 30
0.0
 10
-4.52263
 20
8.69348
 30
0.0
 10
-4.35809
 20
8.28934
 30
0.0
 10
-4.35809
 20
8.28934
 30
0.0
 10
-4.35809
 20
8.28934
 30
0.0
 10
-4.35809
 20
8.28934
 30
0.0
 10
-4.41896
 20
8.28934
 30
0.0
 10
-4.41896
 20
8.28934
 30
0.0
 10
-4.41896
 20
8.28934
 30
0.0
 10
-4.41896
 20
8.28934
 30
0.0
 10
-4.46571
 20
8.41182
 30
0.0
 10
-4.46571
 20
8.41182
 30
0.0
 10
-4.46571
 20
8.41182
 30
0.0
 10
-4.46571
 20
8.41182
 30
0.0
 10
-4.63589
 20
8.41182
 30
0.0
 10
-4.63589
 20
8.41182
 30
0.0
 10
-4.63589
 20
8.41182
 30
0.0
 10
-4.63589
 20
8.41182
 30
0.0
 10
-4.67973
 20
8.28934
 30
0.0
 10
-4.67973
 20
8.28934
 30
0.0
 10
-4.67973
 20
8.28934
 30
0.0
 10
-4.67973
 20
8.28934
 30
0.0
 10
-4.73646
 20
8.28934
 30
0.0
 10
-4.73646
 20
8.28934
 30
0.0
  0
SPLINE
  5
54
330
1F
100
AcDbEntity
  8
Layer 1
 62
     1
100
AcDbSpline
210
0.0
220
0.0
230
1.0
 70
    11
 71
     3
 72
    24
 73
    20
 74
     0
 42
0.0000000001
 43
0.0000000001
 12
1.0
 22
0.0
 32
0.0
 13
1.0
 23
0.0
 33
0.0
 40
0.0
 40
0.0
 40
0.0
 40
0.0
 40
0.1666666666666667
 40
0.1666666666666667
 40
0.1666666666666667
 40
0.1666666666666667
 40
0.3333333333333333
 40
0.3333333333333333
 40
0.3333333333333333
 40
0.3333333333333333
 40
0.5
 40
0.5
 40
0.5
 40
0.5
 40
0.6666666666666666
 40
0.6666666666666666
 40
0.6666666666666666
 40
0.6666666666666666
 40
1.0
 40
1.0
 40
1.0
 40
1.0
 10
-4.62018
 20
8.45529
 30
0.0
 10
-4.62018
 20
8.45529
 30
0.0
 10
-4.48246
 20
8.45529
 30
0.0
 10
-4.48246
 20
8.45529
 30
0.0
 10
-4.48246
 20
8.45529
 30
0.0
 10
-4.48246
 20
8.45529
 30
0.0
 10
-4.5246
 20
8.56733
 30
0.0
 10
-4.5246
 20
8.56733
 30
0.0
 10
-4.5246
 20
8.56733
 30
0.0
 10
-4.5373
 20
8.60138
 30
0.0
 10
-4.5469
 20
8.62951
 30
0.0
 10
-4.55358
 20
8.65171
 30
0.0
 10
-4.55358
 20
8.65171
 30
0.0
 10
-4.55913
 20
8.62537
 30
0.0
 10
-4.56656
 20
8.5995
 30
0.0
 10
-4.57587
 20
8.57391
 30
0.0
 10
-4.57587
 20
8.57391
 30
0.0
 10
-4.57587
 20
8.57391
 30
0.0
 10
-4.62018
 20
8.45529
 30
0.0
 10
-4.62018
 20
8.45529
 30
0.0
  0
SPLINE
  5
55
330
1F
100
AcDbEntity
  8
Layer 1
 62
     1
100
AcDbSpline
210
0.0
220
0.0
230
1.0
 70
    11
 71
     3
 72
   116
 73
   112
 74
     0
 42
0.0000000001
 43
0.0000000001
 12
1.0
 22
0.0
 32
0.0
 13
1.0
 23
0.0
 33
0.0
 40
0.0
 40
0.0
 40
0.0
 40
0.0
 40
0.0344827586206897
 40
0.0344827586206897
 40
0.0344827586206897
 40
0.0344827586206897
 40
0.0689655172413793
 40
0.0689655172413793
 40
0.0689655172413793
 40
0.0689655172413793
 40
0.103448275862069
 40
0.103448275862069
 40
0.103448275862069
 40
0.103448275862069
 40
0.1379310344827586
 40
0.1379310344827586
 40
0.1379310344827586
 40
0.1379310344827586
 40
0.1724137931034483
 40
0.1724137931034483
 40
0.1724137931034483
 40
0.1724137931034483
 40
0.2068965517241379
 40
0.2068965517241379
 40
0.2068965517241379
 40
0.2068965517241379
 40
0.2413793103448276
 40
0.2413793103448276
 40
0.2413793103448276
 40
0.2413793103448276
 40
0.2758620689655172
 40
0.2758620689655172
 40
0.2758620689655172
 40
0.2758620689655172
 40
0.3103448275862069
 40
0.3103448275862069
 40
0.3103448275862069
 40
0.3103448275862069
 40
0.3448275862068966
 40
0.3448275862068966
 40
0.3448275862068966
 40
0.3448275862068966
 40
0.3793103448275862
 40
0.3793103448275862
 40
0.3793103448275862
 40
0.3793103448275862
 40
0.4137931034482759
 40
0.4137931034482759
 40
0.4137931034482759
 40
0.4137931034482759
 40
0.4482758620689655
 40
0.4482758620689655
 40
0.4482758620689655
 40
0.4482758620689655
 40
0.4827586206896552
 40
0.4827586206896552
 40
0.4827586206896552
 40
0.4827586206896552
 40
0.5172413793103449
 40
0.5172413793103449
 40
0.5172413793103449
 40
0.5172413793103449
 40
0.5517241379310345
 40
0.5517241379310345
 40
0.5517241379310345
 40
0.5517241379310345
 40
0.5862068965517241
 40
0.5862068965517241
 40
0.5862068965517241
 40
0.5862068965517241
 40
0.6206896551724138
 40
0.6206896551724138
 40
0.6206896551724138
 40
0.6206896551724138
 40
0.6551724137931034
 40
0.6551724137931034
 40
0.6551724137931034
 40
0.6551724137931034
 40
0.6896551724137931
 40
0.6896551724137931
 40
0.6896551724137931
 40
0.6896551724137931
 40
0.7241379310344828
 40
0.7241379310344828
 40
0.7241379310344828
 40
0.7241379310344828
 40
0.7586206896551724
 40
0.7586206896551724
 40
0.7586206896551724
 40
0.7586206896551724
 40
0.7931034482758621
 40
0.7931034482758621
 40
0.7931034482758621
 40
0.7931034482758621
 40
0.8275862068965517
 40
0.8275862068965517
 40
0.8275862068965517
 40
0.8275862068965517
 40
0.8620689655172413
 40
0.8620689655172413
 40
0.8620689655172413
 40
0.8620689655172413
 40
0.896551724137931
 40
0.896551724137931
 40
0.896551724137931
 40
0.896551724137931
 40
0.9310344827586207
 40
0.9310344827586207
 40
0.9310344827586207
 40
0.9310344827586207
 40
1.0
 40
1.0
 40
1.0
 40
1.0
 10
-4.32188
 20
8.28934
 30
0.0
 10
-4.32188
 20
8.28934
 30
0.0
 10
-4.32188
 20
8.58228
 30
0.0
 10
-4.32188
 20
8.58228
 30
0.0
 10
-4.32188
 20
8.58228
 30
0.0
 10
-4.32188
 20
8.58228
 30
0.0
 10
-4.27729
 20
8.58228
 30
0.0
 10
-4.27729
 20
8.58228
 30
0.0
 10
-4.27729
 20
8.58228
 30
0.0
 10
-4.27729
 20
8.58228
 30
0.0
 10
-4.27729
 20
8.54089
 30
0.0
 10
-4.27729
 20
8.54089
 30
0.0
 10
-4.27729
 20
8.54089
 30
0.0
 10
-4.26816
 20
8.55519
 30
0.0
 10
-4.25593
 20
8.56676
 30
0.0
 10
-4.24069
 20
8.57542
 30
0.0
 10
-4.24069
 20
8.57542
 30
0.0
 10
-4.22545
 20
8.58417
 30
0.0
 10
-4.20814
 20
8.58849
 30
0.0
 10
-4.18867
 20
8.58849
 30
0.0
 10
-4.18867
 20
8.58849
 30
0.0
 10
-4.16703
 20
8.58849
 30
0.0
 10
-4.14925
 20
8.58398
 30
0.0
 10
-4.13542
 20
8.57504
 30
0.0
 10
-4.13542
 20
8.57504
 30
0.0
 10
-4.12159
 20
8.56601
 30
0.0
 10
-4.11181
 20
8.5535
 30
0.0
 10
-4.10617
 20
8.53732
 30
0.0
 10
-4.10617
 20
8.53732
 30
0.0
 10
-4.08284
 20
8.57147
 30
0.0
 10
-4.05264
 20
8.58849
 30
0.0
 10
-4.01539
 20
8.58849
 30
0.0
 10
-4.01539
 20
8.58849
 30
0.0
 10
-3.98622
 20
8.58849
 30
0.0
 10
-3.96374
 20
8.5805
 30
0.0
 10
-3.94812
 20
8.56441
 30
0.0
 10
-3.94812
 20
8.56441
 30
0.0
 10
-3.93241
 20
8.54832
 30
0.0
 10
-3.92451
 20
8.52358
 30
0.0
 10
-3.92451
 20
8.49019
 30
0.0
 10
-3.92451
 20
8.49019
 30
0.0
 10
-3.92451
 20
8.49019
 30
0.0
 10
-3.92451
 20
8.28934
 30
0.0
 10
-3.92451
 20
8.28934
 30
0.0
 10
-3.92451
 20
8.28934
 30
0.0
 10
-3.92451
 20
8.28934
 30
0.0
 10
-3.97418
 20
8.28934
 30
0.0
 10
-3.97418
 20
8.28934
 30
0.0
 10
-3.97418
 20
8.28934
 30
0.0
 10
-3.97418
 20
8.28934
 30
0.0
 10
-3.97418
 20
8.47372
 30
0.0
 10
-3.97418
 20
8.47372
 30
0.0
 10
-3.97418
 20
8.47372
 30
0.0
 10
-3.97418
 20
8.49348
 30
0.0
 10
-3.97588
 20
8.50778
 30
0.0
 10
-3.97907
 20
8.51653
 30
0.0
 10
-3.97907
 20
8.51653
 30
0.0
 10
-3.98227
 20
8.52528
 30
0.0
 10
-3.9881
 20
8.53224
 30
0.0
 10
-3.99667
 20
8.5376
 30
0.0
 10
-3.99667
 20
8.5376
 30
0.0
 10
-4.00513
 20
8.54296
 30
0.0
 10
-4.0151
 20
8.5456
 30
0.0
 10
-4.02649
 20
8.5456
 30
0.0
 10
-4.02649
 20
8.5456
 30
0.0
 10
-4.04718
 20
8.5456
 30
0.0
 10
-4.0643
 20
8.53873
 30
0.0
 10
-4.07794
 20
8.52509
 30
0.0
 10
-4.07794
 20
8.52509
 30
0.0
 10
-4.09159
 20
8.51135
 30
0.0
 10
-4.09836
 20
8.48943
 30
0.0
 10
-4.09836
 20
8.45933
 30
0.0
 10
-4.09836
 20
8.45933
 30
0.0
 10
-4.09836
 20
8.45933
 30
0.0
 10
-4.09836
 20
8.28934
 30
0.0
 10
-4.09836
 20
8.28934
 30
0.0
 10
-4.09836
 20
8.28934
 30
0.0
 10
-4.09836
 20
8.28934
 30
0.0
 10
-4.14803
 20
8.28934
 30
0.0
 10
-4.14803
 20
8.28934
 30
0.0
 10
-4.14803
 20
8.28934
 30
0.0
 10
-4.14803
 20
8.28934
 30
0.0
 10
-4.14803
 20
8.47946
 30
0.0
 10
-4.14803
 20
8.47946
 30
0.0
 10
-4.14803
 20
8.47946
 30
0.0
 10
-4.14803
 20
8.50148
 30
0.0
 10
-4.15207
 20
8.51803
 30
0.0
 10
-4.16016
 20
8.52904
 30
0.0
 10
-4.16016
 20
8.52904
 30
0.0
 10
-4.16826
 20
8.54005
 30
0.0
 10
-4.18152
 20
8.5456
 30
0.0
 10
-4.19986
 20
8.5456
 30
0.0
 10
-4.19986
 20
8.5456
 30
0.0
 10
-4.21379
 20
8.5456
 30
0.0
 10
-4.22667
 20
8.54193
 30
0.0
 10
-4.23853
 20
8.53459
 30
0.0
 10
-4.23853
 20
8.53459
 30
0.0
 10
-4.25038
 20
8.52725
 30
0.0
 10
-4.25894
 20
8.51653
 30
0.0
 10
-4.2643
 20
8.50232
 30
0.0
 10
-4.2643
 20
8.50232
 30
0.0
 10
-4.26957
 20
8.48821
 30
0.0
 10
-4.27221
 20
8.4678
 30
0.0
 10
-4.27221
 20
8.44117
 30
0.0
 10
-4.27221
 20
8.44117
 30
0.0
 10
-4.27221
 20
8.44117
 30
0.0
 10
-4.27221
 20
8.28934
 30
0.0
 10
-4.27221
 20
8.28934
 30
0.0
 10
-4.27221
 20
8.28934
 30
0.0
 10
-4.27221
 20
8.28934
 30
0.0
 10
-4.32188
 20
8.28934
 30
0.0
 10
-4.32188
 20
8.28934
 30
0.0
  0
SPLINE
  5
56
330
1F
100
AcDbEntity
  8
Layer 1
 62
     1
100
AcDbSpline
210
0.0
220
0.0
230
1.0
 70
    11
 71
     3
 72
    64
 73
    60
 74
     0
 42
0.0000000001
 43
0.0000000001
 12
1.0
 22
0.0
 32
0.0
 13
1.0
 23
0.0
 33
0.0
 40
0.0
 40
0.0
 40
0.0
 40
0.0
 40
0.0625
 40
0.0625
 40
0.0625
 40
0.0625
 40
0.125
 40
0.125
 40
0.125
 40
0.125
 40
0.1875
 40
0.1875
 40
0.1875
 40
0.1875
 40
0.25
 40
0.25
 40
0.25
 40
0.25
 40
0.3125
 40
0.3125
 40
0.3125
 40
0.3125
 40
0.375
 40
0.375
 40
0.375
 40
0.375
 40
0.4375
 40
0.4375
 40
0.4375
 40
0.4375
 40
0.5
 40
0.5
 40
0.5
 40
0.5
 40
0.5625
 40
0.5625
 40
0.5625
 40
0.5625
 40
0.625
 40
0.625
 40
0.625
 40
0.625
 40
0.6875
 40
0.6875
 40
0.6875
 40
0.6875
 40
0.75
 40
0.75
 40
0.75
 40
0.75
 40
0.8125
 40
0.8125
 40
0.8125
 40
0.8125
 40
0.875
 40
0.875
 40
0.875
 40
0.875
 40
1.0
 40
1.0
 40
1.0
 40
1.0
 10
-3.8517
 20
8.17702
 30
0.0
 10
-3.8517
 20
8.17702
 30
0.0
 10
-3.8517
 20
8.58228
 30
0.0
 10
-3.8517
 20
8.58228
 30
0.0
 10
-3.8517
 20
8.58228
 30
0.0
 10
-3.8517
 20
8.58228
 30
0.0
 10
-3.80654
 20
8.58228
 30
0.0
 10
-3.80654
 20
8.58228
 30
0.0
 10
-3.80654
 20
8.58228
 30
0.0
 10
-3.80654
 20
8.58228
 30
0.0
 10
-3.80654
 20
8.54381
 30
0.0
 10
-3.80654
 20
8.54381
 30
0.0
 10
-3.80654
 20
8.54381
 30
0.0
 10
-3.79591
 20
8.55867
 30
0.0
 10
-3.78387
 20
8.56987
 30
0.0
 10
-3.77042
 20
8.5773
 30
0.0
 10
-3.77042
 20
8.5773
 30
0.0
 10
-3.75706
 20
8.58473
 30
0.0
 10
-3.74078
 20
8.58849
 30
0.0
 10
-3.72169
 20
8.58849
 30
0.0
 10
-3.72169
 20
8.58849
 30
0.0
 10
-3.69666
 20
8.58849
 30
0.0
 10
-3.67465
 20
8.5821
 30
0.0
 10
-3.65555
 20
8.56921
 30
0.0
 10
-3.65555
 20
8.56921
 30
0.0
 10
-3.63646
 20
8.55641
 30
0.0
 10
-3.62206
 20
8.53826
 30
0.0
 10
-3.61228
 20
8.51493
 30
0.0
 10
-3.61228
 20
8.51493
 30
0.0
 10
-3.60259
 20
8.4915
 30
0.0
 10
-3.5977
 20
8.46592
 30
0.0
 10
-3.5977
 20
8.43798
 30
0.0
 10
-3.5977
 20
8.43798
 30
0.0
 10
-3.5977
 20
8.40815
 30
0.0
 10
-3.60306
 20
8.38125
 30
0.0
 10
-3.61379
 20
8.35726
 30
0.0
 10
-3.61379
 20
8.35726
 30
0.0
 10
-3.62451
 20
8.33337
 30
0.0
 10
-3.64013
 20
8.31502
 30
0.0
 10
-3.66063
 20
8.30223
 30
0.0
 10
-3.66063
 20
8.30223
 30
0.0
 10
-3.68105
 20
8.28953
 30
0.0
 10
-3.70259
 20
8.28313
 30
0.0
 10
-3.72517
 20
8.28313
 30
0.0
 10
-3.72517
 20
8.28313
 30
0.0
 10
-3.74173
 20
8.28313
 30
0.0
 10
-3.75659
 20
8.28661
 30
0.0
 10
-3.76967
 20
8.29357
 30
0.0
 10
-3.76967
 20
8.29357
 30
0.0
 10
-3.78284
 20
8.30053
 30
0.0
 10
-3.79356
 20
8.30928
 30
0.0
 10
-3.80203
 20
8.31991
 30
0.0
 10
-3.80203
 20
8.31991
 30
0.0
 10
-3.80203
 20
8.31991
 30
0.0
 10
-3.80203
 20
8.17702
 30
0.0
 10
-3.80203
 20
8.17702
 30
0.0
 10
-3.80203
 20
8.17702
 30
0.0
 10
-3.80203
 20
8.17702
 30
0.0
 10
-3.8517
 20
8.17702
 30
0.0
 10
-3.8517
 20
8.17702
 30
0.0
  0
SPLINE
  5
57
330
1F
100
AcDbEntity
  8
Layer 1
 62
     1
100
AcDbSpline
210
0.0
220
0.0
230
1.0
 70
    11
 71
     3
 72
    36
 73
    32
 74
     0
 42
0.0000000001
 43
0.0000000001
 12
1.0
 22
0.0
 32
0.0
 13
1.0
 23
0.0
 33
0.0
 40
0.0
 40
0.0
 40
0.0
 40
0.0
 40
0.1111111111111111
 40
0.1111111111111111
 40
0.1111111111111111
 40
0.1111111111111111
 40
0.2222222222222222
 40
0.2222222222222222
 40
0.2222222222222222
 40
0.2222222222222222
 40
0.3333333333333333
 40
0.3333333333333333
 40
0.3333333333333333
 40
0.3333333333333333
 40
0.4444444444444444
 40
0.4444444444444444
 40
0.4444444444444444
 40
0.4444444444444444
 40
0.5555555555555556
 40
0.5555555555555556
 40
0.5555555555555556
 40
0.5555555555555556
 40
0.6666666666666666
 40
0.6666666666666666
 40
0.6666666666666666
 40
0.6666666666666666
 40
0.7777777777777778
 40
0.7777777777777778
 40
0.7777777777777778
 40
0.7777777777777778
 40
1.0
 40
1.0
 40
1.0
 40
1.0
 10
-3.80654
 20
8.43402
 30
0.0
 10
-3.80654
 20
8.39649
 30
0.0
 10
-3.79892
 20
8.36874
 30
0.0
 10
-3.78378
 20
8.35077
 30
0.0
 10
-3.78378
 20
8.35077
 30
0.0
 10
-3.76854
 20
8.3328
 30
0.0
 10
-3.7501
 20
8.32377
 30
0.0
 10
-3.72846
 20
8.32377
 30
0.0
 10
-3.72846
 20
8.32377
 30
0.0
 10
-3.70645
 20
8.32377
 30
0.0
 10
-3.68763
 20
8.33308
 30
0.0
 10
-3.67202
 20
8.35171
 30
0.0
 10
-3.67202
 20
8.35171
 30
0.0
 10
-3.65631
 20
8.37034
 30
0.0
 10
-3.6485
 20
8.39912
 30
0.0
 10
-3.6485
 20
8.43816
 30
0.0
 10
-3.6485
 20
8.43816
 30
0.0
 10
-3.6485
 20
8.47542
 30
0.0
 10
-3.65612
 20
8.50326
 30
0.0
 10
-3.67145
 20
8.5218
 30
0.0
 10
-3.67145
 20
8.5218
 30
0.0
 10
-3.68679
 20
8.54033
 30
0.0
 10
-3.70504
 20
8.54955
 30
0.0
 10
-3.7263
 20
8.54955
 30
0.0
 10
-3.7263
 20
8.54955
 30
0.0
 10
-3.74737
 20
8.54955
 30
0.0
 10
-3.766
 20
8.53967
 30
0.0
 10
-3.78218
 20
8.52001
 30
0.0
 10
-3.78218
 20
8.52001
 30
0.0
 10
-3.79845
 20
8.50025
 30
0.0
 10
-3.80654
 20
8.47165
 30
0.0
 10
-3.80654
 20
8.43402
 30
0.0
  0
SPLINE
  5
58
330
1F
100
AcDbEntity
  8
Layer 1
 62
     1
100
AcDbSpline
210
0.0
220
0.0
230
1.0
 70
    11
 71
     3
 72
    64
 73
    60
 74
     0
 42
0.0000000001
 43
0.0000000001
 12
1.0
 22
0.0
 32
0.0
 13
1.0
 23
0.0
 33
0.0
 40
0.0
 40
0.0
 40
0.0
 40
0.0
 40
0.0625
 40
0.0625
 40
0.0625
 40
0.0625
 40
0.125
 40
0.125
 40
0.125
 40
0.125
 40
0.1875
 40
0.1875
 40
0.1875
 40
0.1875
 40
0.25
 40
0.25
 40
0.25
 40
0.25
 40
0.3125
 40
0.3125
 40
0.3125
 40
0.3125
 40
0.375
 40
0.375
 40
0.375
 40
0.375
 40
0.4375
 40
0.4375
 40
0.4375
 40
0.4375
 40
0.5
 40
0.5
 40
0.5
 40
0.5
 40
0.5625
 40
0.5625
 40
0.5625
 40
0.5625
 40
0.625
 40
0.625
 40
0.625
 40
0.625
 40
0.6875
 40
0.6875
 40
0.6875
 40
0.6875
 40
0.75
 40
0.75
 40
0.75
 40
0.75
 40
0.8125
 40
0.8125
 40
0.8125
 40
0.8125
 40
0.875
 40
0.875
 40
0.875
 40
0.875
 40
1.0
 40
1.0
 40
1.0
 40
1.0
 10
-3.33797
 20
8.38417
 30
0.0
 10
-3.33797
 20
8.38417
 30
0.0
 10
-3.2866
 20
8.37739
 30
0.0
 10
-3.2866
 20
8.37739
 30
0.0
 10
-3.2866
 20
8.37739
 30
0.0
 10
-3.2946
 20
8.34757
 30
0.0
 10
-3.30956
 20
8.32434
 30
0.0
 10
-3.33138
 20
8.30787
 30
0.0
 10
-3.33138
 20
8.30787
 30
0.0
 10
-3.35321
 20
8.29141
 30
0.0
 10
-3.38105
 20
8.28313
 30
0.0
 10
-3.41501
 20
8.28313
 30
0.0
 10
-3.41501
 20
8.28313
 30
0.0
 10
-3.45772
 20
8.28313
 30
0.0
 10
-3.49159
 20
8.2963
 30
0.0
 10
-3.51661
 20
8.32264
 30
0.0
 10
-3.51661
 20
8.32264
 30
0.0
 10
-3.54163
 20
8.34889
 30
0.0
 10
-3.55415
 20
8.38586
 30
0.0
 10
-3.55415
 20
8.43337
 30
0.0
 10
-3.55415
 20
8.43337
 30
0.0
 10
-3.55415
 20
8.48247
 30
0.0
 10
-3.54154
 20
8.52067
 30
0.0
 10
-3.51623
 20
8.54776
 30
0.0
 10
-3.51623
 20
8.54776
 30
0.0
 10
-3.49093
 20
8.57495
 30
0.0
 10
-3.4581
 20
8.58849
 30
0.0
 10
-3.41774
 20
8.58849
 30
0.0
 10
-3.41774
 20
8.58849
 30
0.0
 10
-3.3787
 20
8.58849
 30
0.0
 10
-3.34681
 20
8.57523
 30
0.0
 10
-3.32207
 20
8.54861
 30
0.0
 10
-3.32207
 20
8.54861
 30
0.0
 10
-3.29733
 20
8.52198
 30
0.0
 10
-3.28491
 20
8.48454
 30
0.0
 10
-3.28491
 20
8.43628
 30
0.0
 10
-3.28491
 20
8.43628
 30
0.0
 10
-3.28491
 20
8.43337
 30
0.0
 10
-3.285
 20
8.42894
 30
0.0
 10
-3.28519
 20
8.42311
 30
0.0
 10
-3.28519
 20
8.42311
 30
0.0
 10
-3.28519
 20
8.42311
 30
0.0
 10
-3.50335
 20
8.42311
 30
0.0
 10
-3.50335
 20
8.42311
 30
0.0
 10
-3.50335
 20
8.42311
 30
0.0
 10
-3.50146
 20
8.39103
 30
0.0
 10
-3.49243
 20
8.36639
 30
0.0
 10
-3.47606
 20
8.34936
 30
0.0
 10
-3.47606
 20
8.34936
 30
0.0
 10
-3.45979
 20
8.33233
 30
0.0
 10
-3.43938
 20
8.32377
 30
0.0
 10
-3.41501
 20
8.32377
 30
0.0
 10
-3.41501
 20
8.32377
 30
0.0
 10
-3.39686
 20
8.32377
 30
0.0
 10
-3.38133
 20
8.32857
 30
0.0
 10
-3.36854
 20
8.33816
 30
0.0
 10
-3.36854
 20
8.33816
 30
0.0
 10
-3.35565
 20
8.34776
 30
0.0
 10
-3.34549
 20
8.36309
 30
0.0
 10
-3.33797
 20
8.38417
 30
0.0
  0
SPLINE
  5
59
330
1F
100
AcDbEntity
  8
Layer 1
 62
     1
100
AcDbSpline
210
0.0
220
0.0
230
1.0
 70
    11
 71
     3
 72
    24
 73
    20
 74
     0
 42
0.0000000001
 43
0.0000000001
 12
1.0
 22
0.0
 32
0.0
 13
1.0
 23
0.0
 33
0.0
 40
0.0
 40
0.0
 40
0.0
 40
0.0
 40
0.1666666666666667
 40
0.1666666666666667
 40
0.1666666666666667
 40
0.1666666666666667
 40
0.3333333333333333
 40
0.3333333333333333
 40
0.3333333333333333
 40
0.3333333333333333
 40
0.5
 40
0.5
 40
0.5
 40
0.5
 40
0.6666666666666666
 40
0.6666666666666666
 40
0.6666666666666666
 40
0.6666666666666666
 40
1.0
 40
1.0
 40
1.0
 40
1.0
 10
-3.50052
 20
8.46375
 30
0.0
 10
-3.50052
 20
8.46375
 30
0.0
 10
-3.3374
 20
8.46375
 30
0.0
 10
-3.3374
 20
8.46375
 30
0.0
 10
-3.3374
 20
8.46375
 30
0.0
 10
-3.33956
 20
8.4884
 30
0.0
 10
-3.34587
 20
8.50684
 30
0.0
 10
-3.35612
 20
8.51916
 30
0.0
 10
-3.35612
 20
8.51916
 30
0.0
 10
-3.37183
 20
8.53826
 30
0.0
 10
-3.39234
 20
8.54785
 30
0.0
 10
-3.41746
 20
8.54785
 30
0.0
 10
-3.41746
 20
8.54785
 30
0.0
 10
-3.44022
 20
8.54785
 30
0.0
 10
-3.45932
 20
8.54023
 30
0.0
 10
-3.47484
 20
8.52499
 30
0.0
 10
-3.47484
 20
8.52499
 30
0.0
 10
-3.49027
 20
8.50975
 30
0.0
 10
-3.49883
 20
8.48934
 30
0.0
 10
-3.50052
 20
8.46375
 30
0.0
  0
SPLINE
  5
5A
330
1F
100
AcDbEntity
  8
Layer 1
 62
     1
100
AcDbSpline
210
0.0
220
0.0
230
1.0
 70
    11
 71
     3
 72
    56
 73
    52
 74
     0
 42
0.0000000001
 43
0.0000000001
 12
1.0
 22
0.0
 32
0.0
 13
1.0
 23
0.0
 33
0.0
 40
0.0
 40
0.0
 40
0.0
 40
0.0
 40
0.0714285714285714
 40
0.0714285714285714
 40
0.0714285714285714
 40
0.0714285714285714
 40
0.1428571428571428
 40
0.1428571428571428
 40
0.1428571428571428
 40
0.1428571428571428
 40
0.2142857142857143
 40
0.2142857142857143
 40
0.2142857142857143
 40
0.2142857142857143
 40
0.2857142857142857
 40
0.2857142857142857
 40
0.2857142857142857
 40
0.2857142857142857
 40
0.3571428571428572
 40
0.3571428571428572
 40
0.3571428571428572
 40
0.3571428571428572
 40
0.4285714285714285
 40
0.4285714285714285
 40
0.4285714285714285
 40
0.4285714285714285
 40
0.5
 40
0.5
 40
0.5
 40
0.5
 40
0.5714285714285714
 40
0.5714285714285714
 40
0.5714285714285714
 40
0.5714285714285714
 40
0.6428571428571429
 40
0.6428571428571429
 40
0.6428571428571429
 40
0.6428571428571429
 40
0.7142857142857143
 40
0.7142857142857143
 40
0.7142857142857143
 40
0.7142857142857143
 40
0.7857142857142857
 40
0.7857142857142857
 40
0.7857142857142857
 40
0.7857142857142857
 40
0.8571428571428571
 40
0.8571428571428571
 40
0.8571428571428571
 40
0.8571428571428571
 40
1.0
 40
1.0
 40
1.0
 40
1.0
 10
-3.22442
 20
8.28934
 30
0.0
 10
-3.22442
 20
8.28934
 30
0.0
 10
-3.22442
 20
8.58228
 30
0.0
 10
-3.22442
 20
8.58228
 30
0.0
 10
-3.22442
 20
8.58228
 30
0.0
 10
-3.22442
 20
8.58228
 30
0.0
 10
-3.17983
 20
8.58228
 30
0.0
 10
-3.17983
 20
8.58228
 30
0.0
 10
-3.17983
 20
8.58228
 30
0.0
 10
-3.17983
 20
8.58228
 30
0.0
 10
-3.17983
 20
8.53741
 30
0.0
 10
-3.17983
 20
8.53741
 30
0.0
 10
-3.17983
 20
8.53741
 30
0.0
 10
-3.16845
 20
8.5582
 30
0.0
 10
-3.15791
 20
8.57194
 30
0.0
 10
-3.14822
 20
8.57852
 30
0.0
 10
-3.14822
 20
8.57852
 30
0.0
 10
-3.13853
 20
8.5852
 30
0.0
 10
-3.1279
 20
8.58849
 30
0.0
 10
-3.11633
 20
8.58849
 30
0.0
 10
-3.11633
 20
8.58849
 30
0.0
 10
-3.09959
 20
8.58849
 30
0.0
 10
-3.08256
 20
8.58323
 30
0.0
 10
-3.06525
 20
8.57278
 30
0.0
 10
-3.06525
 20
8.57278
 30
0.0
 10
-3.06525
 20
8.57278
 30
0.0
 10
-3.08294
 20
8.52697
 30
0.0
 10
-3.08294
 20
8.52697
 30
0.0
 10
-3.08294
 20
8.52697
 30
0.0
 10
-3.09498
 20
8.53374
 30
0.0
 10
-3.10702
 20
8.53713
 30
0.0
 10
-3.11906
 20
8.53713
 30
0.0
 10
-3.11906
 20
8.53713
 30
0.0
 10
-3.12988
 20
8.53713
 30
0.0
 10
-3.13957
 20
8.53384
 30
0.0
 10
-3.14813
 20
8.52735
 30
0.0
 10
-3.14813
 20
8.52735
 30
0.0
 10
-3.15669
 20
8.52085
 30
0.0
 10
-3.1628
 20
8.51182
 30
0.0
 10
-3.16647
 20
8.50025
 30
0.0
 10
-3.16647
 20
8.50025
 30
0.0
 10
-3.17202
 20
8.48266
 30
0.0
 10
-3.17475
 20
8.46338
 30
0.0
 10
-3.17475
 20
8.4424
 30
0.0
 10
-3.17475
 20
8.4424
 30
0.0
 10
-3.17475
 20
8.4424
 30
0.0
 10
-3.17475
 20
8.28934
 30
0.0
 10
-3.17475
 20
8.28934
 30
0.0
 10
-3.17475
 20
8.28934
 30
0.0
 10
-3.17475
 20
8.28934
 30
0.0
 10
-3.22442
 20
8.28934
 30
0.0
 10
-3.22442
 20
8.28934
 30
0.0
  0
SPLINE
  5
5B
330
1F
100
AcDbEntity
  8
Layer 1
 62
     1
100
AcDbSpline
210
0.0
220
0.0
230
1.0
 70
    11
 71
     3
 72
    64
 73
    60
 74
     0
 42
0.0000000001
 43
0.0000000001
 12
1.0
 22
0.0
 32
0.0
 13
1.0
 23
0.0
 33
0.0
 40
0.0
 40
0.0
 40
0.0
 40
0.0
 40
0.0625
 40
0.0625
 40
0.0625
 40
0.0625
 40
0.125
 40
0.125
 40
0.125
 40
0.125
 40
0.1875
 40
0.1875
 40
0.1875
 40
0.1875
 40
0.25
 40
0.25
 40
0.25
 40
0.25
 40
0.3125
 40
0.3125
 40
0.3125
 40
0.3125
 40
0.375
 40
0.375
 40
0.375
 40
0.375
 40
0.4375
 40
0.4375
 40
0.4375
 40
0.4375
 40
0.5
 40
0.5
 40
0.5
 40
0.5
 40
0.5625
 40
0.5625
 40
0.5625
 40
0.5625
 40
0.625
 40
0.625
 40
0.625
 40
0.625
 40
0.6875
 40
0.6875
 40
0.6875
 40
0.6875
 40
0.75
 40
0.75
 40
0.75
 40
0.75
 40
0.8125
 40
0.8125
 40
0.8125
 40
0.8125
 40
0.875
 40
0.875
 40
0.875
 40
0.875
 40
1.0
 40
1.0
 40
1.0
 40
1.0
 10
-2.874
 20
8.28934
 30
0.0
 10
-2.874
 20
8.28934
 30
0.0
 10
-2.874
 20
8.69348
 30
0.0
 10
-2.874
 20
8.69348
 30
0.0
 10
-2.874
 20
8.69348
 30
0.0
 10
-2.874
 20
8.69348
 30
0.0
 10
-2.79385
 20
8.69348
 30
0.0
 10
-2.79385
 20
8.69348
 30
0.0
 10
-2.79385
 20
8.69348
 30
0.0
 10
-2.79385
 20
8.69348
 30
0.0
 10
-2.69827
 20
8.4074
 30
0.0
 10
-2.69827
 20
8.4074
 30
0.0
 10
-2.69827
 20
8.4074
 30
0.0
 10
-2.68943
 20
8.38078
 30
0.0
 10
-2.68303
 20
8.36084
 30
0.0
 10
-2.67898
 20
8.34757
 30
0.0
 10
-2.67898
 20
8.34757
 30
0.0
 10
-2.67437
 20
8.36225
 30
0.0
 10
-2.66713
 20
8.38388
 30
0.0
 10
-2.65735
 20
8.41239
 30
0.0
 10
-2.65735
 20
8.41239
 30
0.0
 10
-2.65735
 20
8.41239
 30
0.0
 10
-2.56007
 20
8.69348
 30
0.0
 10
-2.56007
 20
8.69348
 30
0.0
 10
-2.56007
 20
8.69348
 30
0.0
 10
-2.56007
 20
8.69348
 30
0.0
 10
-2.48848
 20
8.69348
 30
0.0
 10
-2.48848
 20
8.69348
 30
0.0
 10
-2.48848
 20
8.69348
 30
0.0
 10
-2.48848
 20
8.69348
 30
0.0
 10
-2.48848
 20
8.28934
 30
0.0
 10
-2.48848
 20
8.28934
 30
0.0
 10
-2.48848
 20
8.28934
 30
0.0
 10
-2.48848
 20
8.28934
 30
0.0
 10
-2.53985
 20
8.28934
 30
0.0
 10
-2.53985
 20
8.28934
 30
0.0
 10
-2.53985
 20
8.28934
 30
0.0
 10
-2.53985
 20
8.28934
 30
0.0
 10
-2.53985
 20
8.62744
 30
0.0
 10
-2.53985
 20
8.62744
 30
0.0
 10
-2.53985
 20
8.62744
 30
0.0
 10
-2.53985
 20
8.62744
 30
0.0
 10
-2.65782
 20
8.28934
 30
0.0
 10
-2.65782
 20
8.28934
 30
0.0
 10
-2.65782
 20
8.28934
 30
0.0
 10
-2.65782
 20
8.28934
 30
0.0
 10
-2.70598
 20
8.28934
 30
0.0
 10
-2.70598
 20
8.28934
 30
0.0
 10
-2.70598
 20
8.28934
 30
0.0
 10
-2.70598
 20
8.28934
 30
0.0
 10
-2.82263
 20
8.63365
 30
0.0
 10
-2.82263
 20
8.63365
 30
0.0
 10
-2.82263
 20
8.63365
 30
0.0
 10
-2.82263
 20
8.63365
 30
0.0
 10
-2.82263
 20
8.28934
 30
0.0
 10
-2.82263
 20
8.28934
 30
0.0
 10
-2.82263
 20
8.28934
 30
0.0
 10
-2.82263
 20
8.28934
 30
0.0
 10
-2.874
 20
8.28934
 30
0.0
 10
-2.874
 20
8.28934
 30
0.0
  0
SPLINE
  5
5C
330
1F
100
AcDbEntity
  8
Layer 1
 62
     1
100
AcDbSpline
210
0.0
220
0.0
230
1.0
 70
    11
 71
     3
 72
    64
 73
    60
 74
     0
 42
0.0000000001
 43
0.0000000001
 12
1.0
 22
0.0
 32
0.0
 13
1.0
 23
0.0
 33
0.0
 40
0.0
 40
0.0
 40
0.0
 40
0.0
 40
0.0625
 40
0.0625
 40
0.0625
 40
0.0625
 40
0.125
 40
0.125
 40
0.125
 40
0.125
 40
0.1875
 40
0.1875
 40
0.1875
 40
0.1875
 40
0.25
 40
0.25
 40
0.25
 40
0.25
 40
0.3125
 40
0.3125
 40
0.3125
 40
0.3125
 40
0.375
 40
0.375
 40
0.375
 40
0.375
 40
0.4375
 40
0.4375
 40
0.4375
 40
0.4375
 40
0.5
 40
0.5
 40
0.5
 40
0.5
 40
0.5625
 40
0.5625
 40
0.5625
 40
0.5625
 40
0.625
 40
0.625
 40
0.625
 40
0.625
 40
0.6875
 40
0.6875
 40
0.6875
 40
0.6875
 40
0.75
 40
0.75
 40
0.75
 40
0.75
 40
0.8125
 40
0.8125
 40
0.8125
 40
0.8125
 40
0.875
 40
0.875
 40
0.875
 40
0.875
 40
1.0
 40
1.0
 40
1.0
 40
1.0
 10
-2.20909
 20
8.38417
 30
0.0
 10
-2.20909
 20
8.38417
 30
0.0
 10
-2.15772
 20
8.37739
 30
0.0
 10
-2.15772
 20
8.37739
 30
0.0
 10
-2.15772
 20
8.37739
 30
0.0
 10
-2.16572
 20
8.34757
 30
0.0
 10
-2.18068
 20
8.32434
 30
0.0
 10
-2.2025
 20
8.30787
 30
0.0
 10
-2.2025
 20
8.30787
 30
0.0
 10
-2.22433
 20
8.29141
 30
0.0
 10
-2.25217
 20
8.28313
 30
0.0
 10
-2.28613
 20
8.28313
 30
0.0
 10
-2.28613
 20
8.28313
 30
0.0
 10
-2.32884
 20
8.28313
 30
0.0
 10
-2.36271
 20
8.2963
 30
0.0
 10
-2.38773
 20
8.32264
 30
0.0
 10
-2.38773
 20
8.32264
 30
0.0
 10
-2.41275
 20
8.34889
 30
0.0
 10
-2.42527
 20
8.38586
 30
0.0
 10
-2.42527
 20
8.43337
 30
0.0
 10
-2.42527
 20
8.43337
 30
0.0
 10
-2.42527
 20
8.48247
 30
0.0
 10
-2.41266
 20
8.52067
 30
0.0
 10
-2.38735
 20
8.54776
 30
0.0
 10
-2.38735
 20
8.54776
 30
0.0
 10
-2.36205
 20
8.57495
 30
0.0
 10
-2.32922
 20
8.58849
 30
0.0
 10
-2.28886
 20
8.58849
 30
0.0
 10
-2.28886
 20
8.58849
 30
0.0
 10
-2.24982
 20
8.58849
 30
0.0
 10
-2.21793
 20
8.57523
 30
0.0
 10
-2.19319
 20
8.54861
 30
0.0
 10
-2.19319
 20
8.54861
 30
0.0
 10
-2.16845
 20
8.52198
 30
0.0
 10
-2.15603
 20
8.48454
 30
0.0
 10
-2.15603
 20
8.43628
 30
0.0
 10
-2.15603
 20
8.43628
 30
0.0
 10
-2.15603
 20
8.43337
 30
0.0
 10
-2.15612
 20
8.42894
 30
0.0
 10
-2.15631
 20
8.42311
 30
0.0
 10
-2.15631
 20
8.42311
 30
0.0
 10
-2.15631
 20
8.42311
 30
0.0
 10
-2.37447
 20
8.42311
 30
0.0
 10
-2.37447
 20
8.42311
 30
0.0
 10
-2.37447
 20
8.42311
 30
0.0
 10
-2.37258
 20
8.39103
 30
0.0
 10
-2.36355
 20
8.36639
 30
0.0
 10
-2.34718
 20
8.34936
 30
0.0
 10
-2.34718
 20
8.34936
 30
0.0
 10
-2.33091
 20
8.33233
 30
0.0
 10
-2.3105
 20
8.32377
 30
0.0
 10
-2.28613
 20
8.32377
 30
0.0
 10
-2.28613
 20
8.32377
 30
0.0
 10
-2.26798
 20
8.32377
 30
0.0
 10
-2.25245
 20
8.32857
 30
0.0
 10
-2.23966
 20
8.33816
 30
0.0
 10
-2.23966
 20
8.33816
 30
0.0
 10
-2.22677
 20
8.34776
 30
0.0
 10
-2.21661
 20
8.36309
 30
0.0
 10
-2.20909
 20
8.38417
 30
0.0
  0
SPLINE
  5
5D
330
1F
100
AcDbEntity
  8
Layer 1
 62
     1
100
AcDbSpline
210
0.0
220
0.0
230
1.0
 70
    11
 71
     3
 72
    24
 73
    20
 74
     0
 42
0.0000000001
 43
0.0000000001
 12
1.0
 22
0.0
 32
0.0
 13
1.0
 23
0.0
 33
0.0
 40
0.0
 40
0.0
 40
0.0
 40
0.0
 40
0.1666666666666667
 40
0.1666666666666667
 40
0.1666666666666667
 40
0.1666666666666667
 40
0.3333333333333333
 40
0.3333333333333333
 40
0.3333333333333333
 40
0.3333333333333333
 40
0.5
 40
0.5
 40
0.5
 40
0.5
 40
0.6666666666666666
 40
0.6666666666666666
 40
0.6666666666666666
 40
0.6666666666666666
 40
1.0
 40
1.0
 40
1.0
 40
1.0
 10
-2.37164
 20
8.46375
 30
0.0
 10
-2.37164
 20
8.46375
 30
0.0
 10
-2.20852
 20
8.46375
 30
0.0
 10
-2.20852
 20
8.46375
 30
0.0
 10
-2.20852
 20
8.46375
 30
0.0
 10
-2.21068
 20
8.4884
 30
0.0
 10
-2.21699
 20
8.50684
 30
0.0
 10
-2.22724
 20
8.51916
 30
0.0
 10
-2.22724
 20
8.51916
 30
0.0
 10
-2.24295
 20
8.53826
 30
0.0
 10
-2.26346
 20
8.54785
 30
0.0
 10
-2.28858
 20
8.54785
 30
0.0
 10
-2.28858
 20
8.54785
 30
0.0
 10
-2.31134
 20
8.54785
 30
0.0
 10
-2.33044
 20
8.54023
 30
0.0
 10
-2.34596
 20
8.52499
 30
0.0
 10
-2.34596
 20
8.52499
 30
0.0
 10
-2.36139
 20
8.50975
 30
0.0
 10
-2.36995
 20
8.48934
 30
0.0
 10
-2.37164
 20
8.46375
 30
0.0
  0
SPLINE
  5
5E
330
1F
100
AcDbEntity
  8
Layer 1
 62
     1
100
AcDbSpline
210
0.0
220
0.0
230
1.0
 70
    11
 71
     3
 72
    84
 73
    80
 74
     0
 42
0.0000000001
 43
0.0000000001
 12
1.0
 22
0.0
 32
0.0
 13
1.0
 23
0.0
 33
0.0
 40
0.0
 40
0.0
 40
0.0
 40
0.0
 40
0.0476190476190476
 40
0.0476190476190476
 40
0.0476190476190476
 40
0.0476190476190476
 40
0.0952380952380952
 40
0.0952380952380952
 40
0.0952380952380952
 40
0.0952380952380952
 40
0.1428571428571428
 40
0.1428571428571428
 40
0.1428571428571428
 40
0.1428571428571428
 40
0.1904761904761905
 40
0.1904761904761905
 40
0.1904761904761905
 40
0.1904761904761905
 40
0.2380952380952381
 40
0.2380952380952381
 40
0.2380952380952381
 40
0.2380952380952381
 40
0.2857142857142857
 40
0.2857142857142857
 40
0.2857142857142857
 40
0.2857142857142857
 40
0.3333333333333333
 40
0.3333333333333333
 40
0.3333333333333333
 40
0.3333333333333333
 40
0.3809523809523809
 40
0.3809523809523809
 40
0.3809523809523809
 40
0.3809523809523809
 40
0.4285714285714285
 40
0.4285714285714285
 40
0.4285714285714285
 40
0.4285714285714285
 40
0.4761904761904762
 40
0.4761904761904762
 40
0.4761904761904762
 40
0.4761904761904762
 40
0.5238095238095238
 40
0.5238095238095238
 40
0.5238095238095238
 40
0.5238095238095238
 40
0.5714285714285714
 40
0.5714285714285714
 40
0.5714285714285714
 40
0.5714285714285714
 40
0.6190476190476191
 40
0.6190476190476191
 40
0.6190476190476191
 40
0.6190476190476191
 40
0.6666666666666666
 40
0.6666666666666666
 40
0.6666666666666666
 40
0.6666666666666666
 40
0.7142857142857143
 40
0.7142857142857143
 40
0.7142857142857143
 40
0.7142857142857143
 40
0.7619047619047619
 40
0.7619047619047619
 40
0.7619047619047619
 40
0.7619047619047619
 40
0.8095238095238095
 40
0.8095238095238095
 40
0.8095238095238095
 40
0.8095238095238095
 40
0.8571428571428571
 40
0.8571428571428571
 40
0.8571428571428571
 40
0.8571428571428571
 40
0.9047619047619048
 40
0.9047619047619048
 40
0.9047619047619048
 40
0.9047619047619048
 40
1.0
 40
1.0
 40
1.0
 40
1.0
 10
-1.98717
 20
8.33365
 30
0.0
 10
-1.98717
 20
8.33365
 30
0.0
 10
-1.9804
 20
8.28981
 30
0.0
 10
-1.9804
 20
8.28981
 30
0.0
 10
-1.9804
 20
8.28981
 30
0.0
 10
-1.99432
 20
8.28689
 30
0.0
 10
-2.00683
 20
8.28539
 30
0.0
 10
-2.01774
 20
8.28539
 30
0.0
 10
-2.01774
 20
8.28539
 30
0.0
 10
-2.03571
 20
8.28539
 30
0.0
 10
-2.04963
 20
8.28821
 30
0.0
 10
-2.05961
 20
8.29395
 30
0.0
 10
-2.05961
 20
8.29395
 30
0.0
 10
-2.06948
 20
8.29969
 30
0.0
 10
-2.07644
 20
8.30712
 30
0.0
 10
-2.08049
 20
8.31643
 30
0.0
 10
-2.08049
 20
8.31643
 30
0.0
 10
-2.08453
 20
8.32575
 30
0.0
 10
-2.08651
 20
8.34531
 30
0.0
 10
-2.08651
 20
8.37513
 30
0.0
 10
-2.08651
 20
8.37513
 30
0.0
 10
-2.08651
 20
8.37513
 30
0.0
 10
-2.08651
 20
8.5439
 30
0.0
 10
-2.08651
 20
8.5439
 30
0.0
 10
-2.08651
 20
8.5439
 30
0.0
 10
-2.08651
 20
8.5439
 30
0.0
 10
-2.1232
 20
8.5439
 30
0.0
 10
-2.1232
 20
8.5439
 30
0.0
 10
-2.1232
 20
8.5439
 30
0.0
 10
-2.1232
 20
8.5439
 30
0.0
 10
-2.1232
 20
8.58228
 30
0.0
 10
-2.1232
 20
8.58228
 30
0.0
 10
-2.1232
 20
8.58228
 30
0.0
 10
-2.1232
 20
8.58228
 30
0.0
 10
-2.08651
 20
8.58228
 30
0.0
 10
-2.08651
 20
8.58228
 30
0.0
 10
-2.08651
 20
8.58228
 30
0.0
 10
-2.08651
 20
8.58228
 30
0.0
 10
-2.08651
 20
8.65472
 30
0.0
 10
-2.08651
 20
8.65472
 30
0.0
 10
-2.08651
 20
8.65472
 30
0.0
 10
-2.08651
 20
8.65472
 30
0.0
 10
-2.03684
 20
8.68454
 30
0.0
 10
-2.03684
 20
8.68454
 30
0.0
 10
-2.03684
 20
8.68454
 30
0.0
 10
-2.03684
 20
8.68454
 30
0.0
 10
-2.03684
 20
8.58228
 30
0.0
 10
-2.03684
 20
8.58228
 30
0.0
 10
-2.03684
 20
8.58228
 30
0.0
 10
-2.03684
 20
8.58228
 30
0.0
 10
-1.98717
 20
8.58228
 30
0.0
 10
-1.98717
 20
8.58228
 30
0.0
 10
-1.98717
 20
8.58228
 30
0.0
 10
-1.98717
 20
8.58228
 30
0.0
 10
-1.98717
 20
8.5439
 30
0.0
 10
-1.98717
 20
8.5439
 30
0.0
 10
-1.98717
 20
8.5439
 30
0.0
 10
-1.98717
 20
8.5439
 30
0.0
 10
-2.03684
 20
8.5439
 30
0.0
 10
-2.03684
 20
8.5439
 30
0.0
 10
-2.03684
 20
8.5439
 30
0.0
 10
-2.03684
 20
8.5439
 30
0.0
 10
-2.03684
 20
8.37231
 30
0.0
 10
-2.03684
 20
8.37231
 30
0.0
 10
-2.03684
 20
8.37231
 30
0.0
 10
-2.03684
 20
8.35811
 30
0.0
 10
-2.03599
 20
8.34898
 30
0.0
 10
-2.03421
 20
8.34494
 30
0.0
 10
-2.03421
 20
8.34494
 30
0.0
 10
-2.03251
 20
8.34089
 30
0.0
 10
-2.02969
 20
8.33769
 30
0.0
 10
-2.02574
 20
8.33525
 30
0.0
 10
-2.02574
 20
8.33525
 30
0.0
 10
-2.02179
 20
8.3329
 30
0.0
 10
-2.01614
 20
8.33167
 30
0.0
 10
-2.00881
 20
8.33167
 30
0.0
 10
-2.00881
 20
8.33167
 30
0.0
 10
-2.00335
 20
8.33167
 30
0.0
 10
-1.99611
 20
8.33233
 30
0.0
 10
-1.98717
 20
8.33365
 30
0.0
  0
SPLINE
  5
5F
330
1F
100
AcDbEntity
  8
Layer 1
 62
     1
100
AcDbSpline
210
0.0
220
0.0
230
1.0
 70
    11
 71
     3
 72
    64
 73
    60
 74
     0
 42
0.0000000001
 43
0.0000000001
 12
1.0
 22
0.0
 32
0.0
 13
1.0
 23
0.0
 33
0.0
 40
0.0
 40
0.0
 40
0.0
 40
0.0
 40
0.0625
 40
0.0625
 40
0.0625
 40
0.0625
 40
0.125
 40
0.125
 40
0.125
 40
0.125
 40
0.1875
 40
0.1875
 40
0.1875
 40
0.1875
 40
0.25
 40
0.25
 40
0.25
 40
0.25
 40
0.3125
 40
0.3125
 40
0.3125
 40
0.3125
 40
0.375
 40
0.375
 40
0.375
 40
0.375
 40
0.4375
 40
0.4375
 40
0.4375
 40
0.4375
 40
0.5
 40
0.5
 40
0.5
 40
0.5
 40
0.5625
 40
0.5625
 40
0.5625
 40
0.5625
 40
0.625
 40
0.625
 40
0.625
 40
0.625
 40
0.6875
 40
0.6875
 40
0.6875
 40
0.6875
 40
0.75
 40
0.75
 40
0.75
 40
0.75
 40
0.8125
 40
0.8125
 40
0.8125
 40
0.8125
 40
0.875
 40
0.875
 40
0.875
 40
0.875
 40
1.0
 40
1.0
 40
1.0
 40
1.0
 10
-1.73835
 20
8.38417
 30
0.0
 10
-1.73835
 20
8.38417
 30
0.0
 10
-1.68698
 20
8.37739
 30
0.0
 10
-1.68698
 20
8.37739
 30
0.0
 10
-1.68698
 20
8.37739
 30
0.0
 10
-1.69498
 20
8.34757
 30
0.0
 10
-1.70994
 20
8.32434
 30
0.0
 10
-1.73176
 20
8.30787
 30
0.0
 10
-1.73176
 20
8.30787
 30
0.0
 10
-1.75359
 20
8.29141
 30
0.0
 10
-1.78143
 20
8.28313
 30
0.0
 10
-1.81539
 20
8.28313
 30
0.0
 10
-1.81539
 20
8.28313
 30
0.0
 10
-1.8581
 20
8.28313
 30
0.0
 10
-1.89197
 20
8.2963
 30
0.0
 10
-1.91699
 20
8.32264
 30
0.0
 10
-1.91699
 20
8.32264
 30
0.0
 10
-1.94201
 20
8.34889
 30
0.0
 10
-1.95453
 20
8.38586
 30
0.0
 10
-1.95453
 20
8.43337
 30
0.0
 10
-1.95453
 20
8.43337
 30
0.0
 10
-1.95453
 20
8.48247
 30
0.0
 10
-1.94192
 20
8.52067
 30
0.0
 10
-1.91661
 20
8.54776
 30
0.0
 10
-1.91661
 20
8.54776
 30
0.0
 10
-1.89131
 20
8.57495
 30
0.0
 10
-1.85848
 20
8.58849
 30
0.0
 10
-1.81812
 20
8.58849
 30
0.0
 10
-1.81812
 20
8.58849
 30
0.0
 10
-1.77908
 20
8.58849
 30
0.0
 10
-1.74719
 20
8.57523
 30
0.0
 10
-1.72245
 20
8.54861
 30
0.0
 10
-1.72245
 20
8.54861
 30
0.0
 10
-1.69771
 20
8.52198
 30
0.0
 10
-1.68529
 20
8.48454
 30
0.0
 10
-1.68529
 20
8.43628
 30
0.0
 10
-1.68529
 20
8.43628
 30
0.0
 10
-1.68529
 20
8.43337
 30
0.0
 10
-1.68538
 20
8.42894
 30
0.0
 10
-1.68557
 20
8.42311
 30
0.0
 10
-1.68557
 20
8.42311
 30
0.0
 10
-1.68557
 20
8.42311
 30
0.0
 10
-1.90373
 20
8.42311
 30
0.0
 10
-1.90373
 20
8.42311
 30
0.0
 10
-1.90373
 20
8.42311
 30
0.0
 10
-1.90184
 20
8.39103
 30
0.0
 10
-1.89281
 20
8.36639
 30
0.0
 10
-1.87644
 20
8.34936
 30
0.0
 10
-1.87644
 20
8.34936
 30
0.0
 10
-1.86017
 20
8.33233
 30
0.0
 10
-1.83976
 20
8.32377
 30
0.0
 10
-1.81539
 20
8.32377
 30
0.0
 10
-1.81539
 20
8.32377
 30
0.0
 10
-1.79724
 20
8.32377
 30
0.0
 10
-1.78171
 20
8.32857
 30
0.0
 10
-1.76892
 20
8.33816
 30
0.0
 10
-1.76892
 20
8.33816
 30
0.0
 10
-1.75603
 20
8.34776
 30
0.0
 10
-1.74587
 20
8.36309
 30
0.0
 10
-1.73835
 20
8.38417
 30
0.0
  0
SPLINE
  5
60
330
1F
100
AcDbEntity
  8
Layer 1
 62
     1
100
AcDbSpline
210
0.0
220
0.0
230
1.0
 70
    11
 71
     3
 72
    24
 73
    20
 74
     0
 42
0.0000000001
 43
0.0000000001
 12
1.0
 22
0.0
 32
0.0
 13
1.0
 23
0.0
 33
0.0
 40
0.0
 40
0.0
 40
0.0
 40
0.0
 40
0.1666666666666667
 40
0.1666666666666667
 40
0.1666666666666667
 40
0.1666666666666667
 40
0.3333333333333333
 40
0.3333333333333333
 40
0.3333333333333333
 40
0.3333333333333333
 40
0.5
 40
0.5
 40
0.5
 40
0.5
 40
0.6666666666666666
 40
0.6666666666666666
 40
0.6666666666666666
 40
0.6666666666666666
 40
1.0
 40
1.0
 40
1.0
 40
1.0
 10
-1.9009
 20
8.46375
 30
0.0
 10
-1.9009
 20
8.46375
 30
0.0
 10
-1.73778
 20
8.46375
 30
0.0
 10
-1.73778
 20
8.46375
 30
0.0
 10
-1.73778
 20
8.46375
 30
0.0
 10
-1.73994
 20
8.4884
 30
0.0
 10
-1.74625
 20
8.50684
 30
0.0
 10
-1.7565
 20
8.51916
 30
0.0
 10
-1.7565
 20
8.51916
 30
0.0
 10
-1.77221
 20
8.53826
 30
0.0
 10
-1.79272
 20
8.54785
 30
0.0
 10
-1.81784
 20
8.54785
 30
0.0
 10
-1.81784
 20
8.54785
 30
0.0
 10
-1.8406
 20
8.54785
 30
0.0
 10
-1.8597
 20
8.54023
 30
0.0
 10
-1.87522
 20
8.52499
 30
0.0
 10
-1.87522
 20
8.52499
 30
0.0
 10
-1.89065
 20
8.50975
 30
0.0
 10
-1.89921
 20
8.48934
 30
0.0
 10
-1.9009
 20
8.46375
 30
0.0
  0
SPLINE
  5
61
330
1F
100
AcDbEntity
  8
Layer 1
 62
     1
100
AcDbSpline
210
0.0
220
0.0
230
1.0
 70
    11
 71
     3
 72
    56
 73
    52
 74
     0
 42
0.0000000001
 43
0.0000000001
 12
1.0
 22
0.0
 32
0.0
 13
1.0
 23
0.0
 33
0.0
 40
0.0
 40
0.0
 40
0.0
 40
0.0
 40
0.0714285714285714
 40
0.0714285714285714
 40
0.0714285714285714
 40
0.0714285714285714
 40
0.1428571428571428
 40
0.1428571428571428
 40
0.1428571428571428
 40
0.1428571428571428
 40
0.2142857142857143
 40
0.2142857142857143
 40
0.2142857142857143
 40
0.2142857142857143
 40
0.2857142857142857
 40
0.2857142857142857
 40
0.2857142857142857
 40
0.2857142857142857
 40
0.3571428571428572
 40
0.3571428571428572
 40
0.3571428571428572
 40
0.3571428571428572
 40
0.4285714285714285
 40
0.4285714285714285
 40
0.4285714285714285
 40
0.4285714285714285
 40
0.5
 40
0.5
 40
0.5
 40
0.5
 40
0.5714285714285714
 40
0.5714285714285714
 40
0.5714285714285714
 40
0.5714285714285714
 40
0.6428571428571429
 40
0.6428571428571429
 40
0.6428571428571429
 40
0.6428571428571429
 40
0.7142857142857143
 40
0.7142857142857143
 40
0.7142857142857143
 40
0.7142857142857143
 40
0.7857142857142857
 40
0.7857142857142857
 40
0.7857142857142857
 40
0.7857142857142857
 40
0.8571428571428571
 40
0.8571428571428571
 40
0.8571428571428571
 40
0.8571428571428571
 40
1.0
 40
1.0
 40
1.0
 40
1.0
 10
-1.6248
 20
8.28934
 30
0.0
 10
-1.6248
 20
8.28934
 30
0.0
 10
-1.6248
 20
8.58228
 30
0.0
 10
-1.6248
 20
8.58228
 30
0.0
 10
-1.6248
 20
8.58228
 30
0.0
 10
-1.6248
 20
8.58228
 30
0.0
 10
-1.58021
 20
8.58228
 30
0.0
 10
-1.58021
 20
8.58228
 30
0.0
 10
-1.58021
 20
8.58228
 30
0.0
 10
-1.58021
 20
8.58228
 30
0.0
 10
-1.58021
 20
8.53741
 30
0.0
 10
-1.58021
 20
8.53741
 30
0.0
 10
-1.58021
 20
8.53741
 30
0.0
 10
-1.56883
 20
8.5582
 30
0.0
 10
-1.55829
 20
8.57194
 30
0.0
 10
-1.5486
 20
8.57852
 30
0.0
 10
-1.5486
 20
8.57852
 30
0.0
 10
-1.53891
 20
8.5852
 30
0.0
 10
-1.52828
 20
8.58849
 30
0.0
 10
-1.51671
 20
8.58849
 30
0.0
 10
-1.51671
 20
8.58849
 30
0.0
 10
-1.49997
 20
8.58849
 30
0.0
 10
-1.48294
 20
8.58323
 30
0.0
 10
-1.46563
 20
8.57278
 30
0.0
 10
-1.46563
 20
8.57278
 30
0.0
 10
-1.46563
 20
8.57278
 30
0.0
 10
-1.48332
 20
8.52697
 30
0.0
 10
-1.48332
 20
8.52697
 30
0.0
 10
-1.48332
 20
8.52697
 30
0.0
 10
-1.49536
 20
8.53374
 30
0.0
 10
-1.5074
 20
8.53713
 30
0.0
 10
-1.51944
 20
8.53713
 30
0.0
 10
-1.51944
 20
8.53713
 30
0.0
 10
-1.53026
 20
8.53713
 30
0.0
 10
-1.53995
 20
8.53384
 30
0.0
 10
-1.54851
 20
8.52735
 30
0.0
 10
-1.54851
 20
8.52735
 30
0.0
 10
-1.55707
 20
8.52085
 30
0.0
 10
-1.56318
 20
8.51182
 30
0.0
 10
-1.56685
 20
8.50025
 30
0.0
 10
-1.56685
 20
8.50025
 30
0.0
 10
-1.5724
 20
8.48266
 30
0.0
 10
-1.57513
 20
8.46338
 30
0.0
 10
-1.57513
 20
8.4424
 30
0.0
 10
-1.57513
 20
8.4424
 30
0.0
 10
-1.57513
 20
8.4424
 30
0.0
 10
-1.57513
 20
8.28934
 30
0.0
 10
-1.57513
 20
8.28934
 30
0.0
 10
-1.57513
 20
8.28934
 30
0.0
 10
-1.57513
 20
8.28934
 30
0.0
 10
-1.6248
 20
8.28934
 30
0.0
 10
-1.6248
 20
8.28934
 30
0.0
  0
ELLIPSE
  5
62
330
1F
100
AcDbEntity
  8
Layer 1
370
    18
100
AcDbEllipse
 10
2.49744
 20
6.28688
 30
0.0
 11
0.0
 21
0.5
 31
0.0
210
0.0
220
0.0
230
1.0
 40
1.0
 41
0.0
 42
6.283185307179586
  0
SPLINE
  5
63
330
1F
100
AcDbEntity
  8
Layer 1
 62
     1
100
AcDbSpline
210
0.0
220
0.0
230
1.0
 70
    11
 71
     3
 72
    92
 73
    88
 74
     0
 42
0.0000000001
 43
0.0000000001
 12
1.0
 22
0.0
 32
0.0
 13
1.0
 23
0.0
 33
0.0
 40
0.0
 40
0.0
 40
0.0
 40
0.0
 40
0.0434782608695652
 40
0.0434782608695652
 40
0.0434782608695652
 40
0.0434782608695652
 40
0.0869565217391304
 40
0.0869565217391304
 40
0.0869565217391304
 40
0.0869565217391304
 40
0.1304347826086956
 40
0.1304347826086956
 40
0.1304347826086956
 40
0.1304347826086956
 40
0.1739130434782609
 40
0.1739130434782609
 40
0.1739130434782609
 40
0.1739130434782609
 40
0.2173913043478261
 40
0.2173913043478261
 40
0.2173913043478261
 40
0.2173913043478261
 40
0.2608695652173913
 40
0.2608695652173913
 40
0.2608695652173913
 40
0.2608695652173913
 40
0.3043478260869565
 40
0.3043478260869565
 40
0.3043478260869565
 40
0.3043478260869565
 40
0.3478260869565217
 40
0.3478260869565217
 40
0.3478260869565217
 40
0.3478260869565217
 40
0.391304347826087
 40
0.391304347826087
 40
0.391304347826087
 40
0.391304347826087
 40
0.4347826086956522
 40
0.4347826086956522
 40
0.4347826086956522
 40
0.4347826086956522
 40
0.4782608695652174
 40
0.4782608695652174
 40
0.4782608695652174
 40
0.4782608695652174
 40
0.5217391304347826
 40
0.5217391304347826
 40
0.5217391304347826
 40
0.5217391304347826
 40
0.5652173913043478
 40
0.5652173913043478
 40
0.5652173913043478
 40
0.5652173913043478
 40
0.6086956521739131
 40
0.6086956521739131
 40
0.6086956521739131
 40
0.6086956521739131
 40
0.6521739130434783
 40
0.6521739130434783
 40
0.6521739130434783
 40
0.6521739130434783
 40
0.6956521739130435
 40
0.6956521739130435
 40
0.6956521739130435
 40
0.6956521739130435
 40
0.7391304347826086
 40
0.7391304347826086
 40
0.7391304347826086
 40
0.7391304347826086
 40
0.782608695652174
 40
0.782608695652174
 40
0.782608695652174
 40
0.782608695652174
 40
0.8260869565217391
 40
0.8260869565217391
 40
0.8260869565217391
 40
0.8260869565217391
 40
0.8695652173913043
 40
0.8695652173913043
 40
0.8695652173913043
 40
0.8695652173913043
 40
0.9130434782608695
 40
0.9130434782608695
 40
0.9130434782608695
 40
0.9130434782608695
 40
1.0
 40
1.0
 40
1.0
 40
1.0
 10
0.92705
 20
7.68015
 30
0.0
 10
0.92705
 20
7.68015
 30
0.0
 10
0.97397
 20
7.66829
 30
0.0
 10
0.97397
 20
7.66829
 30
0.0
 10
0.97397
 20
7.66829
 30
0.0
 10
0.96417
 20
7.62985
 30
0.0
 10
0.94656
 20
7.60063
 30
0.0
 10
0.92112
 20
7.58046
 30
0.0
 10
0.92112
 20
7.58046
 30
0.0
 10
0.89569
 20
7.5603
 30
0.0
 10
0.86457
 20
7.55017
 30
0.0
 10
0.82778
 20
7.55017
 30
0.0
 10
0.82778
 20
7.55017
 30
0.0
 10
0.78975
 20
7.55017
 30
0.0
 10
0.7588
 20
7.55791
 30
0.0
 10
0.73493
 20
7.57347
 30
0.0
 10
0.73493
 20
7.57347
 30
0.0
 10
0.71106
 20
7.58894
 30
0.0
 10
0.69295
 20
7.61141
 30
0.0
 10
0.68052
 20
7.6408
 30
0.0
 10
0.68052
 20
7.6408
 30
0.0
 10
0.66809
 20
7.67027
 30
0.0
 10
0.66183
 20
7.70179
 30
0.0
 10
0.66183
 20
7.73554
 30
0.0
 10
0.66183
 20
7.73554
 30
0.0
 10
0.66183
 20
7.77234
 30
0.0
 10
0.66883
 20
7.80444
 30
0.0
 10
0.68291
 20
7.83185
 30
0.0
 10
0.68291
 20
7.83185
 30
0.0
 10
0.69698
 20
7.85926
 30
0.0
 10
0.71698
 20
7.88009
 30
0.0
 10
0.74291
 20
7.89433
 30
0.0
 10
0.74291
 20
7.89433
 30
0.0
 10
0.76884
 20
7.90857
 30
0.0
 10
0.7974
 20
7.91564
 30
0.0
 10
0.82852
 20
7.91564
 30
0.0
 10
0.82852
 20
7.91564
 30
0.0
 10
0.86391
 20
7.91564
 30
0.0
 10
0.89363
 20
7.90667
 30
0.0
 10
0.91766
 20
7.88865
 30
0.0
 10
0.91766
 20
7.88865
 30
0.0
 10
0.94178
 20
7.87062
 30
0.0
 10
0.95857
 20
7.84535
 30
0.0
 10
0.96804
 20
7.81275
 30
0.0
 10
0.96804
 20
7.81275
 30
0.0
 10
0.96804
 20
7.81275
 30
0.0
 10
0.92211
 20
7.80189
 30
0.0
 10
0.92211
 20
7.80189
 30
0.0
 10
0.92211
 20
7.80189
 30
0.0
 10
0.91396
 20
7.82757
 30
0.0
 10
0.90202
 20
7.84634
 30
0.0
 10
0.88647
 20
7.85803
 30
0.0
 10
0.88647
 20
7.85803
 30
0.0
 10
0.87091
 20
7.8698
 30
0.0
 10
0.85132
 20
7.87564
 30
0.0
 10
0.8277
 20
7.87564
 30
0.0
 10
0.8277
 20
7.87564
 30
0.0
 10
0.80061
 20
7.87564
 30
0.0
 10
0.7779
 20
7.86914
 30
0.0
 10
0.7597
 20
7.85613
 30
0.0
 10
0.7597
 20
7.85613
 30
0.0
 10
0.74151
 20
7.84313
 30
0.0
 10
0.72867
 20
7.82559
 30
0.0
 10
0.72135
 20
7.8037
 30
0.0
 10
0.72135
 20
7.8037
 30
0.0
 10
0.71394
 20
7.78172
 30
0.0
 10
0.71023
 20
7.75908
 30
0.0
 10
0.71023
 20
7.73579
 30
0.0
 10
0.71023
 20
7.73579
 30
0.0
 10
0.71023
 20
7.70575
 30
0.0
 10
0.7146
 20
7.67949
 30
0.0
 10
0.72332
 20
7.6571
 30
0.0
 10
0.72332
 20
7.6571
 30
0.0
 10
0.73205
 20
7.63463
 30
0.0
 10
0.74563
 20
7.61792
 30
0.0
 10
0.76407
 20
7.60681
 30
0.0
 10
0.76407
 20
7.60681
 30
0.0
 10
0.78251
 20
7.59569
 30
0.0
 10
0.80243
 20
7.59018
 30
0.0
 10
0.82391
 20
7.59018
 30
0.0
 10
0.82391
 20
7.59018
 30
0.0
 10
0.85008
 20
7.59018
 30
0.0
 10
0.87214
 20
7.59775
 30
0.0
 10
0.89025
 20
7.61281
 30
0.0
 10
0.89025
 20
7.61281
 30
0.0
 10
0.90836
 20
7.62796
 30
0.0
 10
0.92063
 20
7.65035
 30
0.0
 10
0.92705
 20
7.68015
 30
0.0
  0
SPLINE
  5
64
330
1F
100
AcDbEntity
  8
Layer 1
 62
     1
100
AcDbSpline
210
0.0
220
0.0
230
1.0
 70
    11
 71
     3
 72
    80
 73
    76
 74
     0
 42
0.0000000001
 43
0.0000000001
 12
1.0
 22
0.0
 32
0.0
 13
1.0
 23
0.0
 33
0.0
 40
0.0
 40
0.0
 40
0.0
 40
0.0
 40
0.05
 40
0.05
 40
0.05
 40
0.05
 40
0.1
 40
0.1
 40
0.1
 40
0.1
 40
0.15
 40
0.15
 40
0.15
 40
0.15
 40
0.2
 40
0.2
 40
0.2
 40
0.2
 40
0.25
 40
0.25
 40
0.25
 40
0.25
 40
0.3
 40
0.3
 40
0.3
 40
0.3
 40
0.35
 40
0.35
 40
0.35
 40
0.35
 40
0.4
 40
0.4
 40
0.4
 40
0.4
 40
0.45
 40
0.45
 40
0.45
 40
0.45
 40
0.5
 40
0.5
 40
0.5
 40
0.5
 40
0.55
 40
0.55
 40
0.55
 40
0.55
 40
0.6
 40
0.6
 40
0.6
 40
0.6
 40
0.65
 40
0.65
 40
0.65
 40
0.65
 40
0.7
 40
0.7
 40
0.7
 40
0.7
 40
0.75
 40
0.75
 40
0.75
 40
0.75
 40
0.8
 40
0.8
 40
0.8
 40
0.8
 40
0.85
 40
0.85
 40
0.85
 40
0.85
 40
0.9
 40
0.9
 40
0.9
 40
0.9
 40
1.0
 40
1.0
 40
1.0
 40
1.0
 10
1.19382
 20
7.5561
 30
0.0
 10
1.19382
 20
7.5561
 30
0.0
 10
1.19382
 20
7.59421
 30
0.0
 10
1.19382
 20
7.59421
 30
0.0
 10
1.19382
 20
7.59421
 30
0.0
 10
1.1739
 20
7.56515
 30
0.0
 10
1.1469
 20
7.55067
 30
0.0
 10
1.11274
 20
7.55067
 30
0.0
 10
1.11274
 20
7.55067
 30
0.0
 10
1.09768
 20
7.55067
 30
0.0
 10
1.0836
 20
7.55355
 30
0.0
 10
1.07052
 20
7.55931
 30
0.0
 10
1.07052
 20
7.55931
 30
0.0
 10
1.05743
 20
7.56515
 30
0.0
 10
1.04772
 20
7.5724
 30
0.0
 10
1.04138
 20
7.58112
 30
0.0
 10
1.04138
 20
7.58112
 30
0.0
 10
1.03504
 20
7.58993
 30
0.0
 10
1.03059
 20
7.60063
 30
0.0
 10
1.02804
 20
7.61331
 30
0.0
 10
1.02804
 20
7.61331
 30
0.0
 10
1.02631
 20
7.62187
 30
0.0
 10
1.02541
 20
7.63537
 30
0.0
 10
1.02541
 20
7.65381
 30
0.0
 10
1.02541
 20
7.65381
 30
0.0
 10
1.02541
 20
7.65381
 30
0.0
 10
1.02541
 20
7.81242
 30
0.0
 10
1.02541
 20
7.81242
 30
0.0
 10
1.02541
 20
7.81242
 30
0.0
 10
1.02541
 20
7.81242
 30
0.0
 10
1.06887
 20
7.81242
 30
0.0
 10
1.06887
 20
7.81242
 30
0.0
 10
1.06887
 20
7.81242
 30
0.0
 10
1.06887
 20
7.81242
 30
0.0
 10
1.06887
 20
7.6706
 30
0.0
 10
1.06887
 20
7.6706
 30
0.0
 10
1.06887
 20
7.6706
 30
0.0
 10
1.06887
 20
7.64796
 30
0.0
 10
1.06978
 20
7.63265
 30
0.0
 10
1.0715
 20
7.62483
 30
0.0
 10
1.0715
 20
7.62483
 30
0.0
 10
1.07422
 20
7.61339
 30
0.0
 10
1.07998
 20
7.6045
 30
0.0
 10
1.08887
 20
7.598
 30
0.0
 10
1.08887
 20
7.598
 30
0.0
 10
1.09768
 20
7.59149
 30
0.0
 10
1.10854
 20
7.5882
 30
0.0
 10
1.12155
 20
7.5882
 30
0.0
 10
1.12155
 20
7.5882
 30
0.0
 10
1.13456
 20
7.5882
 30
0.0
 10
1.14674
 20
7.59149
 30
0.0
 10
1.1581
 20
7.59816
 30
0.0
 10
1.1581
 20
7.59816
 30
0.0
 10
1.16946
 20
7.60483
 30
0.0
 10
1.17752
 20
7.61397
 30
0.0
 10
1.1823
 20
7.62541
 30
0.0
 10
1.1823
 20
7.62541
 30
0.0
 10
1.18699
 20
7.63685
 30
0.0
 10
1.18938
 20
7.65356
 30
0.0
 10
1.18938
 20
7.67537
 30
0.0
 10
1.18938
 20
7.67537
 30
0.0
 10
1.18938
 20
7.67537
 30
0.0
 10
1.18938
 20
7.81242
 30
0.0
 10
1.18938
 20
7.81242
 30
0.0
 10
1.18938
 20
7.81242
 30
0.0
 10
1.18938
 20
7.81242
 30
0.0
 10
1.23284
 20
7.81242
 30
0.0
 10
1.23284
 20
7.81242
 30
0.0
 10
1.23284
 20
7.81242
 30
0.0
 10
1.23284
 20
7.81242
 30
0.0
 10
1.23284
 20
7.5561
 30
0.0
 10
1.23284
 20
7.5561
 30
0.0
 10
1.23284
 20
7.5561
 30
0.0
 10
1.23284
 20
7.5561
 30
0.0
 10
1.19382
 20
7.5561
 30
0.0
 10
1.19382
 20
7.5561
 30
0.0
  0
SPLINE
  5
65
330
1F
100
AcDbEntity
  8
Layer 1
 62
     1
100
AcDbSpline
210
0.0
220
0.0
230
1.0
 70
    11
 71
     3
 72
    56
 73
    52
 74
     0
 42
0.0000000001
 43
0.0000000001
 12
1.0
 22
0.0
 32
0.0
 13
1.0
 23
0.0
 33
0.0
 40
0.0
 40
0.0
 40
0.0
 40
0.0
 40
0.0714285714285714
 40
0.0714285714285714
 40
0.0714285714285714
 40
0.0714285714285714
 40
0.1428571428571428
 40
0.1428571428571428
 40
0.1428571428571428
 40
0.1428571428571428
 40
0.2142857142857143
 40
0.2142857142857143
 40
0.2142857142857143
 40
0.2142857142857143
 40
0.2857142857142857
 40
0.2857142857142857
 40
0.2857142857142857
 40
0.2857142857142857
 40
0.3571428571428572
 40
0.3571428571428572
 40
0.3571428571428572
 40
0.3571428571428572
 40
0.4285714285714285
 40
0.4285714285714285
 40
0.4285714285714285
 40
0.4285714285714285
 40
0.5
 40
0.5
 40
0.5
 40
0.5
 40
0.5714285714285714
 40
0.5714285714285714
 40
0.5714285714285714
 40
0.5714285714285714
 40
0.6428571428571429
 40
0.6428571428571429
 40
0.6428571428571429
 40
0.6428571428571429
 40
0.7142857142857143
 40
0.7142857142857143
 40
0.7142857142857143
 40
0.7142857142857143
 40
0.7857142857142857
 40
0.7857142857142857
 40
0.7857142857142857
 40
0.7857142857142857
 40
0.8571428571428571
 40
0.8571428571428571
 40
0.8571428571428571
 40
0.8571428571428571
 40
1.0
 40
1.0
 40
1.0
 40
1.0
 10
1.30058
 20
7.5561
 30
0.0
 10
1.30058
 20
7.5561
 30
0.0
 10
1.30058
 20
7.81242
 30
0.0
 10
1.30058
 20
7.81242
 30
0.0
 10
1.30058
 20
7.81242
 30
0.0
 10
1.30058
 20
7.81242
 30
0.0
 10
1.3396
 20
7.81242
 30
0.0
 10
1.3396
 20
7.81242
 30
0.0
 10
1.3396
 20
7.81242
 30
0.0
 10
1.3396
 20
7.81242
 30
0.0
 10
1.3396
 20
7.77316
 30
0.0
 10
1.3396
 20
7.77316
 30
0.0
 10
1.3396
 20
7.77316
 30
0.0
 10
1.34956
 20
7.79135
 30
0.0
 10
1.35878
 20
7.80337
 30
0.0
 10
1.36726
 20
7.80913
 30
0.0
 10
1.36726
 20
7.80913
 30
0.0
 10
1.37573
 20
7.81498
 30
0.0
 10
1.38504
 20
7.81786
 30
0.0
 10
1.39516
 20
7.81786
 30
0.0
 10
1.39516
 20
7.81786
 30
0.0
 10
1.40981
 20
7.81786
 30
0.0
 10
1.42471
 20
7.81325
 30
0.0
 10
1.43986
 20
7.80411
 30
0.0
 10
1.43986
 20
7.80411
 30
0.0
 10
1.43986
 20
7.80411
 30
0.0
 10
1.42438
 20
7.76402
 30
0.0
 10
1.42438
 20
7.76402
 30
0.0
 10
1.42438
 20
7.76402
 30
0.0
 10
1.41385
 20
7.76995
 30
0.0
 10
1.40331
 20
7.77291
 30
0.0
 10
1.39277
 20
7.77291
 30
0.0
 10
1.39277
 20
7.77291
 30
0.0
 10
1.38331
 20
7.77291
 30
0.0
 10
1.37483
 20
7.77003
 30
0.0
 10
1.36734
 20
7.76435
 30
0.0
 10
1.36734
 20
7.76435
 30
0.0
 10
1.35985
 20
7.75867
 30
0.0
 10
1.3545
 20
7.75077
 30
0.0
 10
1.35129
 20
7.74065
 30
0.0
 10
1.35129
 20
7.74065
 30
0.0
 10
1.34643
 20
7.72525
 30
0.0
 10
1.34404
 20
7.70838
 30
0.0
 10
1.34404
 20
7.69002
 30
0.0
 10
1.34404
 20
7.69002
 30
0.0
 10
1.34404
 20
7.69002
 30
0.0
 10
1.34404
 20
7.5561
 30
0.0
 10
1.34404
 20
7.5561
 30
0.0
 10
1.34404
 20
7.5561
 30
0.0
 10
1.34404
 20
7.5561
 30
0.0
 10
1.30058
 20
7.5561
 30
0.0
 10
1.30058
 20
7.5561
 30
0.0
  0
SPLINE
  5
66
330
1F
100
AcDbEntity
  8
Layer 1
 62
     1
100
AcDbSpline
210
0.0
220
0.0
230
1.0
 70
    11
 71
     3
 72
    56
 73
    52
 74
     0
 42
0.0000000001
 43
0.0000000001
 12
1.0
 22
0.0
 32
0.0
 13
1.0
 23
0.0
 33
0.0
 40
0.0
 40
0.0
 40
0.0
 40
0.0
 40
0.0714285714285714
 40
0.0714285714285714
 40
0.0714285714285714
 40
0.0714285714285714
 40
0.1428571428571428
 40
0.1428571428571428
 40
0.1428571428571428
 40
0.1428571428571428
 40
0.2142857142857143
 40
0.2142857142857143
 40
0.2142857142857143
 40
0.2142857142857143
 40
0.2857142857142857
 40
0.2857142857142857
 40
0.2857142857142857
 40
0.2857142857142857
 40
0.3571428571428572
 40
0.3571428571428572
 40
0.3571428571428572
 40
0.3571428571428572
 40
0.4285714285714285
 40
0.4285714285714285
 40
0.4285714285714285
 40
0.4285714285714285
 40
0.5
 40
0.5
 40
0.5
 40
0.5
 40
0.5714285714285714
 40
0.5714285714285714
 40
0.5714285714285714
 40
0.5714285714285714
 40
0.6428571428571429
 40
0.6428571428571429
 40
0.6428571428571429
 40
0.6428571428571429
 40
0.7142857142857143
 40
0.7142857142857143
 40
0.7142857142857143
 40
0.7142857142857143
 40
0.7857142857142857
 40
0.7857142857142857
 40
0.7857142857142857
 40
0.7857142857142857
 40
0.8571428571428571
 40
0.8571428571428571
 40
0.8571428571428571
 40
0.8571428571428571
 40
1.0
 40
1.0
 40
1.0
 40
1.0
 10
1.46504
 20
7.5561
 30
0.0
 10
1.46504
 20
7.5561
 30
0.0
 10
1.46504
 20
7.81242
 30
0.0
 10
1.46504
 20
7.81242
 30
0.0
 10
1.46504
 20
7.81242
 30
0.0
 10
1.46504
 20
7.81242
 30
0.0
 10
1.50406
 20
7.81242
 30
0.0
 10
1.50406
 20
7.81242
 30
0.0
 10
1.50406
 20
7.81242
 30
0.0
 10
1.50406
 20
7.81242
 30
0.0
 10
1.50406
 20
7.77316
 30
0.0
 10
1.50406
 20
7.77316
 30
0.0
 10
1.50406
 20
7.77316
 30
0.0
 10
1.51402
 20
7.79135
 30
0.0
 10
1.52324
 20
7.80337
 30
0.0
 10
1.53172
 20
7.80913
 30
0.0
 10
1.53172
 20
7.80913
 30
0.0
 10
1.54019
 20
7.81498
 30
0.0
 10
1.5495
 20
7.81786
 30
0.0
 10
1.55962
 20
7.81786
 30
0.0
 10
1.55962
 20
7.81786
 30
0.0
 10
1.57427
 20
7.81786
 30
0.0
 10
1.58917
 20
7.81325
 30
0.0
 10
1.60432
 20
7.80411
 30
0.0
 10
1.60432
 20
7.80411
 30
0.0
 10
1.60432
 20
7.80411
 30
0.0
 10
1.58884
 20
7.76402
 30
0.0
 10
1.58884
 20
7.76402
 30
0.0
 10
1.58884
 20
7.76402
 30
0.0
 10
1.57831
 20
7.76995
 30
0.0
 10
1.56777
 20
7.77291
 30
0.0
 10
1.55723
 20
7.77291
 30
0.0
 10
1.55723
 20
7.77291
 30
0.0
 10
1.54777
 20
7.77291
 30
0.0
 10
1.53929
 20
7.77003
 30
0.0
 10
1.5318
 20
7.76435
 30
0.0
 10
1.5318
 20
7.76435
 30
0.0
 10
1.52431
 20
7.75867
 30
0.0
 10
1.51896
 20
7.75077
 30
0.0
 10
1.51575
 20
7.74065
 30
0.0
 10
1.51575
 20
7.74065
 30
0.0
 10
1.51089
 20
7.72525
 30
0.0
 10
1.5085
 20
7.70838
 30
0.0
 10
1.5085
 20
7.69002
 30
0.0
 10
1.5085
 20
7.69002
 30
0.0
 10
1.5085
 20
7.69002
 30
0.0
 10
1.5085
 20
7.5561
 30
0.0
 10
1.5085
 20
7.5561
 30
0.0
 10
1.5085
 20
7.5561
 30
0.0
 10
1.5085
 20
7.5561
 30
0.0
 10
1.46504
 20
7.5561
 30
0.0
 10
1.46504
 20
7.5561
 30
0.0
  0
SPLINE
  5
67
330
1F
100
AcDbEntity
  8
Layer 1
 62
     1
100
AcDbSpline
210
0.0
220
0.0
230
1.0
 70
    11
 71
     3
 72
    64
 73
    60
 74
     0
 42
0.0000000001
 43
0.0000000001
 12
1.0
 22
0.0
 32
0.0
 13
1.0
 23
0.0
 33
0.0
 40
0.0
 40
0.0
 40
0.0
 40
0.0
 40
0.0625
 40
0.0625
 40
0.0625
 40
0.0625
 40
0.125
 40
0.125
 40
0.125
 40
0.125
 40
0.1875
 40
0.1875
 40
0.1875
 40
0.1875
 40
0.25
 40
0.25
 40
0.25
 40
0.25
 40
0.3125
 40
0.3125
 40
0.3125
 40
0.3125
 40
0.375
 40
0.375
 40
0.375
 40
0.375
 40
0.4375
 40
0.4375
 40
0.4375
 40
0.4375
 40
0.5
 40
0.5
 40
0.5
 40
0.5
 40
0.5625
 40
0.5625
 40
0.5625
 40
0.5625
 40
0.625
 40
0.625
 40
0.625
 40
0.625
 40
0.6875
 40
0.6875
 40
0.6875
 40
0.6875
 40
0.75
 40
0.75
 40
0.75
 40
0.75
 40
0.8125
 40
0.8125
 40
0.8125
 40
0.8125
 40
0.875
 40
0.875
 40
0.875
 40
0.875
 40
1.0
 40
1.0
 40
1.0
 40
1.0
 10
1.80483
 20
7.63907
 30
0.0
 10
1.80483
 20
7.63907
 30
0.0
 10
1.84977
 20
7.63315
 30
0.0
 10
1.84977
 20
7.63315
 30
0.0
 10
1.84977
 20
7.63315
 30
0.0
 10
1.84278
 20
7.60705
 30
0.0
 10
1.82969
 20
7.58672
 30
0.0
 10
1.81059
 20
7.57232
 30
0.0
 10
1.81059
 20
7.57232
 30
0.0
 10
1.79149
 20
7.55791
 30
0.0
 10
1.76713
 20
7.55067
 30
0.0
 10
1.73741
 20
7.55067
 30
0.0
 10
1.73741
 20
7.55067
 30
0.0
 10
1.70004
 20
7.55067
 30
0.0
 10
1.67041
 20
7.56219
 30
0.0
 10
1.64852
 20
7.58524
 30
0.0
 10
1.64852
 20
7.58524
 30
0.0
 10
1.62662
 20
7.6082
 30
0.0
 10
1.61567
 20
7.64055
 30
0.0
 10
1.61567
 20
7.68212
 30
0.0
 10
1.61567
 20
7.68212
 30
0.0
 10
1.61567
 20
7.72509
 30
0.0
 10
1.6267
 20
7.75851
 30
0.0
 10
1.64885
 20
7.78221
 30
0.0
 10
1.64885
 20
7.78221
 30
0.0
 10
1.67099
 20
7.806
 30
0.0
 10
1.69972
 20
7.81786
 30
0.0
 10
1.73503
 20
7.81786
 30
0.0
 10
1.73503
 20
7.81786
 30
0.0
 10
1.76919
 20
7.81786
 30
0.0
 10
1.79709
 20
7.80625
 30
0.0
 10
1.81874
 20
7.78296
 30
0.0
 10
1.81874
 20
7.78296
 30
0.0
 10
1.84039
 20
7.75966
 30
0.0
 10
1.85125
 20
7.7269
 30
0.0
 10
1.85125
 20
7.68467
 30
0.0
 10
1.85125
 20
7.68467
 30
0.0
 10
1.85125
 20
7.68212
 30
0.0
 10
1.85117
 20
7.67825
 30
0.0
 10
1.85101
 20
7.67315
 30
0.0
 10
1.85101
 20
7.67315
 30
0.0
 10
1.85101
 20
7.67315
 30
0.0
 10
1.66012
 20
7.67315
 30
0.0
 10
1.66012
 20
7.67315
 30
0.0
 10
1.66012
 20
7.67315
 30
0.0
 10
1.66177
 20
7.64508
 30
0.0
 10
1.66967
 20
7.62351
 30
0.0
 10
1.68399
 20
7.60862
 30
0.0
 10
1.68399
 20
7.60862
 30
0.0
 10
1.69823
 20
7.59372
 30
0.0
 10
1.7161
 20
7.58623
 30
0.0
 10
1.73741
 20
7.58623
 30
0.0
 10
1.73741
 20
7.58623
 30
0.0
 10
1.7533
 20
7.58623
 30
0.0
 10
1.76688
 20
7.59042
 30
0.0
 10
1.77808
 20
7.59882
 30
0.0
 10
1.77808
 20
7.59882
 30
0.0
 10
1.78935
 20
7.60722
 30
0.0
 10
1.79824
 20
7.62063
 30
0.0
 10
1.80483
 20
7.63907
 30
0.0
  0
SPLINE
  5
68
330
1F
100
AcDbEntity
  8
Layer 1
 62
     1
100
AcDbSpline
210
0.0
220
0.0
230
1.0
 70
    11
 71
     3
 72
    24
 73
    20
 74
     0
 42
0.0000000001
 43
0.0000000001
 12
1.0
 22
0.0
 32
0.0
 13
1.0
 23
0.0
 33
0.0
 40
0.0
 40
0.0
 40
0.0
 40
0.0
 40
0.1666666666666667
 40
0.1666666666666667
 40
0.1666666666666667
 40
0.1666666666666667
 40
0.3333333333333333
 40
0.3333333333333333
 40
0.3333333333333333
 40
0.3333333333333333
 40
0.5
 40
0.5
 40
0.5
 40
0.5
 40
0.6666666666666666
 40
0.6666666666666666
 40
0.6666666666666666
 40
0.6666666666666666
 40
1.0
 40
1.0
 40
1.0
 40
1.0
 10
1.66259
 20
7.70871
 30
0.0
 10
1.66259
 20
7.70871
 30
0.0
 10
1.80532
 20
7.70871
 30
0.0
 10
1.80532
 20
7.70871
 30
0.0
 10
1.80532
 20
7.70871
 30
0.0
 10
1.80343
 20
7.73028
 30
0.0
 10
1.79792
 20
7.74641
 30
0.0
 10
1.78894
 20
7.75719
 30
0.0
 10
1.78894
 20
7.75719
 30
0.0
 10
1.7752
 20
7.7739
 30
0.0
 10
1.75725
 20
7.7823
 30
0.0
 10
1.73527
 20
7.7823
 30
0.0
 10
1.73527
 20
7.7823
 30
0.0
 10
1.71536
 20
7.7823
 30
0.0
 10
1.69865
 20
7.77563
 30
0.0
 10
1.68506
 20
7.76229
 30
0.0
 10
1.68506
 20
7.76229
 30
0.0
 10
1.67156
 20
7.74896
 30
0.0
 10
1.66407
 20
7.7311
 30
0.0
 10
1.66259
 20
7.70871
 30
0.0
  0
SPLINE
  5
69
330
1F
100
AcDbEntity
  8
Layer 1
 62
     1
100
AcDbSpline
210
0.0
220
0.0
230
1.0
 70
    11
 71
     3
 72
    76
 73
    72
 74
     0
 42
0.0000000001
 43
0.0000000001
 12
1.0
 22
0.0
 32
0.0
 13
1.0
 23
0.0
 33
0.0
 40
0.0
 40
0.0
 40
0.0
 40
0.0
 40
0.0526315789473684
 40
0.0526315789473684
 40
0.0526315789473684
 40
0.0526315789473684
 40
0.1052631578947368
 40
0.1052631578947368
 40
0.1052631578947368
 40
0.1052631578947368
 40
0.1578947368421053
 40
0.1578947368421053
 40
0.1578947368421053
 40
0.1578947368421053
 40
0.2105263157894737
 40
0.2105263157894737
 40
0.2105263157894737
 40
0.2105263157894737
 40
0.2631578947368421
 40
0.2631578947368421
 40
0.2631578947368421
 40
0.2631578947368421
 40
0.3157894736842105
 40
0.3157894736842105
 40
0.3157894736842105
 40
0.3157894736842105
 40
0.3684210526315789
 40
0.3684210526315789
 40
0.3684210526315789
 40
0.3684210526315789
 40
0.4210526315789473
 40
0.4210526315789473
 40
0.4210526315789473
 40
0.4210526315789473
 40
0.4736842105263158
 40
0.4736842105263158
 40
0.4736842105263158
 40
0.4736842105263158
 40
0.5263157894736842
 40
0.5263157894736842
 40
0.5263157894736842
 40
0.5263157894736842
 40
0.5789473684210527
 40
0.5789473684210527
 40
0.5789473684210527
 40
0.5789473684210527
 40
0.631578947368421
 40
0.631578947368421
 40
0.631578947368421
 40
0.631578947368421
 40
0.6842105263157895
 40
0.6842105263157895
 40
0.6842105263157895
 40
0.6842105263157895
 40
0.7368421052631579
 40
0.7368421052631579
 40
0.7368421052631579
 40
0.7368421052631579
 40
0.7894736842105263
 40
0.7894736842105263
 40
0.7894736842105263
 40
0.7894736842105263
 40
0.8421052631578947
 40
0.8421052631578947
 40
0.8421052631578947
 40
0.8421052631578947
 40
0.8947368421052632
 40
0.8947368421052632
 40
0.8947368421052632
 40
0.8947368421052632
 40
1.0
 40
1.0
 40
1.0
 40
1.0
 10
1.90468
 20
7.5561
 30
0.0
 10
1.90468
 20
7.5561
 30
0.0
 10
1.90468
 20
7.81242
 30
0.0
 10
1.90468
 20
7.81242
 30
0.0
 10
1.90468
 20
7.81242
 30
0.0
 10
1.90468
 20
7.81242
 30
0.0
 10
1.94369
 20
7.81242
 30
0.0
 10
1.94369
 20
7.81242
 30
0.0
 10
1.94369
 20
7.81242
 30
0.0
 10
1.94369
 20
7.81242
 30
0.0
 10
1.94369
 20
7.77604
 30
0.0
 10
1.94369
 20
7.77604
 30
0.0
 10
1.94369
 20
7.77604
 30
0.0
 10
1.96246
 20
7.80395
 30
0.0
 10
1.98962
 20
7.81786
 30
0.0
 10
2.0251
 20
7.81786
 30
0.0
 10
2.0251
 20
7.81786
 30
0.0
 10
2.04058
 20
7.81786
 30
0.0
 10
2.05473
 20
7.81506
 30
0.0
 10
2.06766
 20
7.80954
 30
0.0
 10
2.06766
 20
7.80954
 30
0.0
 10
2.08058
 20
7.80403
 30
0.0
 10
2.09029
 20
7.7967
 30
0.0
 10
2.09671
 20
7.78773
 30
0.0
 10
2.09671
 20
7.78773
 30
0.0
 10
2.10313
 20
7.77876
 30
0.0
 10
2.10766
 20
7.76806
 30
0.0
 10
2.11021
 20
7.75571
 30
0.0
 10
2.11021
 20
7.75571
 30
0.0
 10
2.11178
 20
7.74764
 30
0.0
 10
2.1126
 20
7.73357
 30
0.0
 10
2.1126
 20
7.71348
 30
0.0
 10
2.1126
 20
7.71348
 30
0.0
 10
2.1126
 20
7.71348
 30
0.0
 10
2.1126
 20
7.5561
 30
0.0
 10
2.1126
 20
7.5561
 30
0.0
 10
2.1126
 20
7.5561
 30
0.0
 10
2.1126
 20
7.5561
 30
0.0
 10
2.06914
 20
7.5561
 30
0.0
 10
2.06914
 20
7.5561
 30
0.0
 10
2.06914
 20
7.5561
 30
0.0
 10
2.06914
 20
7.5561
 30
0.0
 10
2.06914
 20
7.71184
 30
0.0
 10
2.06914
 20
7.71184
 30
0.0
 10
2.06914
 20
7.71184
 30
0.0
 10
2.06914
 20
7.72953
 30
0.0
 10
2.06749
 20
7.74279
 30
0.0
 10
2.06412
 20
7.75151
 30
0.0
 10
2.06412
 20
7.75151
 30
0.0
 10
2.06074
 20
7.76024
 30
0.0
 10
2.05473
 20
7.76723
 30
0.0
 10
2.04617
 20
7.7725
 30
0.0
 10
2.04617
 20
7.7725
 30
0.0
 10
2.03761
 20
7.77769
 30
0.0
 10
2.02749
 20
7.78032
 30
0.0
 10
2.01596
 20
7.78032
 30
0.0
 10
2.01596
 20
7.78032
 30
0.0
 10
1.99753
 20
7.78032
 30
0.0
 10
1.98164
 20
7.77448
 30
0.0
 10
1.96822
 20
7.76271
 30
0.0
 10
1.96822
 20
7.76271
 30
0.0
 10
1.9548
 20
7.75102
 30
0.0
 10
1.94814
 20
7.72871
 30
0.0
 10
1.94814
 20
7.69595
 30
0.0
 10
1.94814
 20
7.69595
 30
0.0
 10
1.94814
 20
7.69595
 30
0.0
 10
1.94814
 20
7.5561
 30
0.0
 10
1.94814
 20
7.5561
 30
0.0
 10
1.94814
 20
7.5561
 30
0.0
 10
1.94814
 20
7.5561
 30
0.0
 10
1.90468
 20
7.5561
 30
0.0
 10
1.90468
 20
7.5561
 30
0.0
  0
SPLINE
  5
6A
330
1F
100
AcDbEntity
  8
Layer 1
 62
     1
100
AcDbSpline
210
0.0
220
0.0
230
1.0
 70
    11
 71
     3
 72
    84
 73
    80
 74
     0
 42
0.0000000001
 43
0.0000000001
 12
1.0
 22
0.0
 32
0.0
 13
1.0
 23
0.0
 33
0.0
 40
0.0
 40
0.0
 40
0.0
 40
0.0
 40
0.0476190476190476
 40
0.0476190476190476
 40
0.0476190476190476
 40
0.0476190476190476
 40
0.0952380952380952
 40
0.0952380952380952
 40
0.0952380952380952
 40
0.0952380952380952
 40
0.1428571428571428
 40
0.1428571428571428
 40
0.1428571428571428
 40
0.1428571428571428
 40
0.1904761904761905
 40
0.1904761904761905
 40
0.1904761904761905
 40
0.1904761904761905
 40
0.2380952380952381
 40
0.2380952380952381
 40
0.2380952380952381
 40
0.2380952380952381
 40
0.2857142857142857
 40
0.2857142857142857
 40
0.2857142857142857
 40
0.2857142857142857
 40
0.3333333333333333
 40
0.3333333333333333
 40
0.3333333333333333
 40
0.3333333333333333
 40
0.3809523809523809
 40
0.3809523809523809
 40
0.3809523809523809
 40
0.3809523809523809
 40
0.4285714285714285
 40
0.4285714285714285
 40
0.4285714285714285
 40
0.4285714285714285
 40
0.4761904761904762
 40
0.4761904761904762
 40
0.4761904761904762
 40
0.4761904761904762
 40
0.5238095238095238
 40
0.5238095238095238
 40
0.5238095238095238
 40
0.5238095238095238
 40
0.5714285714285714
 40
0.5714285714285714
 40
0.5714285714285714
 40
0.5714285714285714
 40
0.6190476190476191
 40
0.6190476190476191
 40
0.6190476190476191
 40
0.6190476190476191
 40
0.6666666666666666
 40
0.6666666666666666
 40
0.6666666666666666
 40
0.6666666666666666
 40
0.7142857142857143
 40
0.7142857142857143
 40
0.7142857142857143
 40
0.7142857142857143
 40
0.7619047619047619
 40
0.7619047619047619
 40
0.7619047619047619
 40
0.7619047619047619
 40
0.8095238095238095
 40
0.8095238095238095
 40
0.8095238095238095
 40
0.8095238095238095
 40
0.8571428571428571
 40
0.8571428571428571
 40
0.8571428571428571
 40
0.8571428571428571
 40
0.9047619047619048
 40
0.9047619047619048
 40
0.9047619047619048
 40
0.9047619047619048
 40
1.0
 40
1.0
 40
1.0
 40
1.0
 10
2.27369
 20
7.59487
 30
0.0
 10
2.27369
 20
7.59487
 30
0.0
 10
2.27961
 20
7.55651
 30
0.0
 10
2.27961
 20
7.55651
 30
0.0
 10
2.27961
 20
7.55651
 30
0.0
 10
2.26743
 20
7.55396
 30
0.0
 10
2.25648
 20
7.55264
 30
0.0
 10
2.24694
 20
7.55264
 30
0.0
 10
2.24694
 20
7.55264
 30
0.0
 10
2.23121
 20
7.55264
 30
0.0
 10
2.21903
 20
7.55511
 30
0.0
 10
2.21031
 20
7.56013
 30
0.0
 10
2.21031
 20
7.56013
 30
0.0
 10
2.20166
 20
7.56515
 30
0.0
 10
2.19557
 20
7.57166
 30
0.0
 10
2.19203
 20
7.57981
 30
0.0
 10
2.19203
 20
7.57981
 30
0.0
 10
2.18849
 20
7.58796
 30
0.0
 10
2.18676
 20
7.60508
 30
0.0
 10
2.18676
 20
7.63117
 30
0.0
 10
2.18676
 20
7.63117
 30
0.0
 10
2.18676
 20
7.63117
 30
0.0
 10
2.18676
 20
7.77884
 30
0.0
 10
2.18676
 20
7.77884
 30
0.0
 10
2.18676
 20
7.77884
 30
0.0
 10
2.18676
 20
7.77884
 30
0.0
 10
2.15466
 20
7.77884
 30
0.0
 10
2.15466
 20
7.77884
 30
0.0
 10
2.15466
 20
7.77884
 30
0.0
 10
2.15466
 20
7.77884
 30
0.0
 10
2.15466
 20
7.81242
 30
0.0
 10
2.15466
 20
7.81242
 30
0.0
 10
2.15466
 20
7.81242
 30
0.0
 10
2.15466
 20
7.81242
 30
0.0
 10
2.18676
 20
7.81242
 30
0.0
 10
2.18676
 20
7.81242
 30
0.0
 10
2.18676
 20
7.81242
 30
0.0
 10
2.18676
 20
7.81242
 30
0.0
 10
2.18676
 20
7.8758
 30
0.0
 10
2.18676
 20
7.8758
 30
0.0
 10
2.18676
 20
7.8758
 30
0.0
 10
2.18676
 20
7.8758
 30
0.0
 10
2.23023
 20
7.9019
 30
0.0
 10
2.23023
 20
7.9019
 30
0.0
 10
2.23023
 20
7.9019
 30
0.0
 10
2.23023
 20
7.9019
 30
0.0
 10
2.23023
 20
7.81242
 30
0.0
 10
2.23023
 20
7.81242
 30
0.0
 10
2.23023
 20
7.81242
 30
0.0
 10
2.23023
 20
7.81242
 30
0.0
 10
2.27369
 20
7.81242
 30
0.0
 10
2.27369
 20
7.81242
 30
0.0
 10
2.27369
 20
7.81242
 30
0.0
 10
2.27369
 20
7.81242
 30
0.0
 10
2.27369
 20
7.77884
 30
0.0
 10
2.27369
 20
7.77884
 30
0.0
 10
2.27369
 20
7.77884
 30
0.0
 10
2.27369
 20
7.77884
 30
0.0
 10
2.23023
 20
7.77884
 30
0.0
 10
2.23023
 20
7.77884
 30
0.0
 10
2.23023
 20
7.77884
 30
0.0
 10
2.23023
 20
7.77884
 30
0.0
 10
2.23023
 20
7.6287
 30
0.0
 10
2.23023
 20
7.6287
 30
0.0
 10
2.23023
 20
7.6287
 30
0.0
 10
2.23023
 20
7.61627
 30
0.0
 10
2.23097
 20
7.60829
 30
0.0
 10
2.23253
 20
7.60475
 30
0.0
 10
2.23253
 20
7.60475
 30
0.0
 10
2.23401
 20
7.60121
 30
0.0
 10
2.23648
 20
7.59841
 30
0.0
 10
2.23994
 20
7.59627
 30
0.0
 10
2.23994
 20
7.59627
 30
0.0
 10
2.2434
 20
7.59421
 30
0.0
 10
2.24833
 20
7.59314
 30
0.0
 10
2.25476
 20
7.59314
 30
0.0
 10
2.25476
 20
7.59314
 30
0.0
 10
2.25953
 20
7.59314
 30
0.0
 10
2.26587
 20
7.59372
 30
0.0
 10
2.27369
 20
7.59487
 30
0.0
  0
SPLINE
  5
6B
330
1F
100
AcDbEntity
  8
Layer 1
 62
     1
100
AcDbSpline
210
0.0
220
0.0
230
1.0
 70
    11
 71
     3
 72
    80
 73
    76
 74
     0
 42
0.0000000001
 43
0.0000000001
 12
1.0
 22
0.0
 32
0.0
 13
1.0
 23
0.0
 33
0.0
 40
0.0
 40
0.0
 40
0.0
 40
0.0
 40
0.05
 40
0.05
 40
0.05
 40
0.05
 40
0.1
 40
0.1
 40
0.1
 40
0.1
 40
0.15
 40
0.15
 40
0.15
 40
0.15
 40
0.2
 40
0.2
 40
0.2
 40
0.2
 40
0.25
 40
0.25
 40
0.25
 40
0.25
 40
0.3
 40
0.3
 40
0.3
 40
0.3
 40
0.35
 40
0.35
 40
0.35
 40
0.35
 40
0.4
 40
0.4
 40
0.4
 40
0.4
 40
0.45
 40
0.45
 40
0.45
 40
0.45
 40
0.5
 40
0.5
 40
0.5
 40
0.5
 40
0.55
 40
0.55
 40
0.55
 40
0.55
 40
0.6
 40
0.6
 40
0.6
 40
0.6
 40
0.65
 40
0.65
 40
0.65
 40
0.65
 40
0.7
 40
0.7
 40
0.7
 40
0.7
 40
0.75
 40
0.75
 40
0.75
 40
0.75
 40
0.8
 40
0.8
 40
0.8
 40
0.8
 40
0.85
 40
0.85
 40
0.85
 40
0.85
 40
0.9
 40
0.9
 40
0.9
 40
0.9
 40
1.0
 40
1.0
 40
1.0
 40
1.0
 10
2.46022
 20
7.5561
 30
0.0
 10
2.46022
 20
7.5561
 30
0.0
 10
2.46022
 20
7.90972
 30
0.0
 10
2.46022
 20
7.90972
 30
0.0
 10
2.46022
 20
7.90972
 30
0.0
 10
2.46022
 20
7.90972
 30
0.0
 10
2.61694
 20
7.90972
 30
0.0
 10
2.61694
 20
7.90972
 30
0.0
 10
2.61694
 20
7.90972
 30
0.0
 10
2.64847
 20
7.90972
 30
0.0
 10
2.67242
 20
7.90651
 30
0.0
 10
2.6888
 20
7.90017
 30
0.0
 10
2.6888
 20
7.90017
 30
0.0
 10
2.70518
 20
7.89383
 30
0.0
 10
2.71827
 20
7.88264
 30
0.0
 10
2.72806
 20
7.86659
 30
0.0
 10
2.72806
 20
7.86659
 30
0.0
 10
2.73786
 20
7.85053
 30
0.0
 10
2.74272
 20
7.83276
 30
0.0
 10
2.74272
 20
7.81333
 30
0.0
 10
2.74272
 20
7.81333
 30
0.0
 10
2.74272
 20
7.78822
 30
0.0
 10
2.73457
 20
7.76707
 30
0.0
 10
2.71835
 20
7.74987
 30
0.0
 10
2.71835
 20
7.74987
 30
0.0
 10
2.70214
 20
7.73266
 30
0.0
 10
2.67711
 20
7.7218
 30
0.0
 10
2.6432
 20
7.7171
 30
0.0
 10
2.6432
 20
7.7171
 30
0.0
 10
2.65563
 20
7.71118
 30
0.0
 10
2.66501
 20
7.70525
 30
0.0
 10
2.67143
 20
7.69949
 30
0.0
 10
2.67143
 20
7.69949
 30
0.0
 10
2.6851
 20
7.68698
 30
0.0
 10
2.69802
 20
7.67126
 30
0.0
 10
2.71012
 20
7.65241
 30
0.0
 10
2.71012
 20
7.65241
 30
0.0
 10
2.71012
 20
7.65241
 30
0.0
 10
2.77128
 20
7.5561
 30
0.0
 10
2.77128
 20
7.5561
 30
0.0
 10
2.77128
 20
7.5561
 30
0.0
 10
2.77128
 20
7.5561
 30
0.0
 10
2.71284
 20
7.5561
 30
0.0
 10
2.71284
 20
7.5561
 30
0.0
 10
2.71284
 20
7.5561
 30
0.0
 10
2.71284
 20
7.5561
 30
0.0
 10
2.66608
 20
7.62969
 30
0.0
 10
2.66608
 20
7.62969
 30
0.0
 10
2.66608
 20
7.62969
 30
0.0
 10
2.6525
 20
7.65101
 30
0.0
 10
2.64122
 20
7.66722
 30
0.0
 10
2.63242
 20
7.6785
 30
0.0
 10
2.63242
 20
7.6785
 30
0.0
 10
2.62353
 20
7.68978
 30
0.0
 10
2.61562
 20
7.6976
 30
0.0
 10
2.60863
 20
7.70212
 30
0.0
 10
2.60863
 20
7.70212
 30
0.0
 10
2.60171
 20
7.70657
 30
0.0
 10
2.59455
 20
7.7097
 30
0.0
 10
2.58731
 20
7.71151
 30
0.0
 10
2.58731
 20
7.71151
 30
0.0
 10
2.58204
 20
7.71258
 30
0.0
 10
2.5734
 20
7.71315
 30
0.0
 10
2.5613
 20
7.71315
 30
0.0
 10
2.5613
 20
7.71315
 30
0.0
 10
2.5613
 20
7.71315
 30
0.0
 10
2.50714
 20
7.71315
 30
0.0
 10
2.50714
 20
7.71315
 30
0.0
 10
2.50714
 20
7.71315
 30
0.0
 10
2.50714
 20
7.71315
 30
0.0
 10
2.50714
 20
7.5561
 30
0.0
 10
2.50714
 20
7.5561
 30
0.0
 10
2.50714
 20
7.5561
 30
0.0
 10
2.50714
 20
7.5561
 30
0.0
 10
2.46022
 20
7.5561
 30
0.0
 10
2.46022
 20
7.5561
 30
0.0
  0
SPLINE
  5
6C
330
1F
100
AcDbEntity
  8
Layer 1
 62
     1
100
AcDbSpline
210
0.0
220
0.0
230
1.0
 70
    11
 71
     3
 72
    36
 73
    32
 74
     0
 42
0.0000000001
 43
0.0000000001
 12
1.0
 22
0.0
 32
0.0
 13
1.0
 23
0.0
 33
0.0
 40
0.0
 40
0.0
 40
0.0
 40
0.0
 40
0.1111111111111111
 40
0.1111111111111111
 40
0.1111111111111111
 40
0.1111111111111111
 40
0.2222222222222222
 40
0.2222222222222222
 40
0.2222222222222222
 40
0.2222222222222222
 40
0.3333333333333333
 40
0.3333333333333333
 40
0.3333333333333333
 40
0.3333333333333333
 40
0.4444444444444444
 40
0.4444444444444444
 40
0.4444444444444444
 40
0.4444444444444444
 40
0.5555555555555556
 40
0.5555555555555556
 40
0.5555555555555556
 40
0.5555555555555556
 40
0.6666666666666666
 40
0.6666666666666666
 40
0.6666666666666666
 40
0.6666666666666666
 40
0.7777777777777778
 40
0.7777777777777778
 40
0.7777777777777778
 40
0.7777777777777778
 40
1.0
 40
1.0
 40
1.0
 40
1.0
 10
2.50714
 20
7.75365
 30
0.0
 10
2.50714
 20
7.75365
 30
0.0
 10
2.60756
 20
7.75365
 30
0.0
 10
2.60756
 20
7.75365
 30
0.0
 10
2.60756
 20
7.75365
 30
0.0
 10
2.62896
 20
7.75365
 30
0.0
 10
2.64559
 20
7.75587
 30
0.0
 10
2.6576
 20
7.76032
 30
0.0
 10
2.6576
 20
7.76032
 30
0.0
 10
2.66962
 20
7.76468
 30
0.0
 10
2.67876
 20
7.77176
 30
0.0
 10
2.68493
 20
7.78156
 30
0.0
 10
2.68493
 20
7.78156
 30
0.0
 10
2.69119
 20
7.79127
 30
0.0
 10
2.69432
 20
7.80181
 30
0.0
 10
2.69432
 20
7.81325
 30
0.0
 10
2.69432
 20
7.81325
 30
0.0
 10
2.69432
 20
7.82996
 30
0.0
 10
2.68831
 20
7.84379
 30
0.0
 10
2.67621
 20
7.85457
 30
0.0
 10
2.67621
 20
7.85457
 30
0.0
 10
2.66411
 20
7.86535
 30
0.0
 10
2.64501
 20
7.8707
 30
0.0
 10
2.61892
 20
7.8707
 30
0.0
 10
2.61892
 20
7.8707
 30
0.0
 10
2.61892
 20
7.8707
 30
0.0
 10
2.50714
 20
7.8707
 30
0.0
 10
2.50714
 20
7.8707
 30
0.0
 10
2.50714
 20
7.8707
 30
0.0
 10
2.50714
 20
7.8707
 30
0.0
 10
2.50714
 20
7.75365
 30
0.0
 10
2.50714
 20
7.75365
 30
0.0
  0
SPLINE
  5
6D
330
1F
100
AcDbEntity
  8
Layer 1
 62
     1
100
AcDbSpline
210
0.0
220
0.0
230
1.0
 70
    11
 71
     3
 72
    64
 73
    60
 74
     0
 42
0.0000000001
 43
0.0000000001
 12
1.0
 22
0.0
 32
0.0
 13
1.0
 23
0.0
 33
0.0
 40
0.0
 40
0.0
 40
0.0
 40
0.0
 40
0.0625
 40
0.0625
 40
0.0625
 40
0.0625
 40
0.125
 40
0.125
 40
0.125
 40
0.125
 40
0.1875
 40
0.1875
 40
0.1875
 40
0.1875
 40
0.25
 40
0.25
 40
0.25
 40
0.25
 40
0.3125
 40
0.3125
 40
0.3125
 40
0.3125
 40
0.375
 40
0.375
 40
0.375
 40
0.375
 40
0.4375
 40
0.4375
 40
0.4375
 40
0.4375
 40
0.5
 40
0.5
 40
0.5
 40
0.5
 40
0.5625
 40
0.5625
 40
0.5625
 40
0.5625
 40
0.625
 40
0.625
 40
0.625
 40
0.625
 40
0.6875
 40
0.6875
 40
0.6875
 40
0.6875
 40
0.75
 40
0.75
 40
0.75
 40
0.75
 40
0.8125
 40
0.8125
 40
0.8125
 40
0.8125
 40
0.875
 40
0.875
 40
0.875
 40
0.875
 40
1.0
 40
1.0
 40
1.0
 40
1.0
 10
2.98529
 20
7.63907
 30
0.0
 10
2.98529
 20
7.63907
 30
0.0
 10
3.03023
 20
7.63315
 30
0.0
 10
3.03023
 20
7.63315
 30
0.0
 10
3.03023
 20
7.63315
 30
0.0
 10
3.02324
 20
7.60705
 30
0.0
 10
3.01015
 20
7.58672
 30
0.0
 10
2.99105
 20
7.57232
 30
0.0
 10
2.99105
 20
7.57232
 30
0.0
 10
2.97195
 20
7.55791
 30
0.0
 10
2.94759
 20
7.55067
 30
0.0
 10
2.91787
 20
7.55067
 30
0.0
 10
2.91787
 20
7.55067
 30
0.0
 10
2.8805
 20
7.55067
 30
0.0
 10
2.85087
 20
7.56219
 30
0.0
 10
2.82898
 20
7.58524
 30
0.0
 10
2.82898
 20
7.58524
 30
0.0
 10
2.80708
 20
7.6082
 30
0.0
 10
2.79613
 20
7.64055
 30
0.0
 10
2.79613
 20
7.68212
 30
0.0
 10
2.79613
 20
7.68212
 30
0.0
 10
2.79613
 20
7.72509
 30
0.0
 10
2.80716
 20
7.75851
 30
0.0
 10
2.82931
 20
7.78221
 30
0.0
 10
2.82931
 20
7.78221
 30
0.0
 10
2.85145
 20
7.806
 30
0.0
 10
2.88018
 20
7.81786
 30
0.0
 10
2.91549
 20
7.81786
 30
0.0
 10
2.91549
 20
7.81786
 30
0.0
 10
2.94965
 20
7.81786
 30
0.0
 10
2.97755
 20
7.80625
 30
0.0
 10
2.9992
 20
7.78296
 30
0.0
 10
2.9992
 20
7.78296
 30
0.0
 10
3.02085
 20
7.75966
 30
0.0
 10
3.03171
 20
7.7269
 30
0.0
 10
3.03171
 20
7.68467
 30
0.0
 10
3.03171
 20
7.68467
 30
0.0
 10
3.03171
 20
7.68212
 30
0.0
 10
3.03163
 20
7.67825
 30
0.0
 10
3.03147
 20
7.67315
 30
0.0
 10
3.03147
 20
7.67315
 30
0.0
 10
3.03147
 20
7.67315
 30
0.0
 10
2.84058
 20
7.67315
 30
0.0
 10
2.84058
 20
7.67315
 30
0.0
 10
2.84058
 20
7.67315
 30
0.0
 10
2.84223
 20
7.64508
 30
0.0
 10
2.85013
 20
7.62351
 30
0.0
 10
2.86445
 20
7.60862
 30
0.0
 10
2.86445
 20
7.60862
 30
0.0
 10
2.87869
 20
7.59372
 30
0.0
 10
2.89656
 20
7.58623
 30
0.0
 10
2.91787
 20
7.58623
 30
0.0
 10
2.91787
 20
7.58623
 30
0.0
 10
2.93376
 20
7.58623
 30
0.0
 10
2.94734
 20
7.59042
 30
0.0
 10
2.95854
 20
7.59882
 30
0.0
 10
2.95854
 20
7.59882
 30
0.0
 10
2.96981
 20
7.60722
 30
0.0
 10
2.9787
 20
7.62063
 30
0.0
 10
2.98529
 20
7.63907
 30
0.0
  0
SPLINE
  5
6E
330
1F
100
AcDbEntity
  8
Layer 1
 62
     1
100
AcDbSpline
210
0.0
220
0.0
230
1.0
 70
    11
 71
     3
 72
    24
 73
    20
 74
     0
 42
0.0000000001
 43
0.0000000001
 12
1.0
 22
0.0
 32
0.0
 13
1.0
 23
0.0
 33
0.0
 40
0.0
 40
0.0
 40
0.0
 40
0.0
 40
0.1666666666666667
 40
0.1666666666666667
 40
0.1666666666666667
 40
0.1666666666666667
 40
0.3333333333333333
 40
0.3333333333333333
 40
0.3333333333333333
 40
0.3333333333333333
 40
0.5
 40
0.5
 40
0.5
 40
0.5
 40
0.6666666666666666
 40
0.6666666666666666
 40
0.6666666666666666
 40
0.6666666666666666
 40
1.0
 40
1.0
 40
1.0
 40
1.0
 10
2.84305
 20
7.70871
 30
0.0
 10
2.84305
 20
7.70871
 30
0.0
 10
2.98578
 20
7.70871
 30
0.0
 10
2.98578
 20
7.70871
 30
0.0
 10
2.98578
 20
7.70871
 30
0.0
 10
2.98389
 20
7.73028
 30
0.0
 10
2.97838
 20
7.74641
 30
0.0
 10
2.9694
 20
7.75719
 30
0.0
 10
2.9694
 20
7.75719
 30
0.0
 10
2.95566
 20
7.7739
 30
0.0
 10
2.93771
 20
7.7823
 30
0.0
 10
2.91573
 20
7.7823
 30
0.0
 10
2.91573
 20
7.7823
 30
0.0
 10
2.89582
 20
7.7823
 30
0.0
 10
2.87911
 20
7.77563
 30
0.0
 10
2.86552
 20
7.76229
 30
0.0
 10
2.86552
 20
7.76229
 30
0.0
 10
2.85202
 20
7.74896
 30
0.0
 10
2.84453
 20
7.7311
 30
0.0
 10
2.84305
 20
7.70871
 30
0.0
  0
SPLINE
  5
6F
330
1F
100
AcDbEntity
  8
Layer 1
 62
     1
100
AcDbSpline
210
0.0
220
0.0
230
1.0
 70
    11
 71
     3
 72
    88
 73
    84
 74
     0
 42
0.0000000001
 43
0.0000000001
 12
1.0
 22
0.0
 32
0.0
 13
1.0
 23
0.0
 33
0.0
 40
0.0
 40
0.0
 40
0.0
 40
0.0
 40
0.0454545454545455
 40
0.0454545454545455
 40
0.0454545454545455
 40
0.0454545454545455
 40
0.0909090909090909
 40
0.0909090909090909
 40
0.0909090909090909
 40
0.0909090909090909
 40
0.1363636363636364
 40
0.1363636363636364
 40
0.1363636363636364
 40
0.1363636363636364
 40
0.1818181818181818
 40
0.1818181818181818
 40
0.1818181818181818
 40
0.1818181818181818
 40
0.2272727272727273
 40
0.2272727272727273
 40
0.2272727272727273
 40
0.2272727272727273
 40
0.2727272727272727
 40
0.2727272727272727
 40
0.2727272727272727
 40
0.2727272727272727
 40
0.3181818181818182
 40
0.3181818181818182
 40
0.3181818181818182
 40
0.3181818181818182
 40
0.3636363636363636
 40
0.3636363636363636
 40
0.3636363636363636
 40
0.3636363636363636
 40
0.4090909090909091
 40
0.4090909090909091
 40
0.4090909090909091
 40
0.4090909090909091
 40
0.4545454545454545
 40
0.4545454545454545
 40
0.4545454545454545
 40
0.4545454545454545
 40
0.5
 40
0.5
 40
0.5
 40
0.5
 40
0.5454545454545454
 40
0.5454545454545454
 40
0.5454545454545454
 40
0.5454545454545454
 40
0.5909090909090909
 40
0.5909090909090909
 40
0.5909090909090909
 40
0.5909090909090909
 40
0.6363636363636364
 40
0.6363636363636364
 40
0.6363636363636364
 40
0.6363636363636364
 40
0.6818181818181818
 40
0.6818181818181818
 40
0.6818181818181818
 40
0.6818181818181818
 40
0.7272727272727273
 40
0.7272727272727273
 40
0.7272727272727273
 40
0.7272727272727273
 40
0.7727272727272727
 40
0.7727272727272727
 40
0.7727272727272727
 40
0.7727272727272727
 40
0.8181818181818182
 40
0.8181818181818182
 40
0.8181818181818182
 40
0.8181818181818182
 40
0.8636363636363636
 40
0.8636363636363636
 40
0.8636363636363636
 40
0.8636363636363636
 40
0.9090909090909091
 40
0.9090909090909091
 40
0.9090909090909091
 40
0.9090909090909091
 40
1.0
 40
1.0
 40
1.0
 40
1.0
 10
3.07715
 20
7.53486
 30
0.0
 10
3.07715
 20
7.53486
 30
0.0
 10
3.11913
 20
7.52894
 30
0.0
 10
3.11913
 20
7.52894
 30
0.0
 10
3.11913
 20
7.52894
 30
0.0
 10
3.12086
 20
7.51593
 30
0.0
 10
3.1258
 20
7.50647
 30
0.0
 10
3.13387
 20
7.50046
 30
0.0
 10
3.13387
 20
7.50046
 30
0.0
 10
3.14465
 20
7.49247
 30
0.0
 10
3.15938
 20
7.48844
 30
0.0
 10
3.17807
 20
7.48844
 30
0.0
 10
3.17807
 20
7.48844
 30
0.0
 10
3.19815
 20
7.48844
 30
0.0
 10
3.21371
 20
7.49247
 30
0.0
 10
3.22466
 20
7.50046
 30
0.0
 10
3.22466
 20
7.50046
 30
0.0
 10
3.2356
 20
7.50844
 30
0.0
 10
3.24301
 20
7.51972
 30
0.0
 10
3.24688
 20
7.53412
 30
0.0
 10
3.24688
 20
7.53412
 30
0.0
 10
3.2491
 20
7.54293
 30
0.0
 10
3.25017
 20
7.56145
 30
0.0
 10
3.25001
 20
7.58968
 30
0.0
 10
3.25001
 20
7.58968
 30
0.0
 10
3.231
 20
7.56729
 30
0.0
 10
3.20737
 20
7.5561
 30
0.0
 10
3.17906
 20
7.5561
 30
0.0
 10
3.17906
 20
7.5561
 30
0.0
 10
3.14383
 20
7.5561
 30
0.0
 10
3.1165
 20
7.56878
 30
0.0
 10
3.09724
 20
7.59421
 30
0.0
 10
3.09724
 20
7.59421
 30
0.0
 10
3.07789
 20
7.61956
 30
0.0
 10
3.06826
 20
7.65002
 30
0.0
 10
3.06826
 20
7.6855
 30
0.0
 10
3.06826
 20
7.6855
 30
0.0
 10
3.06826
 20
7.70994
 30
0.0
 10
3.07271
 20
7.7325
 30
0.0
 10
3.08151
 20
7.75316
 30
0.0
 10
3.08151
 20
7.75316
 30
0.0
 10
3.09032
 20
7.77382
 30
0.0
 10
3.10316
 20
7.78971
 30
0.0
 10
3.11995
 20
7.80098
 30
0.0
 10
3.11995
 20
7.80098
 30
0.0
 10
3.13675
 20
7.81226
 30
0.0
 10
3.1565
 20
7.81786
 30
0.0
 10
3.17922
 20
7.81786
 30
0.0
 10
3.17922
 20
7.81786
 30
0.0
 10
3.20943
 20
7.81786
 30
0.0
 10
3.23437
 20
7.80551
 30
0.0
 10
3.25396
 20
7.78082
 30
0.0
 10
3.25396
 20
7.78082
 30
0.0
 10
3.25396
 20
7.78082
 30
0.0
 10
3.25396
 20
7.81242
 30
0.0
 10
3.25396
 20
7.81242
 30
0.0
 10
3.25396
 20
7.81242
 30
0.0
 10
3.25396
 20
7.81242
 30
0.0
 10
3.29397
 20
7.81242
 30
0.0
 10
3.29397
 20
7.81242
 30
0.0
 10
3.29397
 20
7.81242
 30
0.0
 10
3.29397
 20
7.81242
 30
0.0
 10
3.29397
 20
7.59108
 30
0.0
 10
3.29397
 20
7.59108
 30
0.0
 10
3.29397
 20
7.59108
 30
0.0
 10
3.29397
 20
7.55116
 30
0.0
 10
3.28993
 20
7.52293
 30
0.0
 10
3.28178
 20
7.5063
 30
0.0
 10
3.28178
 20
7.5063
 30
0.0
 10
3.27372
 20
7.48967
 30
0.0
 10
3.26079
 20
7.4765
 30
0.0
 10
3.24326
 20
7.46687
 30
0.0
 10
3.24326
 20
7.46687
 30
0.0
 10
3.22564
 20
7.45724
 30
0.0
 10
3.204
 20
7.45239
 30
0.0
 10
3.17831
 20
7.45239
 30
0.0
 10
3.17831
 20
7.45239
 30
0.0
 10
3.14778
 20
7.45239
 30
0.0
 10
3.12316
 20
7.45922
 30
0.0
 10
3.1044
 20
7.47296
 30
0.0
 10
3.1044
 20
7.47296
 30
0.0
 10
3.08555
 20
7.48663
 30
0.0
 10
3.07649
 20
7.50729
 30
0.0
 10
3.07715
 20
7.53486
 30
0.0
  0
SPLINE
  5
70
330
1F
100
AcDbEntity
  8
Layer 1
 62
     1
100
AcDbSpline
210
0.0
220
0.0
230
1.0
 70
    11
 71
     3
 72
    36
 73
    32
 74
     0
 42
0.0000000001
 43
0.0000000001
 12
1.0
 22
0.0
 32
0.0
 13
1.0
 23
0.0
 33
0.0
 40
0.0
 40
0.0
 40
0.0
 40
0.0
 40
0.1111111111111111
 40
0.1111111111111111
 40
0.1111111111111111
 40
0.1111111111111111
 40
0.2222222222222222
 40
0.2222222222222222
 40
0.2222222222222222
 40
0.2222222222222222
 40
0.3333333333333333
 40
0.3333333333333333
 40
0.3333333333333333
 40
0.3333333333333333
 40
0.4444444444444444
 40
0.4444444444444444
 40
0.4444444444444444
 40
0.4444444444444444
 40
0.5555555555555556
 40
0.5555555555555556
 40
0.5555555555555556
 40
0.5555555555555556
 40
0.6666666666666666
 40
0.6666666666666666
 40
0.6666666666666666
 40
0.6666666666666666
 40
0.7777777777777778
 40
0.7777777777777778
 40
0.7777777777777778
 40
0.7777777777777778
 40
1.0
 40
1.0
 40
1.0
 40
1.0
 10
3.11271
 20
7.68862
 30
0.0
 10
3.11271
 20
7.65512
 30
0.0
 10
3.11938
 20
7.63068
 30
0.0
 10
3.13271
 20
7.61528
 30
0.0
 10
3.13271
 20
7.61528
 30
0.0
 10
3.14613
 20
7.59989
 30
0.0
 10
3.16284
 20
7.59215
 30
0.0
 10
3.18292
 20
7.59215
 30
0.0
 10
3.18292
 20
7.59215
 30
0.0
 10
3.20293
 20
7.59215
 30
0.0
 10
3.21964
 20
7.59981
 30
0.0
 10
3.23322
 20
7.61512
 30
0.0
 10
3.23322
 20
7.61512
 30
0.0
 10
3.24672
 20
7.63043
 30
0.0
 10
3.25347
 20
7.65446
 30
0.0
 10
3.25347
 20
7.68723
 30
0.0
 10
3.25347
 20
7.68723
 30
0.0
 10
3.25347
 20
7.7185
 30
0.0
 10
3.24647
 20
7.74213
 30
0.0
 10
3.23256
 20
7.75801
 30
0.0
 10
3.23256
 20
7.75801
 30
0.0
 10
3.21865
 20
7.7739
 30
0.0
 10
3.20186
 20
7.7818
 30
0.0
 10
3.18227
 20
7.7818
 30
0.0
 10
3.18227
 20
7.7818
 30
0.0
 10
3.16292
 20
7.7818
 30
0.0
 10
3.14654
 20
7.77398
 30
0.0
 10
3.13296
 20
7.75834
 30
0.0
 10
3.13296
 20
7.75834
 30
0.0
 10
3.11946
 20
7.7427
 30
0.0
 10
3.11271
 20
7.71949
 30
0.0
 10
3.11271
 20
7.68862
 30
0.0
  0
SPLINE
  5
71
330
1F
100
AcDbEntity
  8
Layer 1
 62
     1
100
AcDbSpline
210
0.0
220
0.0
230
1.0
 70
    11
 71
     3
 72
    80
 73
    76
 74
     0
 42
0.0000000001
 43
0.0000000001
 12
1.0
 22
0.0
 32
0.0
 13
1.0
 23
0.0
 33
0.0
 40
0.0
 40
0.0
 40
0.0
 40
0.0
 40
0.05
 40
0.05
 40
0.05
 40
0.05
 40
0.1
 40
0.1
 40
0.1
 40
0.1
 40
0.15
 40
0.15
 40
0.15
 40
0.15
 40
0.2
 40
0.2
 40
0.2
 40
0.2
 40
0.25
 40
0.25
 40
0.25
 40
0.25
 40
0.3
 40
0.3
 40
0.3
 40
0.3
 40
0.35
 40
0.35
 40
0.35
 40
0.35
 40
0.4
 40
0.4
 40
0.4
 40
0.4
 40
0.45
 40
0.45
 40
0.45
 40
0.45
 40
0.5
 40
0.5
 40
0.5
 40
0.5
 40
0.55
 40
0.55
 40
0.55
 40
0.55
 40
0.6
 40
0.6
 40
0.6
 40
0.6
 40
0.65
 40
0.65
 40
0.65
 40
0.65
 40
0.7
 40
0.7
 40
0.7
 40
0.7
 40
0.75
 40
0.75
 40
0.75
 40
0.75
 40
0.8
 40
0.8
 40
0.8
 40
0.8
 40
0.85
 40
0.85
 40
0.85
 40
0.85
 40
0.9
 40
0.9
 40
0.9
 40
0.9
 40
1.0
 40
1.0
 40
1.0
 40
1.0
 10
3.52724
 20
7.5561
 30
0.0
 10
3.52724
 20
7.5561
 30
0.0
 10
3.52724
 20
7.59421
 30
0.0
 10
3.52724
 20
7.59421
 30
0.0
 10
3.52724
 20
7.59421
 30
0.0
 10
3.50732
 20
7.56515
 30
0.0
 10
3.48032
 20
7.55067
 30
0.0
 10
3.44616
 20
7.55067
 30
0.0
 10
3.44616
 20
7.55067
 30
0.0
 10
3.4311
 20
7.55067
 30
0.0
 10
3.41702
 20
7.55355
 30
0.0
 10
3.40394
 20
7.55931
 30
0.0
 10
3.40394
 20
7.55931
 30
0.0
 10
3.39085
 20
7.56515
 30
0.0
 10
3.38114
 20
7.5724
 30
0.0
 10
3.3748
 20
7.58112
 30
0.0
 10
3.3748
 20
7.58112
 30
0.0
 10
3.36846
 20
7.58993
 30
0.0
 10
3.36401
 20
7.60063
 30
0.0
 10
3.36146
 20
7.61331
 30
0.0
 10
3.36146
 20
7.61331
 30
0.0
 10
3.35973
 20
7.62187
 30
0.0
 10
3.35883
 20
7.63537
 30
0.0
 10
3.35883
 20
7.65381
 30
0.0
 10
3.35883
 20
7.65381
 30
0.0
 10
3.35883
 20
7.65381
 30
0.0
 10
3.35883
 20
7.81242
 30
0.0
 10
3.35883
 20
7.81242
 30
0.0
 10
3.35883
 20
7.81242
 30
0.0
 10
3.35883
 20
7.81242
 30
0.0
 10
3.40229
 20
7.81242
 30
0.0
 10
3.40229
 20
7.81242
 30
0.0
 10
3.40229
 20
7.81242
 30
0.0
 10
3.40229
 20
7.81242
 30
0.0
 10
3.40229
 20
7.6706
 30
0.0
 10
3.40229
 20
7.6706
 30
0.0
 10
3.40229
 20
7.6706
 30
0.0
 10
3.40229
 20
7.64796
 30
0.0
 10
3.4032
 20
7.63265
 30
0.0
 10
3.40492
 20
7.62483
 30
0.0
 10
3.40492
 20
7.62483
 30
0.0
 10
3.40764
 20
7.61339
 30
0.0
 10
3.4134
 20
7.6045
 30
0.0
 10
3.42229
 20
7.598
 30
0.0
 10
3.42229
 20
7.598
 30
0.0
 10
3.4311
 20
7.59149
 30
0.0
 10
3.44196
 20
7.5882
 30
0.0
 10
3.45497
 20
7.5882
 30
0.0
 10
3.45497
 20
7.5882
 30
0.0
 10
3.46798
 20
7.5882
 30
0.0
 10
3.48016
 20
7.59149
 30
0.0
 10
3.49152
 20
7.59816
 30
0.0
 10
3.49152
 20
7.59816
 30
0.0
 10
3.50288
 20
7.60483
 30
0.0
 10
3.51094
 20
7.61397
 30
0.0
 10
3.51572
 20
7.62541
 30
0.0
 10
3.51572
 20
7.62541
 30
0.0
 10
3.52041
 20
7.63685
 30
0.0
 10
3.5228
 20
7.65356
 30
0.0
 10
3.5228
 20
7.67537
 30
0.0
 10
3.5228
 20
7.67537
 30
0.0
 10
3.5228
 20
7.67537
 30
0.0
 10
3.5228
 20
7.81242
 30
0.0
 10
3.5228
 20
7.81242
 30
0.0
 10
3.5228
 20
7.81242
 30
0.0
 10
3.5228
 20
7.81242
 30
0.0
 10
3.56626
 20
7.81242
 30
0.0
 10
3.56626
 20
7.81242
 30
0.0
 10
3.56626
 20
7.81242
 30
0.0
 10
3.56626
 20
7.81242
 30
0.0
 10
3.56626
 20
7.5561
 30
0.0
 10
3.56626
 20
7.5561
 30
0.0
 10
3.56626
 20
7.5561
 30
0.0
 10
3.56626
 20
7.5561
 30
0.0
 10
3.52724
 20
7.5561
 30
0.0
 10
3.52724
 20
7.5561
 30
0.0
  0
SPLINE
  5
72
330
1F
100
AcDbEntity
  8
Layer 1
 62
     1
100
AcDbSpline
210
0.0
220
0.0
230
1.0
 70
    11
 71
     3
 72
    20
 73
    16
 74
     0
 42
0.0000000001
 43
0.0000000001
 12
1.0
 22
0.0
 32
0.0
 13
1.0
 23
0.0
 33
0.0
 40
0.0
 40
0.0
 40
0.0
 40
0.0
 40
0.2
 40
0.2
 40
0.2
 40
0.2
 40
0.4
 40
0.4
 40
0.4
 40
0.4
 40
0.6
 40
0.6
 40
0.6
 40
0.6
 40
1.0
 40
1.0
 40
1.0
 40
1.0
 10
3.63351
 20
7.5561
 30
0.0
 10
3.63351
 20
7.5561
 30
0.0
 10
3.63351
 20
7.90972
 30
0.0
 10
3.63351
 20
7.90972
 30
0.0
 10
3.63351
 20
7.90972
 30
0.0
 10
3.63351
 20
7.90972
 30
0.0
 10
3.67697
 20
7.90972
 30
0.0
 10
3.67697
 20
7.90972
 30
0.0
 10
3.67697
 20
7.90972
 30
0.0
 10
3.67697
 20
7.90972
 30
0.0
 10
3.67697
 20
7.5561
 30
0.0
 10
3.67697
 20
7.5561
 30
0.0
 10
3.67697
 20
7.5561
 30
0.0
 10
3.67697
 20
7.5561
 30
0.0
 10
3.63351
 20
7.5561
 30
0.0
 10
3.63351
 20
7.5561
 30
0.0
  0
SPLINE
  5
73
330
1F
100
AcDbEntity
  8
Layer 1
 62
     1
100
AcDbSpline
210
0.0
220
0.0
230
1.0
 70
    11
 71
     3
 72
   112
 73
   108
 74
     0
 42
0.0000000001
 43
0.0000000001
 12
1.0
 22
0.0
 32
0.0
 13
1.0
 23
0.0
 33
0.0
 40
0.0
 40
0.0
 40
0.0
 40
0.0
 40
0.0357142857142857
 40
0.0357142857142857
 40
0.0357142857142857
 40
0.0357142857142857
 40
0.0714285714285714
 40
0.0714285714285714
 40
0.0714285714285714
 40
0.0714285714285714
 40
0.1071428571428571
 40
0.1071428571428571
 40
0.1071428571428571
 40
0.1071428571428571
 40
0.1428571428571428
 40
0.1428571428571428
 40
0.1428571428571428
 40
0.1428571428571428
 40
0.1785714285714286
 40
0.1785714285714286
 40
0.1785714285714286
 40
0.1785714285714286
 40
0.2142857142857143
 40
0.2142857142857143
 40
0.2142857142857143
 40
0.2142857142857143
 40
0.25
 40
0.25
 40
0.25
 40
0.25
 40
0.2857142857142857
 40
0.2857142857142857
 40
0.2857142857142857
 40
0.2857142857142857
 40
0.3214285714285715
 40
0.3214285714285715
 40
0.3214285714285715
 40
0.3214285714285715
 40
0.3571428571428572
 40
0.3571428571428572
 40
0.3571428571428572
 40
0.3571428571428572
 40
0.3928571428571428
 40
0.3928571428571428
 40
0.3928571428571428
 40
0.3928571428571428
 40
0.4285714285714285
 40
0.4285714285714285
 40
0.4285714285714285
 40
0.4285714285714285
 40
0.4642857142857143
 40
0.4642857142857143
 40
0.4642857142857143
 40
0.4642857142857143
 40
0.5
 40
0.5
 40
0.5
 40
0.5
 40
0.5357142857142857
 40
0.5357142857142857
 40
0.5357142857142857
 40
0.5357142857142857
 40
0.5714285714285714
 40
0.5714285714285714
 40
0.5714285714285714
 40
0.5714285714285714
 40
0.6071428571428571
 40
0.6071428571428571
 40
0.6071428571428571
 40
0.6071428571428571
 40
0.6428571428571429
 40
0.6428571428571429
 40
0.6428571428571429
 40
0.6428571428571429
 40
0.6785714285714286
 40
0.6785714285714286
 40
0.6785714285714286
 40
0.6785714285714286
 40
0.7142857142857143
 40
0.7142857142857143
 40
0.7142857142857143
 40
0.7142857142857143
 40
0.75
 40
0.75
 40
0.75
 40
0.75
 40
0.7857142857142857
 40
0.7857142857142857
 40
0.7857142857142857
 40
0.7857142857142857
 40
0.8214285714285714
 40
0.8214285714285714
 40
0.8214285714285714
 40
0.8214285714285714
 40
0.8571428571428571
 40
0.8571428571428571
 40
0.8571428571428571
 40
0.8571428571428571
 40
0.8928571428571429
 40
0.8928571428571429
 40
0.8928571428571429
 40
0.8928571428571429
 40
0.9285714285714286
 40
0.9285714285714286
 40
0.9285714285714286
 40
0.9285714285714286
 40
1.0
 40
1.0
 40
1.0
 40
1.0
 10
3.91164
 20
7.5882
 30
0.0
 10
3.89551
 20
7.57446
 30
0.0
 10
3.87995
 20
7.56483
 30
0.0
 10
3.86505
 20
7.55915
 30
0.0
 10
3.86505
 20
7.55915
 30
0.0
 10
3.85015
 20
7.55347
 30
0.0
 10
3.83418
 20
7.55067
 30
0.0
 10
3.81706
 20
7.55067
 30
0.0
 10
3.81706
 20
7.55067
 30
0.0
 10
3.78891
 20
7.55067
 30
0.0
 10
3.76726
 20
7.5575
 30
0.0
 10
3.75212
 20
7.57125
 30
0.0
 10
3.75212
 20
7.57125
 30
0.0
 10
3.73697
 20
7.58491
 30
0.0
 10
3.7294
 20
7.60244
 30
0.0
 10
3.7294
 20
7.62376
 30
0.0
 10
3.7294
 20
7.62376
 30
0.0
 10
3.7294
 20
7.63627
 30
0.0
 10
3.73228
 20
7.64771
 30
0.0
 10
3.73796
 20
7.65809
 30
0.0
 10
3.73796
 20
7.65809
 30
0.0
 10
3.74372
 20
7.66846
 30
0.0
 10
3.75121
 20
7.67669
 30
0.0
 10
3.76043
 20
7.68294
 30
0.0
 10
3.76043
 20
7.68294
 30
0.0
 10
3.76973
 20
7.6892
 30
0.0
 10
3.7801
 20
7.69397
 30
0.0
 10
3.79171
 20
7.69719
 30
0.0
 10
3.79171
 20
7.69719
 30
0.0
 10
3.80027
 20
7.69941
 30
0.0
 10
3.81319
 20
7.70155
 30
0.0
 10
3.8304
 20
7.70369
 30
0.0
 10
3.8304
 20
7.70369
 30
0.0
 10
3.86546
 20
7.7078
 30
0.0
 10
3.89139
 20
7.71282
 30
0.0
 10
3.90794
 20
7.71859
 30
0.0
 10
3.90794
 20
7.71859
 30
0.0
 10
3.9081
 20
7.72451
 30
0.0
 10
3.90818
 20
7.7283
 30
0.0
 10
3.90818
 20
7.72986
 30
0.0
 10
3.90818
 20
7.72986
 30
0.0
 10
3.90818
 20
7.74748
 30
0.0
 10
3.90407
 20
7.75991
 30
0.0
 10
3.89584
 20
7.76715
 30
0.0
 10
3.89584
 20
7.76715
 30
0.0
 10
3.88472
 20
7.77695
 30
0.0
 10
3.86818
 20
7.7818
 30
0.0
 10
3.84628
 20
7.7818
 30
0.0
 10
3.84628
 20
7.7818
 30
0.0
 10
3.82579
 20
7.7818
 30
0.0
 10
3.81064
 20
7.77818
 30
0.0
 10
3.80093
 20
7.77102
 30
0.0
 10
3.80093
 20
7.77102
 30
0.0
 10
3.79113
 20
7.76386
 30
0.0
 10
3.78397
 20
7.75118
 30
0.0
 10
3.77928
 20
7.73291
 30
0.0
 10
3.77928
 20
7.73291
 30
0.0
 10
3.77928
 20
7.73291
 30
0.0
 10
3.73681
 20
7.73884
 30
0.0
 10
3.73681
 20
7.73884
 30
0.0
 10
3.73681
 20
7.73884
 30
0.0
 10
3.74068
 20
7.75703
 30
0.0
 10
3.74701
 20
7.77176
 30
0.0
 10
3.7559
 20
7.78296
 30
0.0
 10
3.7559
 20
7.78296
 30
0.0
 10
3.76479
 20
7.79415
 30
0.0
 10
3.77764
 20
7.80271
 30
0.0
 10
3.79443
 20
7.8088
 30
0.0
 10
3.79443
 20
7.8088
 30
0.0
 10
3.81114
 20
7.81481
 30
0.0
 10
3.83065
 20
7.81786
 30
0.0
 10
3.85271
 20
7.81786
 30
0.0
 10
3.85271
 20
7.81786
 30
0.0
 10
3.8746
 20
7.81786
 30
0.0
 10
3.89246
 20
7.8153
 30
0.0
 10
3.90621
 20
7.81012
 30
0.0
 10
3.90621
 20
7.81012
 30
0.0
 10
3.91987
 20
7.80493
 30
0.0
 10
3.93
 20
7.79851
 30
0.0
 10
3.93642
 20
7.79069
 30
0.0
 10
3.93642
 20
7.79069
 30
0.0
 10
3.94284
 20
7.78287
 30
0.0
 10
3.94737
 20
7.773
 30
0.0
 10
3.95
 20
7.76106
 30
0.0
 10
3.95
 20
7.76106
 30
0.0
 10
3.9514
 20
7.75365
 30
0.0
 10
3.95214
 20
7.74032
 30
0.0
 10
3.95214
 20
7.72114
 30
0.0
 10
3.95214
 20
7.72114
 30
0.0
 10
3.95214
 20
7.72114
 30
0.0
 10
3.95214
 20
7.66352
 30
0.0
 10
3.95214
 20
7.66352
 30
0.0
 10
3.95214
 20
7.66352
 30
0.0
 10
3.95214
 20
7.62327
 30
0.0
 10
3.95305
 20
7.59783
 30
0.0
 10
3.95486
 20
7.58705
 30
0.0
 10
3.95486
 20
7.58705
 30
0.0
 10
3.95658
 20
7.57627
 30
0.0
 10
3.96021
 20
7.56598
 30
0.0
 10
3.96547
 20
7.5561
 30
0.0
 10
3.96547
 20
7.5561
 30
0.0
 10
3.96547
 20
7.5561
 30
0.0
 10
3.92004
 20
7.5561
 30
0.0
 10
3.92004
 20
7.5561
 30
0.0
 10
3.92004
 20
7.5561
 30
0.0
 10
3.91567
 20
7.56524
 30
0.0
 10
3.91288
 20
7.57594
 30
0.0
 10
3.91164
 20
7.5882
 30
0.0
  0
SPLINE
  5
74
330
1F
100
AcDbEntity
  8
Layer 1
 62
     1
100
AcDbSpline
210
0.0
220
0.0
230
1.0
 70
    11
 71
     3
 72
    44
 73
    40
 74
     0
 42
0.0000000001
 43
0.0000000001
 12
1.0
 22
0.0
 32
0.0
 13
1.0
 23
0.0
 33
0.0
 40
0.0
 40
0.0
 40
0.0
 40
0.0
 40
0.0909090909090909
 40
0.0909090909090909
 40
0.0909090909090909
 40
0.0909090909090909
 40
0.1818181818181818
 40
0.1818181818181818
 40
0.1818181818181818
 40
0.1818181818181818
 40
0.2727272727272727
 40
0.2727272727272727
 40
0.2727272727272727
 40
0.2727272727272727
 40
0.3636363636363636
 40
0.3636363636363636
 40
0.3636363636363636
 40
0.3636363636363636
 40
0.4545454545454545
 40
0.4545454545454545
 40
0.4545454545454545
 40
0.4545454545454545
 40
0.5454545454545454
 40
0.5454545454545454
 40
0.5454545454545454
 40
0.5454545454545454
 40
0.6363636363636364
 40
0.6363636363636364
 40
0.6363636363636364
 40
0.6363636363636364
 40
0.7272727272727273
 40
0.7272727272727273
 40
0.7272727272727273
 40
0.7272727272727273
 40
0.8181818181818182
 40
0.8181818181818182
 40
0.8181818181818182
 40
0.8181818181818182
 40
1.0
 40
1.0
 40
1.0
 40
1.0
 10
3.90818
 20
7.68451
 30
0.0
 10
3.89238
 20
7.67809
 30
0.0
 10
3.86867
 20
7.67266
 30
0.0
 10
3.83707
 20
7.66821
 30
0.0
 10
3.83707
 20
7.66821
 30
0.0
 10
3.81912
 20
7.66566
 30
0.0
 10
3.80644
 20
7.66278
 30
0.0
 10
3.79904
 20
7.65957
 30
0.0
 10
3.79904
 20
7.65957
 30
0.0
 10
3.79163
 20
7.65636
 30
0.0
 10
3.78595
 20
7.65167
 30
0.0
 10
3.78192
 20
7.64557
 30
0.0
 10
3.78192
 20
7.64557
 30
0.0
 10
3.77788
 20
7.6394
 30
0.0
 10
3.77582
 20
7.63257
 30
0.0
 10
3.77582
 20
7.625
 30
0.0
 10
3.77582
 20
7.625
 30
0.0
 10
3.77582
 20
7.61355
 30
0.0
 10
3.78019
 20
7.60392
 30
0.0
 10
3.78899
 20
7.59627
 30
0.0
 10
3.78899
 20
7.59627
 30
0.0
 10
3.7978
 20
7.58861
 30
0.0
 10
3.81064
 20
7.58475
 30
0.0
 10
3.82752
 20
7.58475
 30
0.0
 10
3.82752
 20
7.58475
 30
0.0
 10
3.84423
 20
7.58475
 30
0.0
 10
3.85913
 20
7.58837
 30
0.0
 10
3.87221
 20
7.59569
 30
0.0
 10
3.87221
 20
7.59569
 30
0.0
 10
3.88522
 20
7.60294
 30
0.0
 10
3.89485
 20
7.6129
 30
0.0
 10
3.90094
 20
7.62549
 30
0.0
 10
3.90094
 20
7.62549
 30
0.0
 10
3.90563
 20
7.63529
 30
0.0
 10
3.90794
 20
7.64969
 30
0.0
 10
3.90794
 20
7.6687
 30
0.0
 10
3.90794
 20
7.6687
 30
0.0
 10
3.90794
 20
7.6687
 30
0.0
 10
3.90818
 20
7.68451
 30
0.0
 10
3.90818
 20
7.68451
 30
0.0
  0
SPLINE
  5
75
330
1F
100
AcDbEntity
  8
Layer 1
 62
     1
100
AcDbSpline
210
0.0
220
0.0
230
1.0
 70
    11
 71
     3
 72
    84
 73
    80
 74
     0
 42
0.0000000001
 43
0.0000000001
 12
1.0
 22
0.0
 32
0.0
 13
1.0
 23
0.0
 33
0.0
 40
0.0
 40
0.0
 40
0.0
 40
0.0
 40
0.0476190476190476
 40
0.0476190476190476
 40
0.0476190476190476
 40
0.0476190476190476
 40
0.0952380952380952
 40
0.0952380952380952
 40
0.0952380952380952
 40
0.0952380952380952
 40
0.1428571428571428
 40
0.1428571428571428
 40
0.1428571428571428
 40
0.1428571428571428
 40
0.1904761904761905
 40
0.1904761904761905
 40
0.1904761904761905
 40
0.1904761904761905
 40
0.2380952380952381
 40
0.2380952380952381
 40
0.2380952380952381
 40
0.2380952380952381
 40
0.2857142857142857
 40
0.2857142857142857
 40
0.2857142857142857
 40
0.2857142857142857
 40
0.3333333333333333
 40
0.3333333333333333
 40
0.3333333333333333
 40
0.3333333333333333
 40
0.3809523809523809
 40
0.3809523809523809
 40
0.3809523809523809
 40
0.3809523809523809
 40
0.4285714285714285
 40
0.4285714285714285
 40
0.4285714285714285
 40
0.4285714285714285
 40
0.4761904761904762
 40
0.4761904761904762
 40
0.4761904761904762
 40
0.4761904761904762
 40
0.5238095238095238
 40
0.5238095238095238
 40
0.5238095238095238
 40
0.5238095238095238
 40
0.5714285714285714
 40
0.5714285714285714
 40
0.5714285714285714
 40
0.5714285714285714
 40
0.6190476190476191
 40
0.6190476190476191
 40
0.6190476190476191
 40
0.6190476190476191
 40
0.6666666666666666
 40
0.6666666666666666
 40
0.6666666666666666
 40
0.6666666666666666
 40
0.7142857142857143
 40
0.7142857142857143
 40
0.7142857142857143
 40
0.7142857142857143
 40
0.7619047619047619
 40
0.7619047619047619
 40
0.7619047619047619
 40
0.7619047619047619
 40
0.8095238095238095
 40
0.8095238095238095
 40
0.8095238095238095
 40
0.8095238095238095
 40
0.8571428571428571
 40
0.8571428571428571
 40
0.8571428571428571
 40
0.8571428571428571
 40
0.9047619047619048
 40
0.9047619047619048
 40
0.9047619047619048
 40
0.9047619047619048
 40
1.0
 40
1.0
 40
1.0
 40
1.0
 10
4.11323
 20
7.59487
 30
0.0
 10
4.11323
 20
7.59487
 30
0.0
 10
4.11915
 20
7.55651
 30
0.0
 10
4.11915
 20
7.55651
 30
0.0
 10
4.11915
 20
7.55651
 30
0.0
 10
4.10697
 20
7.55396
 30
0.0
 10
4.09602
 20
7.55264
 30
0.0
 10
4.08648
 20
7.55264
 30
0.0
 10
4.08648
 20
7.55264
 30
0.0
 10
4.07075
 20
7.55264
 30
0.0
 10
4.05857
 20
7.55511
 30
0.0
 10
4.04985
 20
7.56013
 30
0.0
 10
4.04985
 20
7.56013
 30
0.0
 10
4.0412
 20
7.56515
 30
0.0
 10
4.03511
 20
7.57166
 30
0.0
 10
4.03157
 20
7.57981
 30
0.0
 10
4.03157
 20
7.57981
 30
0.0
 10
4.02803
 20
7.58796
 30
0.0
 10
4.0263
 20
7.60508
 30
0.0
 10
4.0263
 20
7.63117
 30
0.0
 10
4.0263
 20
7.63117
 30
0.0
 10
4.0263
 20
7.63117
 30
0.0
 10
4.0263
 20
7.77884
 30
0.0
 10
4.0263
 20
7.77884
 30
0.0
 10
4.0263
 20
7.77884
 30
0.0
 10
4.0263
 20
7.77884
 30
0.0
 10
3.9942
 20
7.77884
 30
0.0
 10
3.9942
 20
7.77884
 30
0.0
 10
3.9942
 20
7.77884
 30
0.0
 10
3.9942
 20
7.77884
 30
0.0
 10
3.9942
 20
7.81242
 30
0.0
 10
3.9942
 20
7.81242
 30
0.0
 10
3.9942
 20
7.81242
 30
0.0
 10
3.9942
 20
7.81242
 30
0.0
 10
4.0263
 20
7.81242
 30
0.0
 10
4.0263
 20
7.81242
 30
0.0
 10
4.0263
 20
7.81242
 30
0.0
 10
4.0263
 20
7.81242
 30
0.0
 10
4.0263
 20
7.8758
 30
0.0
 10
4.0263
 20
7.8758
 30
0.0
 10
4.0263
 20
7.8758
 30
0.0
 10
4.0263
 20
7.8758
 30
0.0
 10
4.06977
 20
7.9019
 30
0.0
 10
4.06977
 20
7.9019
 30
0.0
 10
4.06977
 20
7.9019
 30
0.0
 10
4.06977
 20
7.9019
 30
0.0
 10
4.06977
 20
7.81242
 30
0.0
 10
4.06977
 20
7.81242
 30
0.0
 10
4.06977
 20
7.81242
 30
0.0
 10
4.06977
 20
7.81242
 30
0.0
 10
4.11323
 20
7.81242
 30
0.0
 10
4.11323
 20
7.81242
 30
0.0
 10
4.11323
 20
7.81242
 30
0.0
 10
4.11323
 20
7.81242
 30
0.0
 10
4.11323
 20
7.77884
 30
0.0
 10
4.11323
 20
7.77884
 30
0.0
 10
4.11323
 20
7.77884
 30
0.0
 10
4.11323
 20
7.77884
 30
0.0
 10
4.06977
 20
7.77884
 30
0.0
 10
4.06977
 20
7.77884
 30
0.0
 10
4.06977
 20
7.77884
 30
0.0
 10
4.06977
 20
7.77884
 30
0.0
 10
4.06977
 20
7.6287
 30
0.0
 10
4.06977
 20
7.6287
 30
0.0
 10
4.06977
 20
7.6287
 30
0.0
 10
4.06977
 20
7.61627
 30
0.0
 10
4.07051
 20
7.60829
 30
0.0
 10
4.07207
 20
7.60475
 30
0.0
 10
4.07207
 20
7.60475
 30
0.0
 10
4.07355
 20
7.60121
 30
0.0
 10
4.07602
 20
7.59841
 30
0.0
 10
4.07948
 20
7.59627
 30
0.0
 10
4.07948
 20
7.59627
 30
0.0
 10
4.08294
 20
7.59421
 30
0.0
 10
4.08787
 20
7.59314
 30
0.0
 10
4.0943
 20
7.59314
 30
0.0
 10
4.0943
 20
7.59314
 30
0.0
 10
4.09907
 20
7.59314
 30
0.0
 10
4.10541
 20
7.59372
 30
0.0
 10
4.11323
 20
7.59487
 30
0.0
  0
SPLINE
  5
76
330
1F
100
AcDbEntity
  8
Layer 1
 62
     1
100
AcDbSpline
210
0.0
220
0.0
230
1.0
 70
    11
 71
     3
 72
    40
 73
    36
 74
     0
 42
0.0000000001
 43
0.0000000001
 12
1.0
 22
0.0
 32
0.0
 13
1.0
 23
0.0
 33
0.0
 40
0.0
 40
0.0
 40
0.0
 40
0.0
 40
0.1
 40
0.1
 40
0.1
 40
0.1
 40
0.2
 40
0.2
 40
0.2
 40
0.2
 40
0.3
 40
0.3
 40
0.3
 40
0.3
 40
0.4
 40
0.4
 40
0.4
 40
0.4
 40
0.5
 40
0.5
 40
0.5
 40
0.5
 40
0.6
 40
0.6
 40
0.6
 40
0.6
 40
0.7
 40
0.7
 40
0.7
 40
0.7
 40
0.8
 40
0.8
 40
0.8
 40
0.8
 40
1.0
 40
1.0
 40
1.0
 40
1.0
 10
4.13982
 20
7.68426
 30
0.0
 10
4.13982
 20
7.73159
 30
0.0
 10
4.15299
 20
7.76666
 30
0.0
 10
4.17941
 20
7.78946
 30
0.0
 10
4.17941
 20
7.78946
 30
0.0
 10
4.20139
 20
7.80839
 30
0.0
 10
4.2283
 20
7.81786
 30
0.0
 10
4.26
 20
7.81786
 30
0.0
 10
4.26
 20
7.81786
 30
0.0
 10
4.29514
 20
7.81786
 30
0.0
 10
4.32395
 20
7.80633
 30
0.0
 10
4.34634
 20
7.78328
 30
0.0
 10
4.34634
 20
7.78328
 30
0.0
 10
4.36865
 20
7.76032
 30
0.0
 10
4.37984
 20
7.72846
 30
0.0
 10
4.37984
 20
7.68788
 30
0.0
 10
4.37984
 20
7.68788
 30
0.0
 10
4.37984
 20
7.65496
 30
0.0
 10
4.3749
 20
7.62911
 30
0.0
 10
4.36503
 20
7.61026
 30
0.0
 10
4.36503
 20
7.61026
 30
0.0
 10
4.35515
 20
7.59141
 30
0.0
 10
4.34074
 20
7.57676
 30
0.0
 10
4.32181
 20
7.56631
 30
0.0
 10
4.32181
 20
7.56631
 30
0.0
 10
4.30296
 20
7.55585
 30
0.0
 10
4.2823
 20
7.55067
 30
0.0
 10
4.26
 20
7.55067
 30
0.0
 10
4.26
 20
7.55067
 30
0.0
 10
4.22411
 20
7.55067
 30
0.0
 10
4.19513
 20
7.56211
 30
0.0
 10
4.17299
 20
7.58507
 30
0.0
 10
4.17299
 20
7.58507
 30
0.0
 10
4.15085
 20
7.60804
 30
0.0
 10
4.13982
 20
7.64113
 30
0.0
 10
4.13982
 20
7.68426
 30
0.0
  0
SPLINE
  5
77
330
1F
100
AcDbEntity
  8
Layer 1
 62
     1
100
AcDbSpline
210
0.0
220
0.0
230
1.0
 70
    11
 71
     3
 72
    36
 73
    32
 74
     0
 42
0.0000000001
 43
0.0000000001
 12
1.0
 22
0.0
 32
0.0
 13
1.0
 23
0.0
 33
0.0
 40
0.0
 40
0.0
 40
0.0
 40
0.0
 40
0.1111111111111111
 40
0.1111111111111111
 40
0.1111111111111111
 40
0.1111111111111111
 40
0.2222222222222222
 40
0.2222222222222222
 40
0.2222222222222222
 40
0.2222222222222222
 40
0.3333333333333333
 40
0.3333333333333333
 40
0.3333333333333333
 40
0.3333333333333333
 40
0.4444444444444444
 40
0.4444444444444444
 40
0.4444444444444444
 40
0.4444444444444444
 40
0.5555555555555556
 40
0.5555555555555556
 40
0.5555555555555556
 40
0.5555555555555556
 40
0.6666666666666666
 40
0.6666666666666666
 40
0.6666666666666666
 40
0.6666666666666666
 40
0.7777777777777778
 40
0.7777777777777778
 40
0.7777777777777778
 40
0.7777777777777778
 40
1.0
 40
1.0
 40
1.0
 40
1.0
 10
4.18427
 20
7.68418
 30
0.0
 10
4.18427
 20
7.65142
 30
0.0
 10
4.19143
 20
7.62689
 30
0.0
 10
4.20575
 20
7.61067
 30
0.0
 10
4.20575
 20
7.61067
 30
0.0
 10
4.22016
 20
7.59438
 30
0.0
 10
4.23818
 20
7.58623
 30
0.0
 10
4.26
 20
7.58623
 30
0.0
 10
4.26
 20
7.58623
 30
0.0
 10
4.28156
 20
7.58623
 30
0.0
 10
4.29951
 20
7.59438
 30
0.0
 10
4.31391
 20
7.61076
 30
0.0
 10
4.31391
 20
7.61076
 30
0.0
 10
4.32823
 20
7.62714
 30
0.0
 10
4.33539
 20
7.65208
 30
0.0
 10
4.33539
 20
7.68558
 30
0.0
 10
4.33539
 20
7.68558
 30
0.0
 10
4.33539
 20
7.71719
 30
0.0
 10
4.32815
 20
7.74114
 30
0.0
 10
4.31375
 20
7.75736
 30
0.0
 10
4.31375
 20
7.75736
 30
0.0
 10
4.29934
 20
7.77365
 30
0.0
 10
4.2814
 20
7.7818
 30
0.0
 10
4.26
 20
7.7818
 30
0.0
 10
4.26
 20
7.7818
 30
0.0
 10
4.23818
 20
7.7818
 30
0.0
 10
4.22016
 20
7.77374
 30
0.0
 10
4.20575
 20
7.75752
 30
0.0
 10
4.20575
 20
7.75752
 30
0.0
 10
4.19143
 20
7.74131
 30
0.0
 10
4.18427
 20
7.71686
 30
0.0
 10
4.18427
 20
7.68418
 30
0.0
  0
SPLINE
  5
78
330
1F
100
AcDbEntity
  8
Layer 1
 62
     1
100
AcDbSpline
210
0.0
220
0.0
230
1.0
 70
    11
 71
     3
 72
    56
 73
    52
 74
     0
 42
0.0000000001
 43
0.0000000001
 12
1.0
 22
0.0
 32
0.0
 13
1.0
 23
0.0
 33
0.0
 40
0.0
 40
0.0
 40
0.0
 40
0.0
 40
0.0714285714285714
 40
0.0714285714285714
 40
0.0714285714285714
 40
0.0714285714285714
 40
0.1428571428571428
 40
0.1428571428571428
 40
0.1428571428571428
 40
0.1428571428571428
 40
0.2142857142857143
 40
0.2142857142857143
 40
0.2142857142857143
 40
0.2142857142857143
 40
0.2857142857142857
 40
0.2857142857142857
 40
0.2857142857142857
 40
0.2857142857142857
 40
0.3571428571428572
 40
0.3571428571428572
 40
0.3571428571428572
 40
0.3571428571428572
 40
0.4285714285714285
 40
0.4285714285714285
 40
0.4285714285714285
 40
0.4285714285714285
 40
0.5
 40
0.5
 40
0.5
 40
0.5
 40
0.5714285714285714
 40
0.5714285714285714
 40
0.5714285714285714
 40
0.5714285714285714
 40
0.6428571428571429
 40
0.6428571428571429
 40
0.6428571428571429
 40
0.6428571428571429
 40
0.7142857142857143
 40
0.7142857142857143
 40
0.7142857142857143
 40
0.7142857142857143
 40
0.7857142857142857
 40
0.7857142857142857
 40
0.7857142857142857
 40
0.7857142857142857
 40
0.8571428571428571
 40
0.8571428571428571
 40
0.8571428571428571
 40
0.8571428571428571
 40
1.0
 40
1.0
 40
1.0
 40
1.0
 10
4.4303
 20
7.5561
 30
0.0
 10
4.4303
 20
7.5561
 30
0.0
 10
4.4303
 20
7.81242
 30
0.0
 10
4.4303
 20
7.81242
 30
0.0
 10
4.4303
 20
7.81242
 30
0.0
 10
4.4303
 20
7.81242
 30
0.0
 10
4.46932
 20
7.81242
 30
0.0
 10
4.46932
 20
7.81242
 30
0.0
 10
4.46932
 20
7.81242
 30
0.0
 10
4.46932
 20
7.81242
 30
0.0
 10
4.46932
 20
7.77316
 30
0.0
 10
4.46932
 20
7.77316
 30
0.0
 10
4.46932
 20
7.77316
 30
0.0
 10
4.47928
 20
7.79135
 30
0.0
 10
4.4885
 20
7.80337
 30
0.0
 10
4.49698
 20
7.80913
 30
0.0
 10
4.49698
 20
7.80913
 30
0.0
 10
4.50545
 20
7.81498
 30
0.0
 10
4.51476
 20
7.81786
 30
0.0
 10
4.52488
 20
7.81786
 30
0.0
 10
4.52488
 20
7.81786
 30
0.0
 10
4.53953
 20
7.81786
 30
0.0
 10
4.55443
 20
7.81325
 30
0.0
 10
4.56958
 20
7.80411
 30
0.0
 10
4.56958
 20
7.80411
 30
0.0
 10
4.56958
 20
7.80411
 30
0.0
 10
4.5541
 20
7.76402
 30
0.0
 10
4.5541
 20
7.76402
 30
0.0
 10
4.5541
 20
7.76402
 30
0.0
 10
4.54357
 20
7.76995
 30
0.0
 10
4.53303
 20
7.77291
 30
0.0
 10
4.52249
 20
7.77291
 30
0.0
 10
4.52249
 20
7.77291
 30
0.0
 10
4.51303
 20
7.77291
 30
0.0
 10
4.50455
 20
7.77003
 30
0.0
 10
4.49706
 20
7.76435
 30
0.0
 10
4.49706
 20
7.76435
 30
0.0
 10
4.48957
 20
7.75867
 30
0.0
 10
4.48422
 20
7.75077
 30
0.0
 10
4.48101
 20
7.74065
 30
0.0
 10
4.48101
 20
7.74065
 30
0.0
 10
4.47615
 20
7.72525
 30
0.0
 10
4.47376
 20
7.70838
 30
0.0
 10
4.47376
 20
7.69002
 30
0.0
 10
4.47376
 20
7.69002
 30
0.0
 10
4.47376
 20
7.69002
 30
0.0
 10
4.47376
 20
7.5561
 30
0.0
 10
4.47376
 20
7.5561
 30
0.0
 10
4.47376
 20
7.5561
 30
0.0
 10
4.47376
 20
7.5561
 30
0.0
 10
4.4303
 20
7.5561
 30
0.0
 10
4.4303
 20
7.5561
 30
0.0
  0
SPLINE
  5
79
330
1F
100
AcDbEntity
  8
Layer 1
 62
     1
370
    18
100
AcDbSpline
210
0.0
220
0.0
230
1.0
 70
    11
 71
     3
 72
    20
 73
    16
 74
     0
 42
0.0000000001
 43
0.0000000001
 12
1.0
 22
0.0
 32
0.0
 13
1.0
 23
0.0
 33
0.0
 40
0.0
 40
0.0
 40
0.0
 40
0.0
 40
0.2
 40
0.2
 40
0.2
 40
0.2
 40
0.4
 40
0.4
 40
0.4
 40
0.4
 40
0.6
 40
0.6
 40
0.6
 40
0.6
 40
1.0
 40
1.0
 40
1.0
 40
1.0
 10
1.92698
 20
7.08173
 30
0.0
 10
2.34074
 20
7.44249
 30
0.0
 10
2.74431
 20
7.48874
 30
0.0
 10
3.25041
 20
7.32128
 30
0.0
 10
3.25041
 20
7.32128
 30
0.0
 10
3.41173
 20
7.26791
 30
0.0
 10
3.75675
 20
7.06464
 30
0.0
 10
3.61315
 20
7.05504
 30
0.0
 10
3.61315
 20
7.05504
 30
0.0
 10
3.61315
 20
7.05504
 30
0.0
 10
3.05911
 20
7.01795
 30
0.0
 10
3.05911
 20
7.01795
 30
0.0
 10
3.05911
 20
7.01795
 30
0.0
 10
3.05911
 20
7.01795
 30
0.0
 10
2.26239
 20
7.30775
 30
0.0
 10
1.92698
 20
7.08173
 30
0.0
  0
ELLIPSE
  5
7A
330
1F
100
AcDbEntity
  8
Layer 1
370
    18
100
AcDbEllipse
 10
-4.55928
 20
-0.55705
 30
0.0
 11
0.0
 21
0.6
 31
0.0
210
0.0
220
0.0
230
1.0
 40
1.0
 41
0.0
 42
6.283185307179586
  0
ELLIPSE
  5
7B
330
1F
100
AcDbEntity
  8
Layer 1
370
    18
100
AcDbEllipse
 10
-1.3072
 20
-0.55705
 30
0.0
 11
0.0
 21
0.6
 31
0.0
210
0.0
220
0.0
230
1.0
 40
1.0
 41
0.0
 42
6.283185307179586
  0
SPLINE
  5
7C
330
1F
100
AcDbEntity
  8
Layer 1
 62
     1
100
AcDbSpline
210
0.0
220
0.0
230
1.0
 70
    11
 71
     3
 72
    28
 73
    24
 74
     0
 42
0.0000000001
 43
0.0000000001
 12
1.0
 22
0.0
 32
0.0
 13
1.0
 23
0.0
 33
0.0
 40
0.0
 40
0.0
 40
0.0
 40
0.0
 40
0.1428571428571428
 40
0.1428571428571428
 40
0.1428571428571428
 40
0.1428571428571428
 40
0.2857142857142857
 40
0.2857142857142857
 40
0.2857142857142857
 40
0.2857142857142857
 40
0.4285714285714285
 40
0.4285714285714285
 40
0.4285714285714285
 40
0.4285714285714285
 40
0.5714285714285714
 40
0.5714285714285714
 40
0.5714285714285714
 40
0.5714285714285714
 40
0.7142857142857143
 40
0.7142857142857143
 40
0.7142857142857143
 40
0.7142857142857143
 40
1.0
 40
1.0
 40
1.0
 40
1.0
 10
-5.33987
 20
0.77748
 30
0.0
 10
-5.33987
 20
0.77748
 30
0.0
 10
-5.33987
 20
1.08058
 30
0.0
 10
-5.33987
 20
1.08058
 30
0.0
 10
-5.33987
 20
1.08058
 30
0.0
 10
-5.33987
 20
1.08058
 30
0.0
 10
-5.29965
 20
1.08058
 30
0.0
 10
-5.29965
 20
1.08058
 30
0.0
 10
-5.29965
 20
1.08058
 30
0.0
 10
-5.29965
 20
1.08058
 30
0.0
 10
-5.29965
 20
0.81304
 30
0.0
 10
-5.29965
 20
0.81304
 30
0.0
 10
-5.29965
 20
0.81304
 30
0.0
 10
-5.29965
 20
0.81304
 30
0.0
 10
-5.15064
 20
0.81304
 30
0.0
 10
-5.15064
 20
0.81304
 30
0.0
 10
-5.15064
 20
0.81304
 30
0.0
 10
-5.15064
 20
0.81304
 30
0.0
 10
-5.15064
 20
0.77748
 30
0.0
 10
-5.15064
 20
0.77748
 30
0.0
 10
-5.15064
 20
0.77748
 30
0.0
 10
-5.15064
 20
0.77748
 30
0.0
 10
-5.33987
 20
0.77748
 30
0.0
 10
-5.33987
 20
0.77748
 30
0.0
  0
SPLINE
  5
7D
330
1F
100
AcDbEntity
  8
Layer 1
 62
     1
100
AcDbSpline
210
0.0
220
0.0
230
1.0
 70
    11
 71
     3
 72
   112
 73
   108
 74
     0
 42
0.0000000001
 43
0.0000000001
 12
1.0
 22
0.0
 32
0.0
 13
1.0
 23
0.0
 33
0.0
 40
0.0
 40
0.0
 40
0.0
 40
0.0
 40
0.0357142857142857
 40
0.0357142857142857
 40
0.0357142857142857
 40
0.0357142857142857
 40
0.0714285714285714
 40
0.0714285714285714
 40
0.0714285714285714
 40
0.0714285714285714
 40
0.1071428571428571
 40
0.1071428571428571
 40
0.1071428571428571
 40
0.1071428571428571
 40
0.1428571428571428
 40
0.1428571428571428
 40
0.1428571428571428
 40
0.1428571428571428
 40
0.1785714285714286
 40
0.1785714285714286
 40
0.1785714285714286
 40
0.1785714285714286
 40
0.2142857142857143
 40
0.2142857142857143
 40
0.2142857142857143
 40
0.2142857142857143
 40
0.25
 40
0.25
 40
0.25
 40
0.25
 40
0.2857142857142857
 40
0.2857142857142857
 40
0.2857142857142857
 40
0.2857142857142857
 40
0.3214285714285715
 40
0.3214285714285715
 40
0.3214285714285715
 40
0.3214285714285715
 40
0.3571428571428572
 40
0.3571428571428572
 40
0.3571428571428572
 40
0.3571428571428572
 40
0.3928571428571428
 40
0.3928571428571428
 40
0.3928571428571428
 40
0.3928571428571428
 40
0.4285714285714285
 40
0.4285714285714285
 40
0.4285714285714285
 40
0.4285714285714285
 40
0.4642857142857143
 40
0.4642857142857143
 40
0.4642857142857143
 40
0.4642857142857143
 40
0.5
 40
0.5
 40
0.5
 40
0.5
 40
0.5357142857142857
 40
0.5357142857142857
 40
0.5357142857142857
 40
0.5357142857142857
 40
0.5714285714285714
 40
0.5714285714285714
 40
0.5714285714285714
 40
0.5714285714285714
 40
0.6071428571428571
 40
0.6071428571428571
 40
0.6071428571428571
 40
0.6071428571428571
 40
0.6428571428571429
 40
0.6428571428571429
 40
0.6428571428571429
 40
0.6428571428571429
 40
0.6785714285714286
 40
0.6785714285714286
 40
0.6785714285714286
 40
0.6785714285714286
 40
0.7142857142857143
 40
0.7142857142857143
 40
0.7142857142857143
 40
0.7142857142857143
 40
0.75
 40
0.75
 40
0.75
 40
0.75
 40
0.7857142857142857
 40
0.7857142857142857
 40
0.7857142857142857
 40
0.7857142857142857
 40
0.8214285714285714
 40
0.8214285714285714
 40
0.8214285714285714
 40
0.8214285714285714
 40
0.8571428571428571
 40
0.8571428571428571
 40
0.8571428571428571
 40
0.8571428571428571
 40
0.8928571428571429
 40
0.8928571428571429
 40
0.8928571428571429
 40
0.8928571428571429
 40
0.9285714285714286
 40
0.9285714285714286
 40
0.9285714285714286
 40
0.9285714285714286
 40
1.0
 40
1.0
 40
1.0
 40
1.0
 10
-4.96388
 20
0.805
 30
0.0
 10
-4.97771
 20
0.79321
 30
0.0
 10
-4.99105
 20
0.78496
 30
0.0
 10
-5.00382
 20
0.78009
 30
0.0
 10
-5.00382
 20
0.78009
 30
0.0
 10
-5.01659
 20
0.77522
 30
0.0
 10
-5.03027
 20
0.77282
 30
0.0
 10
-5.04495
 20
0.77282
 30
0.0
 10
-5.04495
 20
0.77282
 30
0.0
 10
-5.06908
 20
0.77282
 30
0.0
 10
-5.08763
 20
0.77868
 30
0.0
 10
-5.10062
 20
0.79046
 30
0.0
 10
-5.10062
 20
0.79046
 30
0.0
 10
-5.1136
 20
0.80217
 30
0.0
 10
-5.12009
 20
0.8172
 30
0.0
 10
-5.12009
 20
0.83548
 30
0.0
 10
-5.12009
 20
0.83548
 30
0.0
 10
-5.12009
 20
0.8462
 30
0.0
 10
-5.11762
 20
0.85601
 30
0.0
 10
-5.11275
 20
0.8649
 30
0.0
 10
-5.11275
 20
0.8649
 30
0.0
 10
-5.10781
 20
0.87379
 30
0.0
 10
-5.10139
 20
0.88084
 30
0.0
 10
-5.09349
 20
0.88621
 30
0.0
 10
-5.09349
 20
0.88621
 30
0.0
 10
-5.08552
 20
0.89157
 30
0.0
 10
-5.07663
 20
0.89566
 30
0.0
 10
-5.06668
 20
0.89841
 30
0.0
 10
-5.06668
 20
0.89841
 30
0.0
 10
-5.05934
 20
0.90032
 30
0.0
 10
-5.04827
 20
0.90215
 30
0.0
 10
-5.03352
 20
0.90399
 30
0.0
 10
-5.03352
 20
0.90399
 30
0.0
 10
-5.00346
 20
0.90751
 30
0.0
 10
-4.98124
 20
0.91182
 30
0.0
 10
-4.96706
 20
0.91676
 30
0.0
 10
-4.96706
 20
0.91676
 30
0.0
 10
-4.96692
 20
0.92184
 30
0.0
 10
-4.96684
 20
0.92508
 30
0.0
 10
-4.96684
 20
0.92642
 30
0.0
 10
-4.96684
 20
0.92642
 30
0.0
 10
-4.96684
 20
0.94152
 30
0.0
 10
-4.97037
 20
0.95217
 30
0.0
 10
-4.97743
 20
0.95838
 30
0.0
 10
-4.97743
 20
0.95838
 30
0.0
 10
-4.98695
 20
0.96678
 30
0.0
 10
-5.00113
 20
0.97094
 30
0.0
 10
-5.0199
 20
0.97094
 30
0.0
 10
-5.0199
 20
0.97094
 30
0.0
 10
-5.03747
 20
0.97094
 30
0.0
 10
-5.05045
 20
0.96784
 30
0.0
 10
-5.05878
 20
0.9617
 30
0.0
 10
-5.05878
 20
0.9617
 30
0.0
 10
-5.06717
 20
0.95556
 30
0.0
 10
-5.07331
 20
0.9447
 30
0.0
 10
-5.07733
 20
0.92903
 30
0.0
 10
-5.07733
 20
0.92903
 30
0.0
 10
-5.07733
 20
0.92903
 30
0.0
 10
-5.11374
 20
0.93411
 30
0.0
 10
-5.11374
 20
0.93411
 30
0.0
 10
-5.11374
 20
0.93411
 30
0.0
 10
-5.11042
 20
0.9497
 30
0.0
 10
-5.10499
 20
0.96233
 30
0.0
 10
-5.09737
 20
0.97193
 30
0.0
 10
-5.09737
 20
0.97193
 30
0.0
 10
-5.08975
 20
0.98153
 30
0.0
 10
-5.07874
 20
0.98886
 30
0.0
 10
-5.06435
 20
0.99408
 30
0.0
 10
-5.06435
 20
0.99408
 30
0.0
 10
-5.05003
 20
0.99923
 30
0.0
 10
-5.03331
 20
1.00184
 30
0.0
 10
-5.0144
 20
1.00184
 30
0.0
 10
-5.0144
 20
1.00184
 30
0.0
 10
-4.99563
 20
1.00184
 30
0.0
 10
-4.98032
 20
0.99966
 30
0.0
 10
-4.96854
 20
0.99521
 30
0.0
 10
-4.96854
 20
0.99521
 30
0.0
 10
-4.95683
 20
0.99077
 30
0.0
 10
-4.94815
 20
0.98526
 30
0.0
 10
-4.94264
 20
0.97856
 30
0.0
 10
-4.94264
 20
0.97856
 30
0.0
 10
-4.93714
 20
0.97186
 30
0.0
 10
-4.93326
 20
0.96339
 30
0.0
 10
-4.931
 20
0.95316
 30
0.0
 10
-4.931
 20
0.95316
 30
0.0
 10
-4.9298
 20
0.94681
 30
0.0
 10
-4.92917
 20
0.93538
 30
0.0
 10
-4.92917
 20
0.91894
 30
0.0
 10
-4.92917
 20
0.91894
 30
0.0
 10
-4.92917
 20
0.91894
 30
0.0
 10
-4.92917
 20
0.86955
 30
0.0
 10
-4.92917
 20
0.86955
 30
0.0
 10
-4.92917
 20
0.86955
 30
0.0
 10
-4.92917
 20
0.83505
 30
0.0
 10
-4.92839
 20
0.81325
 30
0.0
 10
-4.92684
 20
0.80401
 30
0.0
 10
-4.92684
 20
0.80401
 30
0.0
 10
-4.92536
 20
0.79477
 30
0.0
 10
-4.92225
 20
0.78595
 30
0.0
 10
-4.91774
 20
0.77748
 30
0.0
 10
-4.91774
 20
0.77748
 30
0.0
 10
-4.91774
 20
0.77748
 30
0.0
 10
-4.95668
 20
0.77748
 30
0.0
 10
-4.95668
 20
0.77748
 30
0.0
 10
-4.95668
 20
0.77748
 30
0.0
 10
-4.96042
 20
0.78531
 30
0.0
 10
-4.96282
 20
0.79448
 30
0.0
 10
-4.96388
 20
0.805
 30
0.0
  0
SPLINE
  5
7E
330
1F
100
AcDbEntity
  8
Layer 1
 62
     1
100
AcDbSpline
210
0.0
220
0.0
230
1.0
 70
    11
 71
     3
 72
    44
 73
    40
 74
     0
 42
0.0000000001
 43
0.0000000001
 12
1.0
 22
0.0
 32
0.0
 13
1.0
 23
0.0
 33
0.0
 40
0.0
 40
0.0
 40
0.0
 40
0.0
 40
0.0909090909090909
 40
0.0909090909090909
 40
0.0909090909090909
 40
0.0909090909090909
 40
0.1818181818181818
 40
0.1818181818181818
 40
0.1818181818181818
 40
0.1818181818181818
 40
0.2727272727272727
 40
0.2727272727272727
 40
0.2727272727272727
 40
0.2727272727272727
 40
0.3636363636363636
 40
0.3636363636363636
 40
0.3636363636363636
 40
0.3636363636363636
 40
0.4545454545454545
 40
0.4545454545454545
 40
0.4545454545454545
 40
0.4545454545454545
 40
0.5454545454545454
 40
0.5454545454545454
 40
0.5454545454545454
 40
0.5454545454545454
 40
0.6363636363636364
 40
0.6363636363636364
 40
0.6363636363636364
 40
0.6363636363636364
 40
0.7272727272727273
 40
0.7272727272727273
 40
0.7272727272727273
 40
0.7272727272727273
 40
0.8181818181818182
 40
0.8181818181818182
 40
0.8181818181818182
 40
0.8181818181818182
 40
1.0
 40
1.0
 40
1.0
 40
1.0
 10
-4.96684
 20
0.88755
 30
0.0
 10
-4.98039
 20
0.88204
 30
0.0
 10
-5.00071
 20
0.87739
 30
0.0
 10
-5.0278
 20
0.87358
 30
0.0
 10
-5.0278
 20
0.87358
 30
0.0
 10
-5.04319
 20
0.87139
 30
0.0
 10
-5.05405
 20
0.86892
 30
0.0
 10
-5.0604
 20
0.86617
 30
0.0
 10
-5.0604
 20
0.86617
 30
0.0
 10
-5.06675
 20
0.86342
 30
0.0
 10
-5.07162
 20
0.85939
 30
0.0
 10
-5.07508
 20
0.85417
 30
0.0
 10
-5.07508
 20
0.85417
 30
0.0
 10
-5.07853
 20
0.84888
 30
0.0
 10
-5.0803
 20
0.84303
 30
0.0
 10
-5.0803
 20
0.83653
 30
0.0
 10
-5.0803
 20
0.83653
 30
0.0
 10
-5.0803
 20
0.82673
 30
0.0
 10
-5.07656
 20
0.81847
 30
0.0
 10
-5.06901
 20
0.81191
 30
0.0
 10
-5.06901
 20
0.81191
 30
0.0
 10
-5.06146
 20
0.80535
 30
0.0
 10
-5.05045
 20
0.80203
 30
0.0
 10
-5.03599
 20
0.80203
 30
0.0
 10
-5.03599
 20
0.80203
 30
0.0
 10
-5.02167
 20
0.80203
 30
0.0
 10
-5.0089
 20
0.80514
 30
0.0
 10
-4.99768
 20
0.81142
 30
0.0
 10
-4.99768
 20
0.81142
 30
0.0
 10
-4.98653
 20
0.81763
 30
0.0
 10
-4.97827
 20
0.82616
 30
0.0
 10
-4.97305
 20
0.83696
 30
0.0
 10
-4.97305
 20
0.83696
 30
0.0
 10
-4.96903
 20
0.84535
 30
0.0
 10
-4.96706
 20
0.8577
 30
0.0
 10
-4.96706
 20
0.874
 30
0.0
 10
-4.96706
 20
0.874
 30
0.0
 10
-4.96706
 20
0.874
 30
0.0
 10
-4.96684
 20
0.88755
 30
0.0
 10
-4.96684
 20
0.88755
 30
0.0
  0
SPLINE
  5
7F
330
1F
100
AcDbEntity
  8
Layer 1
 62
     1
100
AcDbSpline
210
0.0
220
0.0
230
1.0
 70
    11
 71
     3
 72
   136
 73
   132
 74
     0
 42
0.0000000001
 43
0.0000000001
 12
1.0
 22
0.0
 32
0.0
 13
1.0
 23
0.0
 33
0.0
 40
0.0
 40
0.0
 40
0.0
 40
0.0
 40
0.0294117647058824
 40
0.0294117647058824
 40
0.0294117647058824
 40
0.0294117647058824
 40
0.0588235294117647
 40
0.0588235294117647
 40
0.0588235294117647
 40
0.0588235294117647
 40
0.0882352941176471
 40
0.0882352941176471
 40
0.0882352941176471
 40
0.0882352941176471
 40
0.1176470588235294
 40
0.1176470588235294
 40
0.1176470588235294
 40
0.1176470588235294
 40
0.1470588235294118
 40
0.1470588235294118
 40
0.1470588235294118
 40
0.1470588235294118
 40
0.1764705882352941
 40
0.1764705882352941
 40
0.1764705882352941
 40
0.1764705882352941
 40
0.2058823529411765
 40
0.2058823529411765
 40
0.2058823529411765
 40
0.2058823529411765
 40
0.2352941176470588
 40
0.2352941176470588
 40
0.2352941176470588
 40
0.2352941176470588
 40
0.2647058823529412
 40
0.2647058823529412
 40
0.2647058823529412
 40
0.2647058823529412
 40
0.2941176470588235
 40
0.2941176470588235
 40
0.2941176470588235
 40
0.2941176470588235
 40
0.3235294117647059
 40
0.3235294117647059
 40
0.3235294117647059
 40
0.3235294117647059
 40
0.3529411764705883
 40
0.3529411764705883
 40
0.3529411764705883
 40
0.3529411764705883
 40
0.3823529411764706
 40
0.3823529411764706
 40
0.3823529411764706
 40
0.3823529411764706
 40
0.4117647058823529
 40
0.4117647058823529
 40
0.4117647058823529
 40
0.4117647058823529
 40
0.4411764705882353
 40
0.4411764705882353
 40
0.4411764705882353
 40
0.4411764705882353
 40
0.4705882352941176
 40
0.4705882352941176
 40
0.4705882352941176
 40
0.4705882352941176
 40
0.5
 40
0.5
 40
0.5
 40
0.5
 40
0.5294117647058824
 40
0.5294117647058824
 40
0.5294117647058824
 40
0.5294117647058824
 40
0.5588235294117647
 40
0.5588235294117647
 40
0.5588235294117647
 40
0.5588235294117647
 40
0.5882352941176471
 40
0.5882352941176471
 40
0.5882352941176471
 40
0.5882352941176471
 40
0.6176470588235294
 40
0.6176470588235294
 40
0.6176470588235294
 40
0.6176470588235294
 40
0.6470588235294118
 40
0.6470588235294118
 40
0.6470588235294118
 40
0.6470588235294118
 40
0.6764705882352942
 40
0.6764705882352942
 40
0.6764705882352942
 40
0.6764705882352942
 40
0.7058823529411765
 40
0.7058823529411765
 40
0.7058823529411765
 40
0.7058823529411765
 40
0.7352941176470589
 40
0.7352941176470589
 40
0.7352941176470589
 40
0.7352941176470589
 40
0.7647058823529411
 40
0.7647058823529411
 40
0.7647058823529411
 40
0.7647058823529411
 40
0.7941176470588235
 40
0.7941176470588235
 40
0.7941176470588235
 40
0.7941176470588235
 40
0.8235294117647058
 40
0.8235294117647058
 40
0.8235294117647058
 40
0.8235294117647058
 40
0.8529411764705882
 40
0.8529411764705882
 40
0.8529411764705882
 40
0.8529411764705882
 40
0.8823529411764706
 40
0.8823529411764706
 40
0.8823529411764706
 40
0.8823529411764706
 40
0.9117647058823529
 40
0.9117647058823529
 40
0.9117647058823529
 40
0.9117647058823529
 40
0.9411764705882353
 40
0.9411764705882353
 40
0.9411764705882353
 40
0.9411764705882353
 40
1.0
 40
1.0
 40
1.0
 40
1.0
 10
-4.88677
 20
0.8431
 30
0.0
 10
-4.88677
 20
0.8431
 30
0.0
 10
-4.84994
 20
0.84902
 30
0.0
 10
-4.84994
 20
0.84902
 30
0.0
 10
-4.84994
 20
0.84902
 30
0.0
 10
-4.84789
 20
0.83428
 30
0.0
 10
-4.84211
 20
0.82299
 30
0.0
 10
-4.83265
 20
0.81509
 30
0.0
 10
-4.83265
 20
0.81509
 30
0.0
 10
-4.8232
 20
0.80725
 30
0.0
 10
-4.80993
 20
0.8033
 30
0.0
 10
-4.793
 20
0.8033
 30
0.0
 10
-4.793
 20
0.8033
 30
0.0
 10
-4.77585
 20
0.8033
 30
0.0
 10
-4.76315
 20
0.80676
 30
0.0
 10
-4.75483
 20
0.81375
 30
0.0
 10
-4.75483
 20
0.81375
 30
0.0
 10
-4.74657
 20
0.82066
 30
0.0
 10
-4.74241
 20
0.82884
 30
0.0
 10
-4.74241
 20
0.83823
 30
0.0
 10
-4.74241
 20
0.83823
 30
0.0
 10
-4.74241
 20
0.84662
 30
0.0
 10
-4.74615
 20
0.85326
 30
0.0
 10
-4.75356
 20
0.85805
 30
0.0
 10
-4.75356
 20
0.85805
 30
0.0
 10
-4.75878
 20
0.86137
 30
0.0
 10
-4.77148
 20
0.86553
 30
0.0
 10
-4.79166
 20
0.87068
 30
0.0
 10
-4.79166
 20
0.87068
 30
0.0
 10
-4.81889
 20
0.87753
 30
0.0
 10
-4.83773
 20
0.88345
 30
0.0
 10
-4.84831
 20
0.88846
 30
0.0
 10
-4.84831
 20
0.88846
 30
0.0
 10
-4.85883
 20
0.89354
 30
0.0
 10
-4.8668
 20
0.90046
 30
0.0
 10
-4.87223
 20
0.90935
 30
0.0
 10
-4.87223
 20
0.90935
 30
0.0
 10
-4.87767
 20
0.91817
 30
0.0
 10
-4.88042
 20
0.92797
 30
0.0
 10
-4.88042
 20
0.9387
 30
0.0
 10
-4.88042
 20
0.9387
 30
0.0
 10
-4.88042
 20
0.94851
 30
0.0
 10
-4.87816
 20
0.95754
 30
0.0
 10
-4.87371
 20
0.96586
 30
0.0
 10
-4.87371
 20
0.96586
 30
0.0
 10
-4.8692
 20
0.97419
 30
0.0
 10
-4.86313
 20
0.9811
 30
0.0
 10
-4.85544
 20
0.98661
 30
0.0
 10
-4.85544
 20
0.98661
 30
0.0
 10
-4.84965
 20
0.99084
 30
0.0
 10
-4.84175
 20
0.99444
 30
0.0
 10
-4.8318
 20
0.9974
 30
0.0
 10
-4.8318
 20
0.9974
 30
0.0
 10
-4.82179
 20
1.00036
 30
0.0
 10
-4.81113
 20
1.00184
 30
0.0
 10
-4.7997
 20
1.00184
 30
0.0
 10
-4.7997
 20
1.00184
 30
0.0
 10
-4.78249
 20
1.00184
 30
0.0
 10
-4.76739
 20
0.99938
 30
0.0
 10
-4.75441
 20
0.99437
 30
0.0
 10
-4.75441
 20
0.99437
 30
0.0
 10
-4.74135
 20
0.98943
 30
0.0
 10
-4.73176
 20
0.98265
 30
0.0
 10
-4.72555
 20
0.97419
 30
0.0
 10
-4.72555
 20
0.97419
 30
0.0
 10
-4.71941
 20
0.96565
 30
0.0
 10
-4.71511
 20
0.95429
 30
0.0
 10
-4.71278
 20
0.94004
 30
0.0
 10
-4.71278
 20
0.94004
 30
0.0
 10
-4.71278
 20
0.94004
 30
0.0
 10
-4.74918
 20
0.93496
 30
0.0
 10
-4.74918
 20
0.93496
 30
0.0
 10
-4.74918
 20
0.93496
 30
0.0
 10
-4.75081
 20
0.94639
 30
0.0
 10
-4.75561
 20
0.95535
 30
0.0
 10
-4.76351
 20
0.96177
 30
0.0
 10
-4.76351
 20
0.96177
 30
0.0
 10
-4.77141
 20
0.96819
 30
0.0
 10
-4.78256
 20
0.97137
 30
0.0
 10
-4.79702
 20
0.97137
 30
0.0
 10
-4.79702
 20
0.97137
 30
0.0
 10
-4.81402
 20
0.97137
 30
0.0
 10
-4.82623
 20
0.96854
 30
0.0
 10
-4.8335
 20
0.9629
 30
0.0
 10
-4.8335
 20
0.9629
 30
0.0
 10
-4.84076
 20
0.95725
 30
0.0
 10
-4.84443
 20
0.95062
 30
0.0
 10
-4.84443
 20
0.94307
 30
0.0
 10
-4.84443
 20
0.94307
 30
0.0
 10
-4.84443
 20
0.93827
 30
0.0
 10
-4.84295
 20
0.9339
 30
0.0
 10
-4.83992
 20
0.93002
 30
0.0
 10
-4.83992
 20
0.93002
 30
0.0
 10
-4.83688
 20
0.92607
 30
0.0
 10
-4.83216
 20
0.92275
 30
0.0
 10
-4.82567
 20
0.92014
 30
0.0
 10
-4.82567
 20
0.92014
 30
0.0
 10
-4.82193
 20
0.91873
 30
0.0
 10
-4.81106
 20
0.91556
 30
0.0
 10
-4.79286
 20
0.91062
 30
0.0
 10
-4.79286
 20
0.91062
 30
0.0
 10
-4.76661
 20
0.90363
 30
0.0
 10
-4.74827
 20
0.89785
 30
0.0
 10
-4.73783
 20
0.8934
 30
0.0
 10
-4.73783
 20
0.8934
 30
0.0
 10
-4.72738
 20
0.88896
 30
0.0
 10
-4.7192
 20
0.8824
 30
0.0
 10
-4.71327
 20
0.87393
 30
0.0
 10
-4.71327
 20
0.87393
 30
0.0
 10
-4.70727
 20
0.86539
 30
0.0
 10
-4.70431
 20
0.85481
 30
0.0
 10
-4.70431
 20
0.84211
 30
0.0
 10
-4.70431
 20
0.84211
 30
0.0
 10
-4.70431
 20
0.82976
 30
0.0
 10
-4.70791
 20
0.81812
 30
0.0
 10
-4.71518
 20
0.80718
 30
0.0
 10
-4.71518
 20
0.80718
 30
0.0
 10
-4.72244
 20
0.79625
 30
0.0
 10
-4.73289
 20
0.78778
 30
0.0
 10
-4.7465
 20
0.78178
 30
0.0
 10
-4.7465
 20
0.78178
 30
0.0
 10
-4.76019
 20
0.77579
 30
0.0
 10
-4.77564
 20
0.77282
 30
0.0
 10
-4.79286
 20
0.77282
 30
0.0
 10
-4.79286
 20
0.77282
 30
0.0
 10
-4.82136
 20
0.77282
 30
0.0
 10
-4.84316
 20
0.77875
 30
0.0
 10
-4.85812
 20
0.79053
 30
0.0
 10
-4.85812
 20
0.79053
 30
0.0
 10
-4.87308
 20
0.80239
 30
0.0
 10
-4.8826
 20
0.81988
 30
0.0
 10
-4.88677
 20
0.8431
 30
0.0
  0
SPLINE
  5
80
330
1F
100
AcDbEntity
  8
Layer 1
 62
     1
100
AcDbSpline
210
0.0
220
0.0
230
1.0
 70
    11
 71
     3
 72
    64
 73
    60
 74
     0
 42
0.0000000001
 43
0.0000000001
 12
1.0
 22
0.0
 32
0.0
 13
1.0
 23
0.0
 33
0.0
 40
0.0
 40
0.0
 40
0.0
 40
0.0
 40
0.0625
 40
0.0625
 40
0.0625
 40
0.0625
 40
0.125
 40
0.125
 40
0.125
 40
0.125
 40
0.1875
 40
0.1875
 40
0.1875
 40
0.1875
 40
0.25
 40
0.25
 40
0.25
 40
0.25
 40
0.3125
 40
0.3125
 40
0.3125
 40
0.3125
 40
0.375
 40
0.375
 40
0.375
 40
0.375
 40
0.4375
 40
0.4375
 40
0.4375
 40
0.4375
 40
0.5
 40
0.5
 40
0.5
 40
0.5
 40
0.5625
 40
0.5625
 40
0.5625
 40
0.5625
 40
0.625
 40
0.625
 40
0.625
 40
0.625
 40
0.6875
 40
0.6875
 40
0.6875
 40
0.6875
 40
0.75
 40
0.75
 40
0.75
 40
0.75
 40
0.8125
 40
0.8125
 40
0.8125
 40
0.8125
 40
0.875
 40
0.875
 40
0.875
 40
0.875
 40
1.0
 40
1.0
 40
1.0
 40
1.0
 10
-4.51042
 20
0.8486
 30
0.0
 10
-4.51042
 20
0.8486
 30
0.0
 10
-4.4719
 20
0.84352
 30
0.0
 10
-4.4719
 20
0.84352
 30
0.0
 10
-4.4719
 20
0.84352
 30
0.0
 10
-4.4779
 20
0.82115
 30
0.0
 10
-4.48911
 20
0.80373
 30
0.0
 10
-4.50548
 20
0.79138
 30
0.0
 10
-4.50548
 20
0.79138
 30
0.0
 10
-4.52185
 20
0.77903
 30
0.0
 10
-4.54274
 20
0.77282
 30
0.0
 10
-4.56821
 20
0.77282
 30
0.0
 10
-4.56821
 20
0.77282
 30
0.0
 10
-4.60024
 20
0.77282
 30
0.0
 10
-4.62564
 20
0.7827
 30
0.0
 10
-4.64441
 20
0.80246
 30
0.0
 10
-4.64441
 20
0.80246
 30
0.0
 10
-4.66317
 20
0.82214
 30
0.0
 10
-4.67256
 20
0.84987
 30
0.0
 10
-4.67256
 20
0.8855
 30
0.0
 10
-4.67256
 20
0.8855
 30
0.0
 10
-4.67256
 20
0.92233
 30
0.0
 10
-4.6631
 20
0.95097
 30
0.0
 10
-4.64412
 20
0.97129
 30
0.0
 10
-4.64412
 20
0.97129
 30
0.0
 10
-4.62514
 20
0.99168
 30
0.0
 10
-4.60052
 20
1.00184
 30
0.0
 10
-4.57025
 20
1.00184
 30
0.0
 10
-4.57025
 20
1.00184
 30
0.0
 10
-4.54097
 20
1.00184
 30
0.0
 10
-4.51705
 20
0.9919
 30
0.0
 10
-4.4985
 20
0.97193
 30
0.0
 10
-4.4985
 20
0.97193
 30
0.0
 10
-4.47994
 20
0.95196
 30
0.0
 10
-4.47063
 20
0.92388
 30
0.0
 10
-4.47063
 20
0.88769
 30
0.0
 10
-4.47063
 20
0.88769
 30
0.0
 10
-4.47063
 20
0.8855
 30
0.0
 10
-4.4707
 20
0.88218
 30
0.0
 10
-4.47084
 20
0.87781
 30
0.0
 10
-4.47084
 20
0.87781
 30
0.0
 10
-4.47084
 20
0.87781
 30
0.0
 10
-4.63446
 20
0.87781
 30
0.0
 10
-4.63446
 20
0.87781
 30
0.0
 10
-4.63446
 20
0.87781
 30
0.0
 10
-4.63305
 20
0.85375
 30
0.0
 10
-4.62627
 20
0.83526
 30
0.0
 10
-4.614
 20
0.82249
 30
0.0
 10
-4.614
 20
0.82249
 30
0.0
 10
-4.60179
 20
0.80972
 30
0.0
 10
-4.58648
 20
0.8033
 30
0.0
 10
-4.56821
 20
0.8033
 30
0.0
 10
-4.56821
 20
0.8033
 30
0.0
 10
-4.55459
 20
0.8033
 30
0.0
 10
-4.54295
 20
0.8069
 30
0.0
 10
-4.53335
 20
0.8141
 30
0.0
 10
-4.53335
 20
0.8141
 30
0.0
 10
-4.52369
 20
0.82129
 30
0.0
 10
-4.51607
 20
0.8328
 30
0.0
 10
-4.51042
 20
0.8486
 30
0.0
  0
SPLINE
  5
81
330
1F
100
AcDbEntity
  8
Layer 1
 62
     1
100
AcDbSpline
210
0.0
220
0.0
230
1.0
 70
    11
 71
     3
 72
    24
 73
    20
 74
     0
 42
0.0000000001
 43
0.0000000001
 12
1.0
 22
0.0
 32
0.0
 13
1.0
 23
0.0
 33
0.0
 40
0.0
 40
0.0
 40
0.0
 40
0.0
 40
0.1666666666666667
 40
0.1666666666666667
 40
0.1666666666666667
 40
0.1666666666666667
 40
0.3333333333333333
 40
0.3333333333333333
 40
0.3333333333333333
 40
0.3333333333333333
 40
0.5
 40
0.5
 40
0.5
 40
0.5
 40
0.6666666666666666
 40
0.6666666666666666
 40
0.6666666666666666
 40
0.6666666666666666
 40
1.0
 40
1.0
 40
1.0
 40
1.0
 10
-4.63234
 20
0.90829
 30
0.0
 10
-4.63234
 20
0.90829
 30
0.0
 10
-4.51
 20
0.90829
 30
0.0
 10
-4.51
 20
0.90829
 30
0.0
 10
-4.51
 20
0.90829
 30
0.0
 10
-4.51162
 20
0.92677
 30
0.0
 10
-4.51635
 20
0.9406
 30
0.0
 10
-4.52404
 20
0.94985
 30
0.0
 10
-4.52404
 20
0.94985
 30
0.0
 10
-4.53582
 20
0.96417
 30
0.0
 10
-4.5512
 20
0.97137
 30
0.0
 10
-4.57004
 20
0.97137
 30
0.0
 10
-4.57004
 20
0.97137
 30
0.0
 10
-4.58711
 20
0.97137
 30
0.0
 10
-4.60144
 20
0.96565
 30
0.0
 10
-4.61308
 20
0.95422
 30
0.0
 10
-4.61308
 20
0.95422
 30
0.0
 10
-4.62465
 20
0.94279
 30
0.0
 10
-4.63107
 20
0.92748
 30
0.0
 10
-4.63234
 20
0.90829
 30
0.0
  0
SPLINE
  5
82
330
1F
100
AcDbEntity
  8
Layer 1
 62
     1
100
AcDbSpline
210
0.0
220
0.0
230
1.0
 70
    11
 71
     3
 72
    56
 73
    52
 74
     0
 42
0.0000000001
 43
0.0000000001
 12
1.0
 22
0.0
 32
0.0
 13
1.0
 23
0.0
 33
0.0
 40
0.0
 40
0.0
 40
0.0
 40
0.0
 40
0.0714285714285714
 40
0.0714285714285714
 40
0.0714285714285714
 40
0.0714285714285714
 40
0.1428571428571428
 40
0.1428571428571428
 40
0.1428571428571428
 40
0.1428571428571428
 40
0.2142857142857143
 40
0.2142857142857143
 40
0.2142857142857143
 40
0.2142857142857143
 40
0.2857142857142857
 40
0.2857142857142857
 40
0.2857142857142857
 40
0.2857142857142857
 40
0.3571428571428572
 40
0.3571428571428572
 40
0.3571428571428572
 40
0.3571428571428572
 40
0.4285714285714285
 40
0.4285714285714285
 40
0.4285714285714285
 40
0.4285714285714285
 40
0.5
 40
0.5
 40
0.5
 40
0.5
 40
0.5714285714285714
 40
0.5714285714285714
 40
0.5714285714285714
 40
0.5714285714285714
 40
0.6428571428571429
 40
0.6428571428571429
 40
0.6428571428571429
 40
0.6428571428571429
 40
0.7142857142857143
 40
0.7142857142857143
 40
0.7142857142857143
 40
0.7142857142857143
 40
0.7857142857142857
 40
0.7857142857142857
 40
0.7857142857142857
 40
0.7857142857142857
 40
0.8571428571428571
 40
0.8571428571428571
 40
0.8571428571428571
 40
0.8571428571428571
 40
1.0
 40
1.0
 40
1.0
 40
1.0
 10
-4.42526
 20
0.77748
 30
0.0
 10
-4.42526
 20
0.77748
 30
0.0
 10
-4.42526
 20
0.99719
 30
0.0
 10
-4.42526
 20
0.99719
 30
0.0
 10
-4.42526
 20
0.99719
 30
0.0
 10
-4.42526
 20
0.99719
 30
0.0
 10
-4.39182
 20
0.99719
 30
0.0
 10
-4.39182
 20
0.99719
 30
0.0
 10
-4.39182
 20
0.99719
 30
0.0
 10
-4.39182
 20
0.99719
 30
0.0
 10
-4.39182
 20
0.96353
 30
0.0
 10
-4.39182
 20
0.96353
 30
0.0
 10
-4.39182
 20
0.96353
 30
0.0
 10
-4.38328
 20
0.97913
 30
0.0
 10
-4.37538
 20
0.98943
 30
0.0
 10
-4.36811
 20
0.99437
 30
0.0
 10
-4.36811
 20
0.99437
 30
0.0
 10
-4.36085
 20
0.99938
 30
0.0
 10
-4.35287
 20
1.00184
 30
0.0
 10
-4.3442
 20
1.00184
 30
0.0
 10
-4.3442
 20
1.00184
 30
0.0
 10
-4.33164
 20
1.00184
 30
0.0
 10
-4.31887
 20
0.99789
 30
0.0
 10
-4.30588
 20
0.99006
 30
0.0
 10
-4.30588
 20
0.99006
 30
0.0
 10
-4.30588
 20
0.99006
 30
0.0
 10
-4.31915
 20
0.9557
 30
0.0
 10
-4.31915
 20
0.9557
 30
0.0
 10
-4.31915
 20
0.9557
 30
0.0
 10
-4.32818
 20
0.96078
 30
0.0
 10
-4.33721
 20
0.96332
 30
0.0
 10
-4.34624
 20
0.96332
 30
0.0
 10
-4.34624
 20
0.96332
 30
0.0
 10
-4.35436
 20
0.96332
 30
0.0
 10
-4.36162
 20
0.96085
 30
0.0
 10
-4.36804
 20
0.95598
 30
0.0
 10
-4.36804
 20
0.95598
 30
0.0
 10
-4.37446
 20
0.95112
 30
0.0
 10
-4.37905
 20
0.94434
 30
0.0
 10
-4.3818
 20
0.93566
 30
0.0
 10
-4.3818
 20
0.93566
 30
0.0
 10
-4.38596
 20
0.92247
 30
0.0
 10
-4.38801
 20
0.90801
 30
0.0
 10
-4.38801
 20
0.89227
 30
0.0
 10
-4.38801
 20
0.89227
 30
0.0
 10
-4.38801
 20
0.89227
 30
0.0
 10
-4.38801
 20
0.77748
 30
0.0
 10
-4.38801
 20
0.77748
 30
0.0
 10
-4.38801
 20
0.77748
 30
0.0
 10
-4.38801
 20
0.77748
 30
0.0
 10
-4.42526
 20
0.77748
 30
0.0
 10
-4.42526
 20
0.77748
 30
0.0
  0
SPLINE
  5
83
330
1F
100
AcDbEntity
  8
Layer 1
 62
     1
100
AcDbSpline
210
0.0
220
0.0
230
1.0
 70
    11
 71
     3
 72
    84
 73
    80
 74
     0
 42
0.0000000001
 43
0.0000000001
 12
1.0
 22
0.0
 32
0.0
 13
1.0
 23
0.0
 33
0.0
 40
0.0
 40
0.0
 40
0.0
 40
0.0
 40
0.0476190476190476
 40
0.0476190476190476
 40
0.0476190476190476
 40
0.0476190476190476
 40
0.0952380952380952
 40
0.0952380952380952
 40
0.0952380952380952
 40
0.0952380952380952
 40
0.1428571428571428
 40
0.1428571428571428
 40
0.1428571428571428
 40
0.1428571428571428
 40
0.1904761904761905
 40
0.1904761904761905
 40
0.1904761904761905
 40
0.1904761904761905
 40
0.2380952380952381
 40
0.2380952380952381
 40
0.2380952380952381
 40
0.2380952380952381
 40
0.2857142857142857
 40
0.2857142857142857
 40
0.2857142857142857
 40
0.2857142857142857
 40
0.3333333333333333
 40
0.3333333333333333
 40
0.3333333333333333
 40
0.3333333333333333
 40
0.3809523809523809
 40
0.3809523809523809
 40
0.3809523809523809
 40
0.3809523809523809
 40
0.4285714285714285
 40
0.4285714285714285
 40
0.4285714285714285
 40
0.4285714285714285
 40
0.4761904761904762
 40
0.4761904761904762
 40
0.4761904761904762
 40
0.4761904761904762
 40
0.5238095238095238
 40
0.5238095238095238
 40
0.5238095238095238
 40
0.5238095238095238
 40
0.5714285714285714
 40
0.5714285714285714
 40
0.5714285714285714
 40
0.5714285714285714
 40
0.6190476190476191
 40
0.6190476190476191
 40
0.6190476190476191
 40
0.6190476190476191
 40
0.6666666666666666
 40
0.6666666666666666
 40
0.6666666666666666
 40
0.6666666666666666
 40
0.7142857142857143
 40
0.7142857142857143
 40
0.7142857142857143
 40
0.7142857142857143
 40
0.7619047619047619
 40
0.7619047619047619
 40
0.7619047619047619
 40
0.7619047619047619
 40
0.8095238095238095
 40
0.8095238095238095
 40
0.8095238095238095
 40
0.8095238095238095
 40
0.8571428571428571
 40
0.8571428571428571
 40
0.8571428571428571
 40
0.8571428571428571
 40
0.9047619047619048
 40
0.9047619047619048
 40
0.9047619047619048
 40
0.9047619047619048
 40
1.0
 40
1.0
 40
1.0
 40
1.0
 10
-4.08539
 20
0.81071
 30
0.0
 10
-4.08539
 20
0.81071
 30
0.0
 10
-4.08031
 20
0.77783
 30
0.0
 10
-4.08031
 20
0.77783
 30
0.0
 10
-4.08031
 20
0.77783
 30
0.0
 10
-4.09076
 20
0.77565
 30
0.0
 10
-4.10014
 20
0.77452
 30
0.0
 10
-4.10832
 20
0.77452
 30
0.0
 10
-4.10832
 20
0.77452
 30
0.0
 10
-4.1218
 20
0.77452
 30
0.0
 10
-4.13224
 20
0.77663
 30
0.0
 10
-4.13972
 20
0.78094
 30
0.0
 10
-4.13972
 20
0.78094
 30
0.0
 10
-4.14713
 20
0.78524
 30
0.0
 10
-4.15235
 20
0.79081
 30
0.0
 10
-4.15538
 20
0.7978
 30
0.0
 10
-4.15538
 20
0.7978
 30
0.0
 10
-4.15842
 20
0.80478
 30
0.0
 10
-4.1599
 20
0.81946
 30
0.0
 10
-4.1599
 20
0.84183
 30
0.0
 10
-4.1599
 20
0.84183
 30
0.0
 10
-4.1599
 20
0.84183
 30
0.0
 10
-4.1599
 20
0.9684
 30
0.0
 10
-4.1599
 20
0.9684
 30
0.0
 10
-4.1599
 20
0.9684
 30
0.0
 10
-4.1599
 20
0.9684
 30
0.0
 10
-4.18742
 20
0.9684
 30
0.0
 10
-4.18742
 20
0.9684
 30
0.0
 10
-4.18742
 20
0.9684
 30
0.0
 10
-4.18742
 20
0.9684
 30
0.0
 10
-4.18742
 20
0.99719
 30
0.0
 10
-4.18742
 20
0.99719
 30
0.0
 10
-4.18742
 20
0.99719
 30
0.0
 10
-4.18742
 20
0.99719
 30
0.0
 10
-4.1599
 20
0.99719
 30
0.0
 10
-4.1599
 20
0.99719
 30
0.0
 10
-4.1599
 20
0.99719
 30
0.0
 10
-4.1599
 20
0.99719
 30
0.0
 10
-4.1599
 20
1.05152
 30
0.0
 10
-4.1599
 20
1.05152
 30
0.0
 10
-4.1599
 20
1.05152
 30
0.0
 10
-4.1599
 20
1.05152
 30
0.0
 10
-4.12265
 20
1.07388
 30
0.0
 10
-4.12265
 20
1.07388
 30
0.0
 10
-4.12265
 20
1.07388
 30
0.0
 10
-4.12265
 20
1.07388
 30
0.0
 10
-4.12265
 20
0.99719
 30
0.0
 10
-4.12265
 20
0.99719
 30
0.0
 10
-4.12265
 20
0.99719
 30
0.0
 10
-4.12265
 20
0.99719
 30
0.0
 10
-4.08539
 20
0.99719
 30
0.0
 10
-4.08539
 20
0.99719
 30
0.0
 10
-4.08539
 20
0.99719
 30
0.0
 10
-4.08539
 20
0.99719
 30
0.0
 10
-4.08539
 20
0.9684
 30
0.0
 10
-4.08539
 20
0.9684
 30
0.0
 10
-4.08539
 20
0.9684
 30
0.0
 10
-4.08539
 20
0.9684
 30
0.0
 10
-4.12265
 20
0.9684
 30
0.0
 10
-4.12265
 20
0.9684
 30
0.0
 10
-4.12265
 20
0.9684
 30
0.0
 10
-4.12265
 20
0.9684
 30
0.0
 10
-4.12265
 20
0.83971
 30
0.0
 10
-4.12265
 20
0.83971
 30
0.0
 10
-4.12265
 20
0.83971
 30
0.0
 10
-4.12265
 20
0.82906
 30
0.0
 10
-4.12201
 20
0.82221
 30
0.0
 10
-4.12067
 20
0.81918
 30
0.0
 10
-4.12067
 20
0.81918
 30
0.0
 10
-4.1194
 20
0.81614
 30
0.0
 10
-4.11729
 20
0.81375
 30
0.0
 10
-4.11432
 20
0.81191
 30
0.0
 10
-4.11432
 20
0.81191
 30
0.0
 10
-4.11136
 20
0.81015
 30
0.0
 10
-4.10713
 20
0.80923
 30
0.0
 10
-4.10162
 20
0.80923
 30
0.0
 10
-4.10162
 20
0.80923
 30
0.0
 10
-4.09753
 20
0.80923
 30
0.0
 10
-4.0921
 20
0.80972
 30
0.0
 10
-4.08539
 20
0.81071
 30
0.0
  0
SPLINE
  5
84
330
1F
100
AcDbEntity
  8
Layer 1
 62
     1
100
AcDbSpline
210
0.0
220
0.0
230
1.0
 70
    11
 71
     3
 72
    64
 73
    60
 74
     0
 42
0.0000000001
 43
0.0000000001
 12
1.0
 22
0.0
 32
0.0
 13
1.0
 23
0.0
 33
0.0
 40
0.0
 40
0.0
 40
0.0
 40
0.0
 40
0.0625
 40
0.0625
 40
0.0625
 40
0.0625
 40
0.125
 40
0.125
 40
0.125
 40
0.125
 40
0.1875
 40
0.1875
 40
0.1875
 40
0.1875
 40
0.25
 40
0.25
 40
0.25
 40
0.25
 40
0.3125
 40
0.3125
 40
0.3125
 40
0.3125
 40
0.375
 40
0.375
 40
0.375
 40
0.375
 40
0.4375
 40
0.4375
 40
0.4375
 40
0.4375
 40
0.5
 40
0.5
 40
0.5
 40
0.5
 40
0.5625
 40
0.5625
 40
0.5625
 40
0.5625
 40
0.625
 40
0.625
 40
0.625
 40
0.625
 40
0.6875
 40
0.6875
 40
0.6875
 40
0.6875
 40
0.75
 40
0.75
 40
0.75
 40
0.75
 40
0.8125
 40
0.8125
 40
0.8125
 40
0.8125
 40
0.875
 40
0.875
 40
0.875
 40
0.875
 40
1.0
 40
1.0
 40
1.0
 40
1.0
 10
-3.89877
 20
0.8486
 30
0.0
 10
-3.89877
 20
0.8486
 30
0.0
 10
-3.86025
 20
0.84352
 30
0.0
 10
-3.86025
 20
0.84352
 30
0.0
 10
-3.86025
 20
0.84352
 30
0.0
 10
-3.86625
 20
0.82115
 30
0.0
 10
-3.87746
 20
0.80373
 30
0.0
 10
-3.89383
 20
0.79138
 30
0.0
 10
-3.89383
 20
0.79138
 30
0.0
 10
-3.9102
 20
0.77903
 30
0.0
 10
-3.93109
 20
0.77282
 30
0.0
 10
-3.95656
 20
0.77282
 30
0.0
 10
-3.95656
 20
0.77282
 30
0.0
 10
-3.98859
 20
0.77282
 30
0.0
 10
-4.01399
 20
0.7827
 30
0.0
 10
-4.03276
 20
0.80246
 30
0.0
 10
-4.03276
 20
0.80246
 30
0.0
 10
-4.05152
 20
0.82214
 30
0.0
 10
-4.06091
 20
0.84987
 30
0.0
 10
-4.06091
 20
0.8855
 30
0.0
 10
-4.06091
 20
0.8855
 30
0.0
 10
-4.06091
 20
0.92233
 30
0.0
 10
-4.05145
 20
0.95097
 30
0.0
 10
-4.03247
 20
0.97129
 30
0.0
 10
-4.03247
 20
0.97129
 30
0.0
 10
-4.01349
 20
0.99168
 30
0.0
 10
-3.98887
 20
1.00184
 30
0.0
 10
-3.9586
 20
1.00184
 30
0.0
 10
-3.9586
 20
1.00184
 30
0.0
 10
-3.92932
 20
1.00184
 30
0.0
 10
-3.9054
 20
0.9919
 30
0.0
 10
-3.88685
 20
0.97193
 30
0.0
 10
-3.88685
 20
0.97193
 30
0.0
 10
-3.86829
 20
0.95196
 30
0.0
 10
-3.85898
 20
0.92388
 30
0.0
 10
-3.85898
 20
0.88769
 30
0.0
 10
-3.85898
 20
0.88769
 30
0.0
 10
-3.85898
 20
0.8855
 30
0.0
 10
-3.85905
 20
0.88218
 30
0.0
 10
-3.85919
 20
0.87781
 30
0.0
 10
-3.85919
 20
0.87781
 30
0.0
 10
-3.85919
 20
0.87781
 30
0.0
 10
-4.02281
 20
0.87781
 30
0.0
 10
-4.02281
 20
0.87781
 30
0.0
 10
-4.02281
 20
0.87781
 30
0.0
 10
-4.0214
 20
0.85375
 30
0.0
 10
-4.01462
 20
0.83526
 30
0.0
 10
-4.00235
 20
0.82249
 30
0.0
 10
-4.00235
 20
0.82249
 30
0.0
 10
-3.99014
 20
0.80972
 30
0.0
 10
-3.97483
 20
0.8033
 30
0.0
 10
-3.95656
 20
0.8033
 30
0.0
 10
-3.95656
 20
0.8033
 30
0.0
 10
-3.94294
 20
0.8033
 30
0.0
 10
-3.9313
 20
0.8069
 30
0.0
 10
-3.9217
 20
0.8141
 30
0.0
 10
-3.9217
 20
0.8141
 30
0.0
 10
-3.91204
 20
0.82129
 30
0.0
 10
-3.90442
 20
0.8328
 30
0.0
 10
-3.89877
 20
0.8486
 30
0.0
  0
SPLINE
  5
85
330
1F
100
AcDbEntity
  8
Layer 1
 62
     1
100
AcDbSpline
210
0.0
220
0.0
230
1.0
 70
    11
 71
     3
 72
    24
 73
    20
 74
     0
 42
0.0000000001
 43
0.0000000001
 12
1.0
 22
0.0
 32
0.0
 13
1.0
 23
0.0
 33
0.0
 40
0.0
 40
0.0
 40
0.0
 40
0.0
 40
0.1666666666666667
 40
0.1666666666666667
 40
0.1666666666666667
 40
0.1666666666666667
 40
0.3333333333333333
 40
0.3333333333333333
 40
0.3333333333333333
 40
0.3333333333333333
 40
0.5
 40
0.5
 40
0.5
 40
0.5
 40
0.6666666666666666
 40
0.6666666666666666
 40
0.6666666666666666
 40
0.6666666666666666
 40
1.0
 40
1.0
 40
1.0
 40
1.0
 10
-4.02069
 20
0.90829
 30
0.0
 10
-4.02069
 20
0.90829
 30
0.0
 10
-3.89835
 20
0.90829
 30
0.0
 10
-3.89835
 20
0.90829
 30
0.0
 10
-3.89835
 20
0.90829
 30
0.0
 10
-3.89997
 20
0.92677
 30
0.0
 10
-3.9047
 20
0.9406
 30
0.0
 10
-3.91239
 20
0.94985
 30
0.0
 10
-3.91239
 20
0.94985
 30
0.0
 10
-3.92417
 20
0.96417
 30
0.0
 10
-3.93955
 20
0.97137
 30
0.0
 10
-3.95839
 20
0.97137
 30
0.0
 10
-3.95839
 20
0.97137
 30
0.0
 10
-3.97546
 20
0.97137
 30
0.0
 10
-3.98979
 20
0.96565
 30
0.0
 10
-4.00143
 20
0.95422
 30
0.0
 10
-4.00143
 20
0.95422
 30
0.0
 10
-4.013
 20
0.94279
 30
0.0
 10
-4.01942
 20
0.92748
 30
0.0
 10
-4.02069
 20
0.90829
 30
0.0
  0
SPLINE
  5
86
330
1F
100
AcDbEntity
  8
Layer 1
 62
     1
100
AcDbSpline
210
0.0
220
0.0
230
1.0
 70
    11
 71
     3
 72
   136
 73
   132
 74
     0
 42
0.0000000001
 43
0.0000000001
 12
1.0
 22
0.0
 32
0.0
 13
1.0
 23
0.0
 33
0.0
 40
0.0
 40
0.0
 40
0.0
 40
0.0
 40
0.0294117647058824
 40
0.0294117647058824
 40
0.0294117647058824
 40
0.0294117647058824
 40
0.0588235294117647
 40
0.0588235294117647
 40
0.0588235294117647
 40
0.0588235294117647
 40
0.0882352941176471
 40
0.0882352941176471
 40
0.0882352941176471
 40
0.0882352941176471
 40
0.1176470588235294
 40
0.1176470588235294
 40
0.1176470588235294
 40
0.1176470588235294
 40
0.1470588235294118
 40
0.1470588235294118
 40
0.1470588235294118
 40
0.1470588235294118
 40
0.1764705882352941
 40
0.1764705882352941
 40
0.1764705882352941
 40
0.1764705882352941
 40
0.2058823529411765
 40
0.2058823529411765
 40
0.2058823529411765
 40
0.2058823529411765
 40
0.2352941176470588
 40
0.2352941176470588
 40
0.2352941176470588
 40
0.2352941176470588
 40
0.2647058823529412
 40
0.2647058823529412
 40
0.2647058823529412
 40
0.2647058823529412
 40
0.2941176470588235
 40
0.2941176470588235
 40
0.2941176470588235
 40
0.2941176470588235
 40
0.3235294117647059
 40
0.3235294117647059
 40
0.3235294117647059
 40
0.3235294117647059
 40
0.3529411764705883
 40
0.3529411764705883
 40
0.3529411764705883
 40
0.3529411764705883
 40
0.3823529411764706
 40
0.3823529411764706
 40
0.3823529411764706
 40
0.3823529411764706
 40
0.4117647058823529
 40
0.4117647058823529
 40
0.4117647058823529
 40
0.4117647058823529
 40
0.4411764705882353
 40
0.4411764705882353
 40
0.4411764705882353
 40
0.4411764705882353
 40
0.4705882352941176
 40
0.4705882352941176
 40
0.4705882352941176
 40
0.4705882352941176
 40
0.5
 40
0.5
 40
0.5
 40
0.5
 40
0.5294117647058824
 40
0.5294117647058824
 40
0.5294117647058824
 40
0.5294117647058824
 40
0.5588235294117647
 40
0.5588235294117647
 40
0.5588235294117647
 40
0.5588235294117647
 40
0.5882352941176471
 40
0.5882352941176471
 40
0.5882352941176471
 40
0.5882352941176471
 40
0.6176470588235294
 40
0.6176470588235294
 40
0.6176470588235294
 40
0.6176470588235294
 40
0.6470588235294118
 40
0.6470588235294118
 40
0.6470588235294118
 40
0.6470588235294118
 40
0.6764705882352942
 40
0.6764705882352942
 40
0.6764705882352942
 40
0.6764705882352942
 40
0.7058823529411765
 40
0.7058823529411765
 40
0.7058823529411765
 40
0.7058823529411765
 40
0.7352941176470589
 40
0.7352941176470589
 40
0.7352941176470589
 40
0.7352941176470589
 40
0.7647058823529411
 40
0.7647058823529411
 40
0.7647058823529411
 40
0.7647058823529411
 40
0.7941176470588235
 40
0.7941176470588235
 40
0.7941176470588235
 40
0.7941176470588235
 40
0.8235294117647058
 40
0.8235294117647058
 40
0.8235294117647058
 40
0.8235294117647058
 40
0.8529411764705882
 40
0.8529411764705882
 40
0.8529411764705882
 40
0.8529411764705882
 40
0.8823529411764706
 40
0.8823529411764706
 40
0.8823529411764706
 40
0.8823529411764706
 40
0.9117647058823529
 40
0.9117647058823529
 40
0.9117647058823529
 40
0.9117647058823529
 40
0.9411764705882353
 40
0.9411764705882353
 40
0.9411764705882353
 40
0.9411764705882353
 40
1.0
 40
1.0
 40
1.0
 40
1.0
 10
-3.82801
 20
0.8431
 30
0.0
 10
-3.82801
 20
0.8431
 30
0.0
 10
-3.79118
 20
0.84902
 30
0.0
 10
-3.79118
 20
0.84902
 30
0.0
 10
-3.79118
 20
0.84902
 30
0.0
 10
-3.78913
 20
0.83428
 30
0.0
 10
-3.78335
 20
0.82299
 30
0.0
 10
-3.77389
 20
0.81509
 30
0.0
 10
-3.77389
 20
0.81509
 30
0.0
 10
-3.76444
 20
0.80725
 30
0.0
 10
-3.75117
 20
0.8033
 30
0.0
 10
-3.73424
 20
0.8033
 30
0.0
 10
-3.73424
 20
0.8033
 30
0.0
 10
-3.71709
 20
0.8033
 30
0.0
 10
-3.70439
 20
0.80676
 30
0.0
 10
-3.69607
 20
0.81375
 30
0.0
 10
-3.69607
 20
0.81375
 30
0.0
 10
-3.68781
 20
0.82066
 30
0.0
 10
-3.68365
 20
0.82884
 30
0.0
 10
-3.68365
 20
0.83823
 30
0.0
 10
-3.68365
 20
0.83823
 30
0.0
 10
-3.68365
 20
0.84662
 30
0.0
 10
-3.68739
 20
0.85326
 30
0.0
 10
-3.6948
 20
0.85805
 30
0.0
 10
-3.6948
 20
0.85805
 30
0.0
 10
-3.70002
 20
0.86137
 30
0.0
 10
-3.71272
 20
0.86553
 30
0.0
 10
-3.7329
 20
0.87068
 30
0.0
 10
-3.7329
 20
0.87068
 30
0.0
 10
-3.76013
 20
0.87753
 30
0.0
 10
-3.77897
 20
0.88345
 30
0.0
 10
-3.78955
 20
0.88846
 30
0.0
 10
-3.78955
 20
0.88846
 30
0.0
 10
-3.80007
 20
0.89354
 30
0.0
 10
-3.80804
 20
0.90046
 30
0.0
 10
-3.81347
 20
0.90935
 30
0.0
 10
-3.81347
 20
0.90935
 30
0.0
 10
-3.81891
 20
0.91817
 30
0.0
 10
-3.82166
 20
0.92797
 30
0.0
 10
-3.82166
 20
0.9387
 30
0.0
 10
-3.82166
 20
0.9387
 30
0.0
 10
-3.82166
 20
0.94851
 30
0.0
 10
-3.8194
 20
0.95754
 30
0.0
 10
-3.81495
 20
0.96586
 30
0.0
 10
-3.81495
 20
0.96586
 30
0.0
 10
-3.81044
 20
0.97419
 30
0.0
 10
-3.80437
 20
0.9811
 30
0.0
 10
-3.79668
 20
0.98661
 30
0.0
 10
-3.79668
 20
0.98661
 30
0.0
 10
-3.79089
 20
0.99084
 30
0.0
 10
-3.78299
 20
0.99444
 30
0.0
 10
-3.77304
 20
0.9974
 30
0.0
 10
-3.77304
 20
0.9974
 30
0.0
 10
-3.76303
 20
1.00036
 30
0.0
 10
-3.75237
 20
1.00184
 30
0.0
 10
-3.74094
 20
1.00184
 30
0.0
 10
-3.74094
 20
1.00184
 30
0.0
 10
-3.72373
 20
1.00184
 30
0.0
 10
-3.70863
 20
0.99938
 30
0.0
 10
-3.69565
 20
0.99437
 30
0.0
 10
-3.69565
 20
0.99437
 30
0.0
 10
-3.68259
 20
0.98943
 30
0.0
 10
-3.673
 20
0.98265
 30
0.0
 10
-3.66679
 20
0.97419
 30
0.0
 10
-3.66679
 20
0.97419
 30
0.0
 10
-3.66065
 20
0.96565
 30
0.0
 10
-3.65635
 20
0.95429
 30
0.0
 10
-3.65402
 20
0.94004
 30
0.0
 10
-3.65402
 20
0.94004
 30
0.0
 10
-3.65402
 20
0.94004
 30
0.0
 10
-3.69042
 20
0.93496
 30
0.0
 10
-3.69042
 20
0.93496
 30
0.0
 10
-3.69042
 20
0.93496
 30
0.0
 10
-3.69205
 20
0.94639
 30
0.0
 10
-3.69685
 20
0.95535
 30
0.0
 10
-3.70475
 20
0.96177
 30
0.0
 10
-3.70475
 20
0.96177
 30
0.0
 10
-3.71265
 20
0.96819
 30
0.0
 10
-3.7238
 20
0.97137
 30
0.0
 10
-3.73826
 20
0.97137
 30
0.0
 10
-3.73826
 20
0.97137
 30
0.0
 10
-3.75526
 20
0.97137
 30
0.0
 10
-3.76747
 20
0.96854
 30
0.0
 10
-3.77474
 20
0.9629
 30
0.0
 10
-3.77474
 20
0.9629
 30
0.0
 10
-3.782
 20
0.95725
 30
0.0
 10
-3.78567
 20
0.95062
 30
0.0
 10
-3.78567
 20
0.94307
 30
0.0
 10
-3.78567
 20
0.94307
 30
0.0
 10
-3.78567
 20
0.93827
 30
0.0
 10
-3.78419
 20
0.9339
 30
0.0
 10
-3.78116
 20
0.93002
 30
0.0
 10
-3.78116
 20
0.93002
 30
0.0
 10
-3.77812
 20
0.92607
 30
0.0
 10
-3.7734
 20
0.92275
 30
0.0
 10
-3.76691
 20
0.92014
 30
0.0
 10
-3.76691
 20
0.92014
 30
0.0
 10
-3.76317
 20
0.91873
 30
0.0
 10
-3.7523
 20
0.91556
 30
0.0
 10
-3.7341
 20
0.91062
 30
0.0
 10
-3.7341
 20
0.91062
 30
0.0
 10
-3.70785
 20
0.90363
 30
0.0
 10
-3.68951
 20
0.89785
 30
0.0
 10
-3.67907
 20
0.8934
 30
0.0
 10
-3.67907
 20
0.8934
 30
0.0
 10
-3.66862
 20
0.88896
 30
0.0
 10
-3.66044
 20
0.8824
 30
0.0
 10
-3.65451
 20
0.87393
 30
0.0
 10
-3.65451
 20
0.87393
 30
0.0
 10
-3.64851
 20
0.86539
 30
0.0
 10
-3.64555
 20
0.85481
 30
0.0
 10
-3.64555
 20
0.84211
 30
0.0
 10
-3.64555
 20
0.84211
 30
0.0
 10
-3.64555
 20
0.82976
 30
0.0
 10
-3.64915
 20
0.81812
 30
0.0
 10
-3.65642
 20
0.80718
 30
0.0
 10
-3.65642
 20
0.80718
 30
0.0
 10
-3.66368
 20
0.79625
 30
0.0
 10
-3.67413
 20
0.78778
 30
0.0
 10
-3.68774
 20
0.78178
 30
0.0
 10
-3.68774
 20
0.78178
 30
0.0
 10
-3.70143
 20
0.77579
 30
0.0
 10
-3.71688
 20
0.77282
 30
0.0
 10
-3.7341
 20
0.77282
 30
0.0
 10
-3.7341
 20
0.77282
 30
0.0
 10
-3.7626
 20
0.77282
 30
0.0
 10
-3.7844
 20
0.77875
 30
0.0
 10
-3.79936
 20
0.79053
 30
0.0
 10
-3.79936
 20
0.79053
 30
0.0
 10
-3.81432
 20
0.80239
 30
0.0
 10
-3.82384
 20
0.81988
 30
0.0
 10
-3.82801
 20
0.8431
 30
0.0
  0
SPLINE
  5
87
330
1F
100
AcDbEntity
  8
Layer 1
 62
     1
100
AcDbSpline
210
0.0
220
0.0
230
1.0
 70
    11
 71
     3
 72
    84
 73
    80
 74
     0
 42
0.0000000001
 43
0.0000000001
 12
1.0
 22
0.0
 32
0.0
 13
1.0
 23
0.0
 33
0.0
 40
0.0
 40
0.0
 40
0.0
 40
0.0
 40
0.0476190476190476
 40
0.0476190476190476
 40
0.0476190476190476
 40
0.0476190476190476
 40
0.0952380952380952
 40
0.0952380952380952
 40
0.0952380952380952
 40
0.0952380952380952
 40
0.1428571428571428
 40
0.1428571428571428
 40
0.1428571428571428
 40
0.1428571428571428
 40
0.1904761904761905
 40
0.1904761904761905
 40
0.1904761904761905
 40
0.1904761904761905
 40
0.2380952380952381
 40
0.2380952380952381
 40
0.2380952380952381
 40
0.2380952380952381
 40
0.2857142857142857
 40
0.2857142857142857
 40
0.2857142857142857
 40
0.2857142857142857
 40
0.3333333333333333
 40
0.3333333333333333
 40
0.3333333333333333
 40
0.3333333333333333
 40
0.3809523809523809
 40
0.3809523809523809
 40
0.3809523809523809
 40
0.3809523809523809
 40
0.4285714285714285
 40
0.4285714285714285
 40
0.4285714285714285
 40
0.4285714285714285
 40
0.4761904761904762
 40
0.4761904761904762
 40
0.4761904761904762
 40
0.4761904761904762
 40
0.5238095238095238
 40
0.5238095238095238
 40
0.5238095238095238
 40
0.5238095238095238
 40
0.5714285714285714
 40
0.5714285714285714
 40
0.5714285714285714
 40
0.5714285714285714
 40
0.6190476190476191
 40
0.6190476190476191
 40
0.6190476190476191
 40
0.6190476190476191
 40
0.6666666666666666
 40
0.6666666666666666
 40
0.6666666666666666
 40
0.6666666666666666
 40
0.7142857142857143
 40
0.7142857142857143
 40
0.7142857142857143
 40
0.7142857142857143
 40
0.7619047619047619
 40
0.7619047619047619
 40
0.7619047619047619
 40
0.7619047619047619
 40
0.8095238095238095
 40
0.8095238095238095
 40
0.8095238095238095
 40
0.8095238095238095
 40
0.8571428571428571
 40
0.8571428571428571
 40
0.8571428571428571
 40
0.8571428571428571
 40
0.9047619047619048
 40
0.9047619047619048
 40
0.9047619047619048
 40
0.9047619047619048
 40
1.0
 40
1.0
 40
1.0
 40
1.0
 10
-3.52066
 20
0.81071
 30
0.0
 10
-3.52066
 20
0.81071
 30
0.0
 10
-3.51558
 20
0.77783
 30
0.0
 10
-3.51558
 20
0.77783
 30
0.0
 10
-3.51558
 20
0.77783
 30
0.0
 10
-3.52603
 20
0.77565
 30
0.0
 10
-3.53541
 20
0.77452
 30
0.0
 10
-3.54359
 20
0.77452
 30
0.0
 10
-3.54359
 20
0.77452
 30
0.0
 10
-3.55707
 20
0.77452
 30
0.0
 10
-3.56751
 20
0.77663
 30
0.0
 10
-3.57499
 20
0.78094
 30
0.0
 10
-3.57499
 20
0.78094
 30
0.0
 10
-3.5824
 20
0.78524
 30
0.0
 10
-3.58762
 20
0.79081
 30
0.0
 10
-3.59065
 20
0.7978
 30
0.0
 10
-3.59065
 20
0.7978
 30
0.0
 10
-3.59369
 20
0.80478
 30
0.0
 10
-3.59517
 20
0.81946
 30
0.0
 10
-3.59517
 20
0.84183
 30
0.0
 10
-3.59517
 20
0.84183
 30
0.0
 10
-3.59517
 20
0.84183
 30
0.0
 10
-3.59517
 20
0.9684
 30
0.0
 10
-3.59517
 20
0.9684
 30
0.0
 10
-3.59517
 20
0.9684
 30
0.0
 10
-3.59517
 20
0.9684
 30
0.0
 10
-3.62269
 20
0.9684
 30
0.0
 10
-3.62269
 20
0.9684
 30
0.0
 10
-3.62269
 20
0.9684
 30
0.0
 10
-3.62269
 20
0.9684
 30
0.0
 10
-3.62269
 20
0.99719
 30
0.0
 10
-3.62269
 20
0.99719
 30
0.0
 10
-3.62269
 20
0.99719
 30
0.0
 10
-3.62269
 20
0.99719
 30
0.0
 10
-3.59517
 20
0.99719
 30
0.0
 10
-3.59517
 20
0.99719
 30
0.0
 10
-3.59517
 20
0.99719
 30
0.0
 10
-3.59517
 20
0.99719
 30
0.0
 10
-3.59517
 20
1.05152
 30
0.0
 10
-3.59517
 20
1.05152
 30
0.0
 10
-3.59517
 20
1.05152
 30
0.0
 10
-3.59517
 20
1.05152
 30
0.0
 10
-3.55792
 20
1.07388
 30
0.0
 10
-3.55792
 20
1.07388
 30
0.0
 10
-3.55792
 20
1.07388
 30
0.0
 10
-3.55792
 20
1.07388
 30
0.0
 10
-3.55792
 20
0.99719
 30
0.0
 10
-3.55792
 20
0.99719
 30
0.0
 10
-3.55792
 20
0.99719
 30
0.0
 10
-3.55792
 20
0.99719
 30
0.0
 10
-3.52066
 20
0.99719
 30
0.0
 10
-3.52066
 20
0.99719
 30
0.0
 10
-3.52066
 20
0.99719
 30
0.0
 10
-3.52066
 20
0.99719
 30
0.0
 10
-3.52066
 20
0.9684
 30
0.0
 10
-3.52066
 20
0.9684
 30
0.0
 10
-3.52066
 20
0.9684
 30
0.0
 10
-3.52066
 20
0.9684
 30
0.0
 10
-3.55792
 20
0.9684
 30
0.0
 10
-3.55792
 20
0.9684
 30
0.0
 10
-3.55792
 20
0.9684
 30
0.0
 10
-3.55792
 20
0.9684
 30
0.0
 10
-3.55792
 20
0.83971
 30
0.0
 10
-3.55792
 20
0.83971
 30
0.0
 10
-3.55792
 20
0.83971
 30
0.0
 10
-3.55792
 20
0.82906
 30
0.0
 10
-3.55728
 20
0.82221
 30
0.0
 10
-3.55594
 20
0.81918
 30
0.0
 10
-3.55594
 20
0.81918
 30
0.0
 10
-3.55467
 20
0.81614
 30
0.0
 10
-3.55256
 20
0.81375
 30
0.0
 10
-3.54959
 20
0.81191
 30
0.0
 10
-3.54959
 20
0.81191
 30
0.0
 10
-3.54663
 20
0.81015
 30
0.0
 10
-3.5424
 20
0.80923
 30
0.0
 10
-3.53689
 20
0.80923
 30
0.0
 10
-3.53689
 20
0.80923
 30
0.0
 10
-3.5328
 20
0.80923
 30
0.0
 10
-3.52737
 20
0.80972
 30
0.0
 10
-3.52066
 20
0.81071
 30
0.0
  0
SPLINE
  5
88
330
1F
100
AcDbEntity
  8
Layer 1
 62
     1
100
AcDbSpline
210
0.0
220
0.0
230
1.0
 70
    11
 71
     3
 72
    28
 73
    24
 74
     0
 42
0.0000000001
 43
0.0000000001
 12
1.0
 22
0.0
 32
0.0
 13
1.0
 23
0.0
 33
0.0
 40
0.0
 40
0.0
 40
0.0
 40
0.0
 40
0.1428571428571428
 40
0.1428571428571428
 40
0.1428571428571428
 40
0.1428571428571428
 40
0.2857142857142857
 40
0.2857142857142857
 40
0.2857142857142857
 40
0.2857142857142857
 40
0.4285714285714285
 40
0.4285714285714285
 40
0.4285714285714285
 40
0.4285714285714285
 40
0.5714285714285714
 40
0.5714285714285714
 40
0.5714285714285714
 40
0.5714285714285714
 40
0.7142857142857143
 40
0.7142857142857143
 40
0.7142857142857143
 40
0.7142857142857143
 40
1.0
 40
1.0
 40
1.0
 40
1.0
 10
-2.33699
 20
0.77501
 30
0.0
 10
-2.33699
 20
0.77501
 30
0.0
 10
-2.33699
 20
1.07811
 30
0.0
 10
-2.33699
 20
1.07811
 30
0.0
 10
-2.33699
 20
1.07811
 30
0.0
 10
-2.33699
 20
1.07811
 30
0.0
 10
-2.29677
 20
1.07811
 30
0.0
 10
-2.29677
 20
1.07811
 30
0.0
 10
-2.29677
 20
1.07811
 30
0.0
 10
-2.29677
 20
1.07811
 30
0.0
 10
-2.29677
 20
0.81057
 30
0.0
 10
-2.29677
 20
0.81057
 30
0.0
 10
-2.29677
 20
0.81057
 30
0.0
 10
-2.29677
 20
0.81057
 30
0.0
 10
-2.14776
 20
0.81057
 30
0.0
 10
-2.14776
 20
0.81057
 30
0.0
 10
-2.14776
 20
0.81057
 30
0.0
 10
-2.14776
 20
0.81057
 30
0.0
 10
-2.14776
 20
0.77501
 30
0.0
 10
-2.14776
 20
0.77501
 30
0.0
 10
-2.14776
 20
0.77501
 30
0.0
 10
-2.14776
 20
0.77501
 30
0.0
 10
-2.33699
 20
0.77501
 30
0.0
 10
-2.33699
 20
0.77501
 30
0.0
  0
SPLINE
  5
89
330
1F
100
AcDbEntity
  8
Layer 1
 62
     1
100
AcDbSpline
210
0.0
220
0.0
230
1.0
 70
    11
 71
     3
 72
   112
 73
   108
 74
     0
 42
0.0000000001
 43
0.0000000001
 12
1.0
 22
0.0
 32
0.0
 13
1.0
 23
0.0
 33
0.0
 40
0.0
 40
0.0
 40
0.0
 40
0.0
 40
0.0357142857142857
 40
0.0357142857142857
 40
0.0357142857142857
 40
0.0357142857142857
 40
0.0714285714285714
 40
0.0714285714285714
 40
0.0714285714285714
 40
0.0714285714285714
 40
0.1071428571428571
 40
0.1071428571428571
 40
0.1071428571428571
 40
0.1071428571428571
 40
0.1428571428571428
 40
0.1428571428571428
 40
0.1428571428571428
 40
0.1428571428571428
 40
0.1785714285714286
 40
0.1785714285714286
 40
0.1785714285714286
 40
0.1785714285714286
 40
0.2142857142857143
 40
0.2142857142857143
 40
0.2142857142857143
 40
0.2142857142857143
 40
0.25
 40
0.25
 40
0.25
 40
0.25
 40
0.2857142857142857
 40
0.2857142857142857
 40
0.2857142857142857
 40
0.2857142857142857
 40
0.3214285714285715
 40
0.3214285714285715
 40
0.3214285714285715
 40
0.3214285714285715
 40
0.3571428571428572
 40
0.3571428571428572
 40
0.3571428571428572
 40
0.3571428571428572
 40
0.3928571428571428
 40
0.3928571428571428
 40
0.3928571428571428
 40
0.3928571428571428
 40
0.4285714285714285
 40
0.4285714285714285
 40
0.4285714285714285
 40
0.4285714285714285
 40
0.4642857142857143
 40
0.4642857142857143
 40
0.4642857142857143
 40
0.4642857142857143
 40
0.5
 40
0.5
 40
0.5
 40
0.5
 40
0.5357142857142857
 40
0.5357142857142857
 40
0.5357142857142857
 40
0.5357142857142857
 40
0.5714285714285714
 40
0.5714285714285714
 40
0.5714285714285714
 40
0.5714285714285714
 40
0.6071428571428571
 40
0.6071428571428571
 40
0.6071428571428571
 40
0.6071428571428571
 40
0.6428571428571429
 40
0.6428571428571429
 40
0.6428571428571429
 40
0.6428571428571429
 40
0.6785714285714286
 40
0.6785714285714286
 40
0.6785714285714286
 40
0.6785714285714286
 40
0.7142857142857143
 40
0.7142857142857143
 40
0.7142857142857143
 40
0.7142857142857143
 40
0.75
 40
0.75
 40
0.75
 40
0.75
 40
0.7857142857142857
 40
0.7857142857142857
 40
0.7857142857142857
 40
0.7857142857142857
 40
0.8214285714285714
 40
0.8214285714285714
 40
0.8214285714285714
 40
0.8214285714285714
 40
0.8571428571428571
 40
0.8571428571428571
 40
0.8571428571428571
 40
0.8571428571428571
 40
0.8928571428571429
 40
0.8928571428571429
 40
0.8928571428571429
 40
0.8928571428571429
 40
0.9285714285714286
 40
0.9285714285714286
 40
0.9285714285714286
 40
0.9285714285714286
 40
1.0
 40
1.0
 40
1.0
 40
1.0
 10
-1.961
 20
0.80253
 30
0.0
 10
-1.97483
 20
0.79074
 30
0.0
 10
-1.98817
 20
0.78249
 30
0.0
 10
-2.00094
 20
0.77762
 30
0.0
 10
-2.00094
 20
0.77762
 30
0.0
 10
-2.01371
 20
0.77275
 30
0.0
 10
-2.02739
 20
0.77035
 30
0.0
 10
-2.04207
 20
0.77035
 30
0.0
 10
-2.04207
 20
0.77035
 30
0.0
 10
-2.0662
 20
0.77035
 30
0.0
 10
-2.08475
 20
0.77621
 30
0.0
 10
-2.09774
 20
0.78799
 30
0.0
 10
-2.09774
 20
0.78799
 30
0.0
 10
-2.11072
 20
0.7997
 30
0.0
 10
-2.11721
 20
0.81473
 30
0.0
 10
-2.11721
 20
0.83301
 30
0.0
 10
-2.11721
 20
0.83301
 30
0.0
 10
-2.11721
 20
0.84373
 30
0.0
 10
-2.11474
 20
0.85354
 30
0.0
 10
-2.10987
 20
0.86243
 30
0.0
 10
-2.10987
 20
0.86243
 30
0.0
 10
-2.10493
 20
0.87132
 30
0.0
 10
-2.09851
 20
0.87837
 30
0.0
 10
-2.09061
 20
0.88374
 30
0.0
 10
-2.09061
 20
0.88374
 30
0.0
 10
-2.08264
 20
0.8891
 30
0.0
 10
-2.07375
 20
0.89319
 30
0.0
 10
-2.0638
 20
0.89594
 30
0.0
 10
-2.0638
 20
0.89594
 30
0.0
 10
-2.05646
 20
0.89785
 30
0.0
 10
-2.04539
 20
0.89968
 30
0.0
 10
-2.03064
 20
0.90152
 30
0.0
 10
-2.03064
 20
0.90152
 30
0.0
 10
-2.00058
 20
0.90504
 30
0.0
 10
-1.97836
 20
0.90935
 30
0.0
 10
-1.96418
 20
0.91429
 30
0.0
 10
-1.96418
 20
0.91429
 30
0.0
 10
-1.96404
 20
0.91937
 30
0.0
 10
-1.96396
 20
0.92261
 30
0.0
 10
-1.96396
 20
0.92395
 30
0.0
 10
-1.96396
 20
0.92395
 30
0.0
 10
-1.96396
 20
0.93905
 30
0.0
 10
-1.96749
 20
0.9497
 30
0.0
 10
-1.97455
 20
0.95591
 30
0.0
 10
-1.97455
 20
0.95591
 30
0.0
 10
-1.98407
 20
0.96431
 30
0.0
 10
-1.99825
 20
0.96847
 30
0.0
 10
-2.01702
 20
0.96847
 30
0.0
 10
-2.01702
 20
0.96847
 30
0.0
 10
-2.03459
 20
0.96847
 30
0.0
 10
-2.04757
 20
0.96537
 30
0.0
 10
-2.0559
 20
0.95923
 30
0.0
 10
-2.0559
 20
0.95923
 30
0.0
 10
-2.06429
 20
0.95309
 30
0.0
 10
-2.07043
 20
0.94223
 30
0.0
 10
-2.07445
 20
0.92656
 30
0.0
 10
-2.07445
 20
0.92656
 30
0.0
 10
-2.07445
 20
0.92656
 30
0.0
 10
-2.11086
 20
0.93164
 30
0.0
 10
-2.11086
 20
0.93164
 30
0.0
 10
-2.11086
 20
0.93164
 30
0.0
 10
-2.10754
 20
0.94723
 30
0.0
 10
-2.10211
 20
0.95986
 30
0.0
 10
-2.09449
 20
0.96946
 30
0.0
 10
-2.09449
 20
0.96946
 30
0.0
 10
-2.08687
 20
0.97906
 30
0.0
 10
-2.07586
 20
0.98639
 30
0.0
 10
-2.06147
 20
0.99161
 30
0.0
 10
-2.06147
 20
0.99161
 30
0.0
 10
-2.04715
 20
0.99676
 30
0.0
 10
-2.03043
 20
0.99937
 30
0.0
 10
-2.01152
 20
0.99937
 30
0.0
 10
-2.01152
 20
0.99937
 30
0.0
 10
-1.99275
 20
0.99937
 30
0.0
 10
-1.97744
 20
0.99719
 30
0.0
 10
-1.96566
 20
0.99274
 30
0.0
 10
-1.96566
 20
0.99274
 30
0.0
 10
-1.95395
 20
0.9883
 30
0.0
 10
-1.94527
 20
0.98279
 30
0.0
 10
-1.93976
 20
0.97609
 30
0.0
 10
-1.93976
 20
0.97609
 30
0.0
 10
-1.93426
 20
0.96939
 30
0.0
 10
-1.93038
 20
0.96092
 30
0.0
 10
-1.92812
 20
0.95069
 30
0.0
 10
-1.92812
 20
0.95069
 30
0.0
 10
-1.92692
 20
0.94434
 30
0.0
 10
-1.92629
 20
0.93291
 30
0.0
 10
-1.92629
 20
0.91647
 30
0.0
 10
-1.92629
 20
0.91647
 30
0.0
 10
-1.92629
 20
0.91647
 30
0.0
 10
-1.92629
 20
0.86708
 30
0.0
 10
-1.92629
 20
0.86708
 30
0.0
 10
-1.92629
 20
0.86708
 30
0.0
 10
-1.92629
 20
0.83258
 30
0.0
 10
-1.92551
 20
0.81078
 30
0.0
 10
-1.92396
 20
0.80154
 30
0.0
 10
-1.92396
 20
0.80154
 30
0.0
 10
-1.92248
 20
0.7923
 30
0.0
 10
-1.91937
 20
0.78348
 30
0.0
 10
-1.91486
 20
0.77501
 30
0.0
 10
-1.91486
 20
0.77501
 30
0.0
 10
-1.91486
 20
0.77501
 30
0.0
 10
-1.9538
 20
0.77501
 30
0.0
 10
-1.9538
 20
0.77501
 30
0.0
 10
-1.9538
 20
0.77501
 30
0.0
 10
-1.95754
 20
0.78284
 30
0.0
 10
-1.95994
 20
0.79201
 30
0.0
 10
-1.961
 20
0.80253
 30
0.0
  0
SPLINE
  5
8A
330
1F
100
AcDbEntity
  8
Layer 1
 62
     1
100
AcDbSpline
210
0.0
220
0.0
230
1.0
 70
    11
 71
     3
 72
    44
 73
    40
 74
     0
 42
0.0000000001
 43
0.0000000001
 12
1.0
 22
0.0
 32
0.0
 13
1.0
 23
0.0
 33
0.0
 40
0.0
 40
0.0
 40
0.0
 40
0.0
 40
0.0909090909090909
 40
0.0909090909090909
 40
0.0909090909090909
 40
0.0909090909090909
 40
0.1818181818181818
 40
0.1818181818181818
 40
0.1818181818181818
 40
0.1818181818181818
 40
0.2727272727272727
 40
0.2727272727272727
 40
0.2727272727272727
 40
0.2727272727272727
 40
0.3636363636363636
 40
0.3636363636363636
 40
0.3636363636363636
 40
0.3636363636363636
 40
0.4545454545454545
 40
0.4545454545454545
 40
0.4545454545454545
 40
0.4545454545454545
 40
0.5454545454545454
 40
0.5454545454545454
 40
0.5454545454545454
 40
0.5454545454545454
 40
0.6363636363636364
 40
0.6363636363636364
 40
0.6363636363636364
 40
0.6363636363636364
 40
0.7272727272727273
 40
0.7272727272727273
 40
0.7272727272727273
 40
0.7272727272727273
 40
0.8181818181818182
 40
0.8181818181818182
 40
0.8181818181818182
 40
0.8181818181818182
 40
1.0
 40
1.0
 40
1.0
 40
1.0
 10
-1.96396
 20
0.88508
 30
0.0
 10
-1.97751
 20
0.87957
 30
0.0
 10
-1.99783
 20
0.87492
 30
0.0
 10
-2.02492
 20
0.87111
 30
0.0
 10
-2.02492
 20
0.87111
 30
0.0
 10
-2.04031
 20
0.86892
 30
0.0
 10
-2.05117
 20
0.86645
 30
0.0
 10
-2.05752
 20
0.8637
 30
0.0
 10
-2.05752
 20
0.8637
 30
0.0
 10
-2.06387
 20
0.86095
 30
0.0
 10
-2.06874
 20
0.85692
 30
0.0
 10
-2.0722
 20
0.8517
 30
0.0
 10
-2.0722
 20
0.8517
 30
0.0
 10
-2.07565
 20
0.84641
 30
0.0
 10
-2.07742
 20
0.84056
 30
0.0
 10
-2.07742
 20
0.83406
 30
0.0
 10
-2.07742
 20
0.83406
 30
0.0
 10
-2.07742
 20
0.82426
 30
0.0
 10
-2.07368
 20
0.816
 30
0.0
 10
-2.06613
 20
0.80944
 30
0.0
 10
-2.06613
 20
0.80944
 30
0.0
 10
-2.05858
 20
0.80288
 30
0.0
 10
-2.04757
 20
0.79956
 30
0.0
 10
-2.03311
 20
0.79956
 30
0.0
 10
-2.03311
 20
0.79956
 30
0.0
 10
-2.01879
 20
0.79956
 30
0.0
 10
-2.00602
 20
0.80267
 30
0.0
 10
-1.9948
 20
0.80895
 30
0.0
 10
-1.9948
 20
0.80895
 30
0.0
 10
-1.98365
 20
0.81516
 30
0.0
 10
-1.97539
 20
0.82369
 30
0.0
 10
-1.97017
 20
0.83449
 30
0.0
 10
-1.97017
 20
0.83449
 30
0.0
 10
-1.96615
 20
0.84288
 30
0.0
 10
-1.96418
 20
0.85523
 30
0.0
 10
-1.96418
 20
0.87153
 30
0.0
 10
-1.96418
 20
0.87153
 30
0.0
 10
-1.96418
 20
0.87153
 30
0.0
 10
-1.96396
 20
0.88508
 30
0.0
 10
-1.96396
 20
0.88508
 30
0.0
  0
SPLINE
  5
8B
330
1F
100
AcDbEntity
  8
Layer 1
 62
     1
100
AcDbSpline
210
0.0
220
0.0
230
1.0
 70
    11
 71
     3
 72
   136
 73
   132
 74
     0
 42
0.0000000001
 43
0.0000000001
 12
1.0
 22
0.0
 32
0.0
 13
1.0
 23
0.0
 33
0.0
 40
0.0
 40
0.0
 40
0.0
 40
0.0
 40
0.0294117647058824
 40
0.0294117647058824
 40
0.0294117647058824
 40
0.0294117647058824
 40
0.0588235294117647
 40
0.0588235294117647
 40
0.0588235294117647
 40
0.0588235294117647
 40
0.0882352941176471
 40
0.0882352941176471
 40
0.0882352941176471
 40
0.0882352941176471
 40
0.1176470588235294
 40
0.1176470588235294
 40
0.1176470588235294
 40
0.1176470588235294
 40
0.1470588235294118
 40
0.1470588235294118
 40
0.1470588235294118
 40
0.1470588235294118
 40
0.1764705882352941
 40
0.1764705882352941
 40
0.1764705882352941
 40
0.1764705882352941
 40
0.2058823529411765
 40
0.2058823529411765
 40
0.2058823529411765
 40
0.2058823529411765
 40
0.2352941176470588
 40
0.2352941176470588
 40
0.2352941176470588
 40
0.2352941176470588
 40
0.2647058823529412
 40
0.2647058823529412
 40
0.2647058823529412
 40
0.2647058823529412
 40
0.2941176470588235
 40
0.2941176470588235
 40
0.2941176470588235
 40
0.2941176470588235
 40
0.3235294117647059
 40
0.3235294117647059
 40
0.3235294117647059
 40
0.3235294117647059
 40
0.3529411764705883
 40
0.3529411764705883
 40
0.3529411764705883
 40
0.3529411764705883
 40
0.3823529411764706
 40
0.3823529411764706
 40
0.3823529411764706
 40
0.3823529411764706
 40
0.4117647058823529
 40
0.4117647058823529
 40
0.4117647058823529
 40
0.4117647058823529
 40
0.4411764705882353
 40
0.4411764705882353
 40
0.4411764705882353
 40
0.4411764705882353
 40
0.4705882352941176
 40
0.4705882352941176
 40
0.4705882352941176
 40
0.4705882352941176
 40
0.5
 40
0.5
 40
0.5
 40
0.5
 40
0.5294117647058824
 40
0.5294117647058824
 40
0.5294117647058824
 40
0.5294117647058824
 40
0.5588235294117647
 40
0.5588235294117647
 40
0.5588235294117647
 40
0.5588235294117647
 40
0.5882352941176471
 40
0.5882352941176471
 40
0.5882352941176471
 40
0.5882352941176471
 40
0.6176470588235294
 40
0.6176470588235294
 40
0.6176470588235294
 40
0.6176470588235294
 40
0.6470588235294118
 40
0.6470588235294118
 40
0.6470588235294118
 40
0.6470588235294118
 40
0.6764705882352942
 40
0.6764705882352942
 40
0.6764705882352942
 40
0.6764705882352942
 40
0.7058823529411765
 40
0.7058823529411765
 40
0.7058823529411765
 40
0.7058823529411765
 40
0.7352941176470589
 40
0.7352941176470589
 40
0.7352941176470589
 40
0.7352941176470589
 40
0.7647058823529411
 40
0.7647058823529411
 40
0.7647058823529411
 40
0.7647058823529411
 40
0.7941176470588235
 40
0.7941176470588235
 40
0.7941176470588235
 40
0.7941176470588235
 40
0.8235294117647058
 40
0.8235294117647058
 40
0.8235294117647058
 40
0.8235294117647058
 40
0.8529411764705882
 40
0.8529411764705882
 40
0.8529411764705882
 40
0.8529411764705882
 40
0.8823529411764706
 40
0.8823529411764706
 40
0.8823529411764706
 40
0.8823529411764706
 40
0.9117647058823529
 40
0.9117647058823529
 40
0.9117647058823529
 40
0.9117647058823529
 40
0.9411764705882353
 40
0.9411764705882353
 40
0.9411764705882353
 40
0.9411764705882353
 40
1.0
 40
1.0
 40
1.0
 40
1.0
 10
-1.88389
 20
0.84063
 30
0.0
 10
-1.88389
 20
0.84063
 30
0.0
 10
-1.84706
 20
0.84655
 30
0.0
 10
-1.84706
 20
0.84655
 30
0.0
 10
-1.84706
 20
0.84655
 30
0.0
 10
-1.84501
 20
0.83181
 30
0.0
 10
-1.83923
 20
0.82052
 30
0.0
 10
-1.82977
 20
0.81262
 30
0.0
 10
-1.82977
 20
0.81262
 30
0.0
 10
-1.82032
 20
0.80478
 30
0.0
 10
-1.80705
 20
0.80083
 30
0.0
 10
-1.79012
 20
0.80083
 30
0.0
 10
-1.79012
 20
0.80083
 30
0.0
 10
-1.77297
 20
0.80083
 30
0.0
 10
-1.76027
 20
0.80429
 30
0.0
 10
-1.75195
 20
0.81128
 30
0.0
 10
-1.75195
 20
0.81128
 30
0.0
 10
-1.74369
 20
0.81819
 30
0.0
 10
-1.73953
 20
0.82637
 30
0.0
 10
-1.73953
 20
0.83576
 30
0.0
 10
-1.73953
 20
0.83576
 30
0.0
 10
-1.73953
 20
0.84415
 30
0.0
 10
-1.74327
 20
0.85079
 30
0.0
 10
-1.75068
 20
0.85558
 30
0.0
 10
-1.75068
 20
0.85558
 30
0.0
 10
-1.7559
 20
0.8589
 30
0.0
 10
-1.7686
 20
0.86306
 30
0.0
 10
-1.78878
 20
0.86821
 30
0.0
 10
-1.78878
 20
0.86821
 30
0.0
 10
-1.81601
 20
0.87506
 30
0.0
 10
-1.83485
 20
0.88098
 30
0.0
 10
-1.84543
 20
0.88599
 30
0.0
 10
-1.84543
 20
0.88599
 30
0.0
 10
-1.85595
 20
0.89107
 30
0.0
 10
-1.86392
 20
0.89799
 30
0.0
 10
-1.86935
 20
0.90688
 30
0.0
 10
-1.86935
 20
0.90688
 30
0.0
 10
-1.87479
 20
0.9157
 30
0.0
 10
-1.87754
 20
0.9255
 30
0.0
 10
-1.87754
 20
0.93623
 30
0.0
 10
-1.87754
 20
0.93623
 30
0.0
 10
-1.87754
 20
0.94604
 30
0.0
 10
-1.87528
 20
0.95507
 30
0.0
 10
-1.87083
 20
0.96339
 30
0.0
 10
-1.87083
 20
0.96339
 30
0.0
 10
-1.86632
 20
0.97172
 30
0.0
 10
-1.86025
 20
0.97863
 30
0.0
 10
-1.85256
 20
0.98414
 30
0.0
 10
-1.85256
 20
0.98414
 30
0.0
 10
-1.84677
 20
0.98837
 30
0.0
 10
-1.83887
 20
0.99197
 30
0.0
 10
-1.82892
 20
0.99493
 30
0.0
 10
-1.82892
 20
0.99493
 30
0.0
 10
-1.81891
 20
0.99789
 30
0.0
 10
-1.80825
 20
0.99937
 30
0.0
 10
-1.79682
 20
0.99937
 30
0.0
 10
-1.79682
 20
0.99937
 30
0.0
 10
-1.77961
 20
0.99937
 30
0.0
 10
-1.76451
 20
0.99691
 30
0.0
 10
-1.75153
 20
0.9919
 30
0.0
 10
-1.75153
 20
0.9919
 30
0.0
 10
-1.73847
 20
0.98696
 30
0.0
 10
-1.72888
 20
0.98018
 30
0.0
 10
-1.72267
 20
0.97172
 30
0.0
 10
-1.72267
 20
0.97172
 30
0.0
 10
-1.71653
 20
0.96318
 30
0.0
 10
-1.71223
 20
0.95182
 30
0.0
 10
-1.7099
 20
0.93757
 30
0.0
 10
-1.7099
 20
0.93757
 30
0.0
 10
-1.7099
 20
0.93757
 30
0.0
 10
-1.7463
 20
0.93249
 30
0.0
 10
-1.7463
 20
0.93249
 30
0.0
 10
-1.7463
 20
0.93249
 30
0.0
 10
-1.74793
 20
0.94392
 30
0.0
 10
-1.75273
 20
0.95288
 30
0.0
 10
-1.76063
 20
0.9593
 30
0.0
 10
-1.76063
 20
0.9593
 30
0.0
 10
-1.76853
 20
0.96572
 30
0.0
 10
-1.77968
 20
0.9689
 30
0.0
 10
-1.79414
 20
0.9689
 30
0.0
 10
-1.79414
 20
0.9689
 30
0.0
 10
-1.81114
 20
0.9689
 30
0.0
 10
-1.82335
 20
0.96607
 30
0.0
 10
-1.83062
 20
0.96043
 30
0.0
 10
-1.83062
 20
0.96043
 30
0.0
 10
-1.83788
 20
0.95478
 30
0.0
 10
-1.84155
 20
0.94815
 30
0.0
 10
-1.84155
 20
0.9406
 30
0.0
 10
-1.84155
 20
0.9406
 30
0.0
 10
-1.84155
 20
0.9358
 30
0.0
 10
-1.84007
 20
0.93143
 30
0.0
 10
-1.83704
 20
0.92755
 30
0.0
 10
-1.83704
 20
0.92755
 30
0.0
 10
-1.834
 20
0.9236
 30
0.0
 10
-1.82928
 20
0.92028
 30
0.0
 10
-1.82279
 20
0.91767
 30
0.0
 10
-1.82279
 20
0.91767
 30
0.0
 10
-1.81905
 20
0.91626
 30
0.0
 10
-1.80818
 20
0.91309
 30
0.0
 10
-1.78998
 20
0.90815
 30
0.0
 10
-1.78998
 20
0.90815
 30
0.0
 10
-1.76373
 20
0.90116
 30
0.0
 10
-1.74539
 20
0.89538
 30
0.0
 10
-1.73495
 20
0.89093
 30
0.0
 10
-1.73495
 20
0.89093
 30
0.0
 10
-1.7245
 20
0.88649
 30
0.0
 10
-1.71632
 20
0.87993
 30
0.0
 10
-1.71039
 20
0.87146
 30
0.0
 10
-1.71039
 20
0.87146
 30
0.0
 10
-1.70439
 20
0.86292
 30
0.0
 10
-1.70143
 20
0.85234
 30
0.0
 10
-1.70143
 20
0.83964
 30
0.0
 10
-1.70143
 20
0.83964
 30
0.0
 10
-1.70143
 20
0.82729
 30
0.0
 10
-1.70503
 20
0.81565
 30
0.0
 10
-1.7123
 20
0.80471
 30
0.0
 10
-1.7123
 20
0.80471
 30
0.0
 10
-1.71956
 20
0.79378
 30
0.0
 10
-1.73001
 20
0.78531
 30
0.0
 10
-1.74362
 20
0.77931
 30
0.0
 10
-1.74362
 20
0.77931
 30
0.0
 10
-1.75731
 20
0.77332
 30
0.0
 10
-1.77276
 20
0.77035
 30
0.0
 10
-1.78998
 20
0.77035
 30
0.0
 10
-1.78998
 20
0.77035
 30
0.0
 10
-1.81848
 20
0.77035
 30
0.0
 10
-1.84028
 20
0.77628
 30
0.0
 10
-1.85524
 20
0.78806
 30
0.0
 10
-1.85524
 20
0.78806
 30
0.0
 10
-1.8702
 20
0.79992
 30
0.0
 10
-1.87972
 20
0.81741
 30
0.0
 10
-1.88389
 20
0.84063
 30
0.0
  0
SPLINE
  5
8C
330
1F
100
AcDbEntity
  8
Layer 1
 62
     1
100
AcDbSpline
210
0.0
220
0.0
230
1.0
 70
    11
 71
     3
 72
    64
 73
    60
 74
     0
 42
0.0000000001
 43
0.0000000001
 12
1.0
 22
0.0
 32
0.0
 13
1.0
 23
0.0
 33
0.0
 40
0.0
 40
0.0
 40
0.0
 40
0.0
 40
0.0625
 40
0.0625
 40
0.0625
 40
0.0625
 40
0.125
 40
0.125
 40
0.125
 40
0.125
 40
0.1875
 40
0.1875
 40
0.1875
 40
0.1875
 40
0.25
 40
0.25
 40
0.25
 40
0.25
 40
0.3125
 40
0.3125
 40
0.3125
 40
0.3125
 40
0.375
 40
0.375
 40
0.375
 40
0.375
 40
0.4375
 40
0.4375
 40
0.4375
 40
0.4375
 40
0.5
 40
0.5
 40
0.5
 40
0.5
 40
0.5625
 40
0.5625
 40
0.5625
 40
0.5625
 40
0.625
 40
0.625
 40
0.625
 40
0.625
 40
0.6875
 40
0.6875
 40
0.6875
 40
0.6875
 40
0.75
 40
0.75
 40
0.75
 40
0.75
 40
0.8125
 40
0.8125
 40
0.8125
 40
0.8125
 40
0.875
 40
0.875
 40
0.875
 40
0.875
 40
1.0
 40
1.0
 40
1.0
 40
1.0
 10
-1.50754
 20
0.84613
 30
0.0
 10
-1.50754
 20
0.84613
 30
0.0
 10
-1.46902
 20
0.84105
 30
0.0
 10
-1.46902
 20
0.84105
 30
0.0
 10
-1.46902
 20
0.84105
 30
0.0
 10
-1.47502
 20
0.81868
 30
0.0
 10
-1.48623
 20
0.80126
 30
0.0
 10
-1.5026
 20
0.78891
 30
0.0
 10
-1.5026
 20
0.78891
 30
0.0
 10
-1.51897
 20
0.77656
 30
0.0
 10
-1.53986
 20
0.77035
 30
0.0
 10
-1.56533
 20
0.77035
 30
0.0
 10
-1.56533
 20
0.77035
 30
0.0
 10
-1.59736
 20
0.77035
 30
0.0
 10
-1.62276
 20
0.78023
 30
0.0
 10
-1.64153
 20
0.79999
 30
0.0
 10
-1.64153
 20
0.79999
 30
0.0
 10
-1.66029
 20
0.81967
 30
0.0
 10
-1.66968
 20
0.8474
 30
0.0
 10
-1.66968
 20
0.88303
 30
0.0
 10
-1.66968
 20
0.88303
 30
0.0
 10
-1.66968
 20
0.91986
 30
0.0
 10
-1.66022
 20
0.9485
 30
0.0
 10
-1.64124
 20
0.96882
 30
0.0
 10
-1.64124
 20
0.96882
 30
0.0
 10
-1.62226
 20
0.98921
 30
0.0
 10
-1.59764
 20
0.99937
 30
0.0
 10
-1.56737
 20
0.99937
 30
0.0
 10
-1.56737
 20
0.99937
 30
0.0
 10
-1.53809
 20
0.99937
 30
0.0
 10
-1.51417
 20
0.98943
 30
0.0
 10
-1.49562
 20
0.96946
 30
0.0
 10
-1.49562
 20
0.96946
 30
0.0
 10
-1.47706
 20
0.94949
 30
0.0
 10
-1.46775
 20
0.92141
 30
0.0
 10
-1.46775
 20
0.88522
 30
0.0
 10
-1.46775
 20
0.88522
 30
0.0
 10
-1.46775
 20
0.88303
 30
0.0
 10
-1.46782
 20
0.87971
 30
0.0
 10
-1.46796
 20
0.87534
 30
0.0
 10
-1.46796
 20
0.87534
 30
0.0
 10
-1.46796
 20
0.87534
 30
0.0
 10
-1.63158
 20
0.87534
 30
0.0
 10
-1.63158
 20
0.87534
 30
0.0
 10
-1.63158
 20
0.87534
 30
0.0
 10
-1.63017
 20
0.85128
 30
0.0
 10
-1.62339
 20
0.83279
 30
0.0
 10
-1.61112
 20
0.82002
 30
0.0
 10
-1.61112
 20
0.82002
 30
0.0
 10
-1.59891
 20
0.80725
 30
0.0
 10
-1.5836
 20
0.80083
 30
0.0
 10
-1.56533
 20
0.80083
 30
0.0
 10
-1.56533
 20
0.80083
 30
0.0
 10
-1.55171
 20
0.80083
 30
0.0
 10
-1.54007
 20
0.80443
 30
0.0
 10
-1.53047
 20
0.81163
 30
0.0
 10
-1.53047
 20
0.81163
 30
0.0
 10
-1.52081
 20
0.81882
 30
0.0
 10
-1.51319
 20
0.83033
 30
0.0
 10
-1.50754
 20
0.84613
 30
0.0
  0
SPLINE
  5
8D
330
1F
100
AcDbEntity
  8
Layer 1
 62
     1
100
AcDbSpline
210
0.0
220
0.0
230
1.0
 70
    11
 71
     3
 72
    24
 73
    20
 74
     0
 42
0.0000000001
 43
0.0000000001
 12
1.0
 22
0.0
 32
0.0
 13
1.0
 23
0.0
 33
0.0
 40
0.0
 40
0.0
 40
0.0
 40
0.0
 40
0.1666666666666667
 40
0.1666666666666667
 40
0.1666666666666667
 40
0.1666666666666667
 40
0.3333333333333333
 40
0.3333333333333333
 40
0.3333333333333333
 40
0.3333333333333333
 40
0.5
 40
0.5
 40
0.5
 40
0.5
 40
0.6666666666666666
 40
0.6666666666666666
 40
0.6666666666666666
 40
0.6666666666666666
 40
1.0
 40
1.0
 40
1.0
 40
1.0
 10
-1.62946
 20
0.90582
 30
0.0
 10
-1.62946
 20
0.90582
 30
0.0
 10
-1.50712
 20
0.90582
 30
0.0
 10
-1.50712
 20
0.90582
 30
0.0
 10
-1.50712
 20
0.90582
 30
0.0
 10
-1.50874
 20
0.9243
 30
0.0
 10
-1.51347
 20
0.93813
 30
0.0
 10
-1.52116
 20
0.94738
 30
0.0
 10
-1.52116
 20
0.94738
 30
0.0
 10
-1.53294
 20
0.9617
 30
0.0
 10
-1.54832
 20
0.9689
 30
0.0
 10
-1.56716
 20
0.9689
 30
0.0
 10
-1.56716
 20
0.9689
 30
0.0
 10
-1.58423
 20
0.9689
 30
0.0
 10
-1.59856
 20
0.96318
 30
0.0
 10
-1.6102
 20
0.95175
 30
0.0
 10
-1.6102
 20
0.95175
 30
0.0
 10
-1.62177
 20
0.94032
 30
0.0
 10
-1.62819
 20
0.92501
 30
0.0
 10
-1.62946
 20
0.90582
 30
0.0
  0
SPLINE
  5
8E
330
1F
100
AcDbEntity
  8
Layer 1
 62
     1
100
AcDbSpline
210
0.0
220
0.0
230
1.0
 70
    11
 71
     3
 72
    56
 73
    52
 74
     0
 42
0.0000000001
 43
0.0000000001
 12
1.0
 22
0.0
 32
0.0
 13
1.0
 23
0.0
 33
0.0
 40
0.0
 40
0.0
 40
0.0
 40
0.0
 40
0.0714285714285714
 40
0.0714285714285714
 40
0.0714285714285714
 40
0.0714285714285714
 40
0.1428571428571428
 40
0.1428571428571428
 40
0.1428571428571428
 40
0.1428571428571428
 40
0.2142857142857143
 40
0.2142857142857143
 40
0.2142857142857143
 40
0.2142857142857143
 40
0.2857142857142857
 40
0.2857142857142857
 40
0.2857142857142857
 40
0.2857142857142857
 40
0.3571428571428572
 40
0.3571428571428572
 40
0.3571428571428572
 40
0.3571428571428572
 40
0.4285714285714285
 40
0.4285714285714285
 40
0.4285714285714285
 40
0.4285714285714285
 40
0.5
 40
0.5
 40
0.5
 40
0.5
 40
0.5714285714285714
 40
0.5714285714285714
 40
0.5714285714285714
 40
0.5714285714285714
 40
0.6428571428571429
 40
0.6428571428571429
 40
0.6428571428571429
 40
0.6428571428571429
 40
0.7142857142857143
 40
0.7142857142857143
 40
0.7142857142857143
 40
0.7142857142857143
 40
0.7857142857142857
 40
0.7857142857142857
 40
0.7857142857142857
 40
0.7857142857142857
 40
0.8571428571428571
 40
0.8571428571428571
 40
0.8571428571428571
 40
0.8571428571428571
 40
1.0
 40
1.0
 40
1.0
 40
1.0
 10
-1.42238
 20
0.77501
 30
0.0
 10
-1.42238
 20
0.77501
 30
0.0
 10
-1.42238
 20
0.99472
 30
0.0
 10
-1.42238
 20
0.99472
 30
0.0
 10
-1.42238
 20
0.99472
 30
0.0
 10
-1.42238
 20
0.99472
 30
0.0
 10
-1.38894
 20
0.99472
 30
0.0
 10
-1.38894
 20
0.99472
 30
0.0
 10
-1.38894
 20
0.99472
 30
0.0
 10
-1.38894
 20
0.99472
 30
0.0
 10
-1.38894
 20
0.96106
 30
0.0
 10
-1.38894
 20
0.96106
 30
0.0
 10
-1.38894
 20
0.96106
 30
0.0
 10
-1.3804
 20
0.97666
 30
0.0
 10
-1.3725
 20
0.98696
 30
0.0
 10
-1.36523
 20
0.9919
 30
0.0
 10
-1.36523
 20
0.9919
 30
0.0
 10
-1.35797
 20
0.99691
 30
0.0
 10
-1.34999
 20
0.99937
 30
0.0
 10
-1.34132
 20
0.99937
 30
0.0
 10
-1.34132
 20
0.99937
 30
0.0
 10
-1.32876
 20
0.99937
 30
0.0
 10
-1.31599
 20
0.99542
 30
0.0
 10
-1.303
 20
0.98759
 30
0.0
 10
-1.303
 20
0.98759
 30
0.0
 10
-1.303
 20
0.98759
 30
0.0
 10
-1.31627
 20
0.95323
 30
0.0
 10
-1.31627
 20
0.95323
 30
0.0
 10
-1.31627
 20
0.95323
 30
0.0
 10
-1.3253
 20
0.95831
 30
0.0
 10
-1.33433
 20
0.96085
 30
0.0
 10
-1.34336
 20
0.96085
 30
0.0
 10
-1.34336
 20
0.96085
 30
0.0
 10
-1.35148
 20
0.96085
 30
0.0
 10
-1.35874
 20
0.95838
 30
0.0
 10
-1.36516
 20
0.95351
 30
0.0
 10
-1.36516
 20
0.95351
 30
0.0
 10
-1.37158
 20
0.94865
 30
0.0
 10
-1.37617
 20
0.94187
 30
0.0
 10
-1.37892
 20
0.93319
 30
0.0
 10
-1.37892
 20
0.93319
 30
0.0
 10
-1.38308
 20
0.92
 30
0.0
 10
-1.38513
 20
0.90554
 30
0.0
 10
-1.38513
 20
0.8898
 30
0.0
 10
-1.38513
 20
0.8898
 30
0.0
 10
-1.38513
 20
0.8898
 30
0.0
 10
-1.38513
 20
0.77501
 30
0.0
 10
-1.38513
 20
0.77501
 30
0.0
 10
-1.38513
 20
0.77501
 30
0.0
 10
-1.38513
 20
0.77501
 30
0.0
 10
-1.42238
 20
0.77501
 30
0.0
 10
-1.42238
 20
0.77501
 30
0.0
  0
SPLINE
  5
8F
330
1F
100
AcDbEntity
  8
Layer 1
 62
     1
100
AcDbSpline
210
0.0
220
0.0
230
1.0
 70
    11
 71
     3
 72
   144
 73
   140
 74
     0
 42
0.0000000001
 43
0.0000000001
 12
1.0
 22
0.0
 32
0.0
 13
1.0
 23
0.0
 33
0.0
 40
0.0
 40
0.0
 40
0.0
 40
0.0
 40
0.0277777777777778
 40
0.0277777777777778
 40
0.0277777777777778
 40
0.0277777777777778
 40
0.0555555555555556
 40
0.0555555555555556
 40
0.0555555555555556
 40
0.0555555555555556
 40
0.0833333333333333
 40
0.0833333333333333
 40
0.0833333333333333
 40
0.0833333333333333
 40
0.1111111111111111
 40
0.1111111111111111
 40
0.1111111111111111
 40
0.1111111111111111
 40
0.1388888888888889
 40
0.1388888888888889
 40
0.1388888888888889
 40
0.1388888888888889
 40
0.1666666666666667
 40
0.1666666666666667
 40
0.1666666666666667
 40
0.1666666666666667
 40
0.1944444444444444
 40
0.1944444444444444
 40
0.1944444444444444
 40
0.1944444444444444
 40
0.2222222222222222
 40
0.2222222222222222
 40
0.2222222222222222
 40
0.2222222222222222
 40
0.25
 40
0.25
 40
0.25
 40
0.25
 40
0.2777777777777778
 40
0.2777777777777778
 40
0.2777777777777778
 40
0.2777777777777778
 40
0.3055555555555556
 40
0.3055555555555556
 40
0.3055555555555556
 40
0.3055555555555556
 40
0.3333333333333333
 40
0.3333333333333333
 40
0.3333333333333333
 40
0.3333333333333333
 40
0.3611111111111111
 40
0.3611111111111111
 40
0.3611111111111111
 40
0.3611111111111111
 40
0.3888888888888889
 40
0.3888888888888889
 40
0.3888888888888889
 40
0.3888888888888889
 40
0.4166666666666667
 40
0.4166666666666667
 40
0.4166666666666667
 40
0.4166666666666667
 40
0.4444444444444444
 40
0.4444444444444444
 40
0.4444444444444444
 40
0.4444444444444444
 40
0.4722222222222222
 40
0.4722222222222222
 40
0.4722222222222222
 40
0.4722222222222222
 40
0.5
 40
0.5
 40
0.5
 40
0.5
 40
0.5277777777777778
 40
0.5277777777777778
 40
0.5277777777777778
 40
0.5277777777777778
 40
0.5555555555555556
 40
0.5555555555555556
 40
0.5555555555555556
 40
0.5555555555555556
 40
0.5833333333333334
 40
0.5833333333333334
 40
0.5833333333333334
 40
0.5833333333333334
 40
0.6111111111111112
 40
0.6111111111111112
 40
0.6111111111111112
 40
0.6111111111111112
 40
0.6388888888888888
 40
0.6388888888888888
 40
0.6388888888888888
 40
0.6388888888888888
 40
0.6666666666666666
 40
0.6666666666666666
 40
0.6666666666666666
 40
0.6666666666666666
 40
0.6944444444444444
 40
0.6944444444444444
 40
0.6944444444444444
 40
0.6944444444444444
 40
0.7222222222222222
 40
0.7222222222222222
 40
0.7222222222222222
 40
0.7222222222222222
 40
0.75
 40
0.75
 40
0.75
 40
0.75
 40
0.7777777777777778
 40
0.7777777777777778
 40
0.7777777777777778
 40
0.7777777777777778
 40
0.8055555555555556
 40
0.8055555555555556
 40
0.8055555555555556
 40
0.8055555555555556
 40
0.8333333333333334
 40
0.8333333333333334
 40
0.8333333333333334
 40
0.8333333333333334
 40
0.8611111111111112
 40
0.8611111111111112
 40
0.8611111111111112
 40
0.8611111111111112
 40
0.8888888888888888
 40
0.8888888888888888
 40
0.8888888888888888
 40
0.8888888888888888
 40
0.9166666666666666
 40
0.9166666666666666
 40
0.9166666666666666
 40
0.9166666666666666
 40
0.9444444444444444
 40
0.9444444444444444
 40
0.9444444444444444
 40
0.9444444444444444
 40
1.0
 40
1.0
 40
1.0
 40
1.0
 10
-1.17184
 20
0.87238
 30
0.0
 10
-1.17184
 20
0.87238
 30
0.0
 10
-1.13416
 20
0.87576
 30
0.0
 10
-1.13416
 20
0.87576
 30
0.0
 10
-1.13416
 20
0.87576
 30
0.0
 10
-1.1324
 20
0.86052
 30
0.0
 10
-1.12823
 20
0.84803
 30
0.0
 10
-1.12167
 20
0.83823
 30
0.0
 10
-1.12167
 20
0.83823
 30
0.0
 10
-1.11511
 20
0.82849
 30
0.0
 10
-1.10495
 20
0.82059
 30
0.0
 10
-1.09119
 20
0.81452
 30
0.0
 10
-1.09119
 20
0.81452
 30
0.0
 10
-1.07743
 20
0.80852
 30
0.0
 10
-1.06191
 20
0.80549
 30
0.0
 10
-1.0447
 20
0.80549
 30
0.0
 10
-1.0447
 20
0.80549
 30
0.0
 10
-1.02939
 20
0.80549
 30
0.0
 10
-1.01591
 20
0.80775
 30
0.0
 10
-1.0042
 20
0.81233
 30
0.0
 10
-1.0042
 20
0.81233
 30
0.0
 10
-0.99249
 20
0.81692
 30
0.0
 10
-0.98381
 20
0.8232
 30
0.0
 10
-0.97809
 20
0.83117
 30
0.0
 10
-0.97809
 20
0.83117
 30
0.0
 10
-0.97238
 20
0.83914
 30
0.0
 10
-0.96949
 20
0.84782
 30
0.0
 10
-0.96949
 20
0.85714
 30
0.0
 10
-0.96949
 20
0.85714
 30
0.0
 10
-0.96949
 20
0.86659
 30
0.0
 10
-0.97224
 20
0.87485
 30
0.0
 10
-0.97774
 20
0.88197
 30
0.0
 10
-0.97774
 20
0.88197
 30
0.0
 10
-0.98324
 20
0.88903
 30
0.0
 10
-0.99234
 20
0.89495
 30
0.0
 10
-1.00504
 20
0.89982
 30
0.0
 10
-1.00504
 20
0.89982
 30
0.0
 10
-1.01316
 20
0.90293
 30
0.0
 10
-1.03115
 20
0.90787
 30
0.0
 10
-1.05902
 20
0.91457
 30
0.0
 10
-1.05902
 20
0.91457
 30
0.0
 10
-1.08689
 20
0.92127
 30
0.0
 10
-1.10636
 20
0.92755
 30
0.0
 10
-1.11751
 20
0.93348
 30
0.0
 10
-1.11751
 20
0.93348
 30
0.0
 10
-1.13197
 20
0.9411
 30
0.0
 10
-1.1427
 20
0.95055
 30
0.0
 10
-1.14975
 20
0.96177
 30
0.0
 10
-1.14975
 20
0.96177
 30
0.0
 10
-1.15688
 20
0.97299
 30
0.0
 10
-1.16041
 20
0.98562
 30
0.0
 10
-1.16041
 20
0.99952
 30
0.0
 10
-1.16041
 20
0.99952
 30
0.0
 10
-1.16041
 20
1.0149
 30
0.0
 10
-1.15603
 20
1.02922
 30
0.0
 10
-1.14735
 20
1.04248
 30
0.0
 10
-1.14735
 20
1.04248
 30
0.0
 10
-1.13868
 20
1.05582
 30
0.0
 10
-1.12605
 20
1.06591
 30
0.0
 10
-1.10933
 20
1.07282
 30
0.0
 10
-1.10933
 20
1.07282
 30
0.0
 10
-1.09267
 20
1.07974
 30
0.0
 10
-1.07412
 20
1.08319
 30
0.0
 10
-1.05373
 20
1.08319
 30
0.0
 10
-1.05373
 20
1.08319
 30
0.0
 10
-1.03129
 20
1.08319
 30
0.0
 10
-1.01147
 20
1.0796
 30
0.0
 10
-0.99432
 20
1.07233
 30
0.0
 10
-0.99432
 20
1.07233
 30
0.0
 10
-0.97718
 20
1.06513
 30
0.0
 10
-0.96398
 20
1.05448
 30
0.0
 10
-0.95474
 20
1.04037
 30
0.0
 10
-0.95474
 20
1.04037
 30
0.0
 10
-0.9455
 20
1.02633
 30
0.0
 10
-0.94056
 20
1.01038
 30
0.0
 10
-0.93985
 20
0.9926
 30
0.0
 10
-0.93985
 20
0.9926
 30
0.0
 10
-0.93985
 20
0.9926
 30
0.0
 10
-0.97838
 20
0.98964
 30
0.0
 10
-0.97838
 20
0.98964
 30
0.0
 10
-0.97838
 20
0.98964
 30
0.0
 10
-0.98042
 20
1.00876
 30
0.0
 10
-0.98741
 20
1.02322
 30
0.0
 10
-0.99933
 20
1.03296
 30
0.0
 10
-0.99933
 20
1.03296
 30
0.0
 10
-1.01125
 20
1.04277
 30
0.0
 10
-1.02889
 20
1.04763
 30
0.0
 10
-1.05218
 20
1.04763
 30
0.0
 10
-1.05218
 20
1.04763
 30
0.0
 10
-1.07645
 20
1.04763
 30
0.0
 10
-1.09416
 20
1.04319
 30
0.0
 10
-1.10523
 20
1.0343
 30
0.0
 10
-1.10523
 20
1.0343
 30
0.0
 10
-1.11631
 20
1.02541
 30
0.0
 10
-1.12188
 20
1.01469
 30
0.0
 10
-1.12188
 20
1.00213
 30
0.0
 10
-1.12188
 20
1.00213
 30
0.0
 10
-1.12188
 20
0.99126
 30
0.0
 10
-1.11793
 20
0.9823
 30
0.0
 10
-1.1101
 20
0.97525
 30
0.0
 10
-1.1101
 20
0.97525
 30
0.0
 10
-1.10234
 20
0.96826
 30
0.0
 10
-1.08223
 20
0.96099
 30
0.0
 10
-1.04964
 20
0.95366
 30
0.0
 10
-1.04964
 20
0.95366
 30
0.0
 10
-1.01704
 20
0.94625
 30
0.0
 10
-0.99467
 20
0.93983
 30
0.0
 10
-0.98254
 20
0.93432
 30
0.0
 10
-0.98254
 20
0.93432
 30
0.0
 10
-0.96497
 20
0.92621
 30
0.0
 10
-0.95192
 20
0.91598
 30
0.0
 10
-0.94352
 20
0.90349
 30
0.0
 10
-0.94352
 20
0.90349
 30
0.0
 10
-0.93512
 20
0.89107
 30
0.0
 10
-0.93096
 20
0.87675
 30
0.0
 10
-0.93096
 20
0.86052
 30
0.0
 10
-0.93096
 20
0.86052
 30
0.0
 10
-0.93096
 20
0.84437
 30
0.0
 10
-0.93555
 20
0.82927
 30
0.0
 10
-0.94479
 20
0.81501
 30
0.0
 10
-0.94479
 20
0.81501
 30
0.0
 10
-0.95403
 20
0.80076
 30
0.0
 10
-0.96723
 20
0.78969
 30
0.0
 10
-0.98451
 20
0.78178
 30
0.0
 10
-0.98451
 20
0.78178
 30
0.0
 10
-1.0018
 20
0.77388
 30
0.0
 10
-1.0212
 20
0.76993
 30
0.0
 10
-1.04286
 20
0.76993
 30
0.0
 10
-1.04286
 20
0.76993
 30
0.0
 10
-1.07024
 20
0.76993
 30
0.0
 10
-1.09317
 20
0.77395
 30
0.0
 10
-1.11165
 20
0.78192
 30
0.0
 10
-1.11165
 20
0.78192
 30
0.0
 10
-1.13021
 20
0.7899
 30
0.0
 10
-1.14467
 20
0.80189
 30
0.0
 10
-1.15519
 20
0.81798
 30
0.0
 10
-1.15519
 20
0.81798
 30
0.0
 10
-1.16577
 20
0.83399
 30
0.0
 10
-1.17127
 20
0.85213
 30
0.0
 10
-1.17184
 20
0.87238
 30
0.0
  0
SPLINE
  5
90
330
1F
100
AcDbEntity
  8
Layer 1
 62
     1
100
AcDbSpline
210
0.0
220
0.0
230
1.0
 70
    11
 71
     3
 72
    76
 73
    72
 74
     0
 42
0.0000000001
 43
0.0000000001
 12
1.0
 22
0.0
 32
0.0
 13
1.0
 23
0.0
 33
0.0
 40
0.0
 40
0.0
 40
0.0
 40
0.0
 40
0.0526315789473684
 40
0.0526315789473684
 40
0.0526315789473684
 40
0.0526315789473684
 40
0.1052631578947368
 40
0.1052631578947368
 40
0.1052631578947368
 40
0.1052631578947368
 40
0.1578947368421053
 40
0.1578947368421053
 40
0.1578947368421053
 40
0.1578947368421053
 40
0.2105263157894737
 40
0.2105263157894737
 40
0.2105263157894737
 40
0.2105263157894737
 40
0.2631578947368421
 40
0.2631578947368421
 40
0.2631578947368421
 40
0.2631578947368421
 40
0.3157894736842105
 40
0.3157894736842105
 40
0.3157894736842105
 40
0.3157894736842105
 40
0.3684210526315789
 40
0.3684210526315789
 40
0.3684210526315789
 40
0.3684210526315789
 40
0.4210526315789473
 40
0.4210526315789473
 40
0.4210526315789473
 40
0.4210526315789473
 40
0.4736842105263158
 40
0.4736842105263158
 40
0.4736842105263158
 40
0.4736842105263158
 40
0.5263157894736842
 40
0.5263157894736842
 40
0.5263157894736842
 40
0.5263157894736842
 40
0.5789473684210527
 40
0.5789473684210527
 40
0.5789473684210527
 40
0.5789473684210527
 40
0.631578947368421
 40
0.631578947368421
 40
0.631578947368421
 40
0.631578947368421
 40
0.6842105263157895
 40
0.6842105263157895
 40
0.6842105263157895
 40
0.6842105263157895
 40
0.7368421052631579
 40
0.7368421052631579
 40
0.7368421052631579
 40
0.7368421052631579
 40
0.7894736842105263
 40
0.7894736842105263
 40
0.7894736842105263
 40
0.7894736842105263
 40
0.8421052631578947
 40
0.8421052631578947
 40
0.8421052631578947
 40
0.8421052631578947
 40
0.8947368421052632
 40
0.8947368421052632
 40
0.8947368421052632
 40
0.8947368421052632
 40
1.0
 40
1.0
 40
1.0
 40
1.0
 10
-0.8415
 20
0.77501
 30
0.0
 10
-0.8415
 20
0.77501
 30
0.0
 10
-0.90789
 20
0.99472
 30
0.0
 10
-0.90789
 20
0.99472
 30
0.0
 10
-0.90789
 20
0.99472
 30
0.0
 10
-0.90789
 20
0.99472
 30
0.0
 10
-0.86895
 20
0.99472
 30
0.0
 10
-0.86895
 20
0.99472
 30
0.0
 10
-0.86895
 20
0.99472
 30
0.0
 10
-0.86895
 20
0.99472
 30
0.0
 10
-0.83388
 20
0.86793
 30
0.0
 10
-0.83388
 20
0.86793
 30
0.0
 10
-0.83388
 20
0.86793
 30
0.0
 10
-0.83388
 20
0.86793
 30
0.0
 10
-0.82146
 20
0.82073
 30
0.0
 10
-0.82146
 20
0.82073
 30
0.0
 10
-0.82146
 20
0.82073
 30
0.0
 10
-0.82097
 20
0.82306
 30
0.0
 10
-0.81716
 20
0.83816
 30
0.0
 10
-0.8101
 20
0.86603
 30
0.0
 10
-0.8101
 20
0.86603
 30
0.0
 10
-0.8101
 20
0.86603
 30
0.0
 10
-0.77532
 20
0.99472
 30
0.0
 10
-0.77532
 20
0.99472
 30
0.0
 10
-0.77532
 20
0.99472
 30
0.0
 10
-0.77532
 20
0.99472
 30
0.0
 10
-0.73715
 20
0.99472
 30
0.0
 10
-0.73715
 20
0.99472
 30
0.0
 10
-0.73715
 20
0.99472
 30
0.0
 10
-0.73715
 20
0.99472
 30
0.0
 10
-0.70406
 20
0.86715
 30
0.0
 10
-0.70406
 20
0.86715
 30
0.0
 10
-0.70406
 20
0.86715
 30
0.0
 10
-0.70406
 20
0.86715
 30
0.0
 10
-0.69326
 20
0.82532
 30
0.0
 10
-0.69326
 20
0.82532
 30
0.0
 10
-0.69326
 20
0.82532
 30
0.0
 10
-0.69326
 20
0.82532
 30
0.0
 10
-0.68063
 20
0.86772
 30
0.0
 10
-0.68063
 20
0.86772
 30
0.0
 10
-0.68063
 20
0.86772
 30
0.0
 10
-0.68063
 20
0.86772
 30
0.0
 10
-0.64268
 20
0.99472
 30
0.0
 10
-0.64268
 20
0.99472
 30
0.0
 10
-0.64268
 20
0.99472
 30
0.0
 10
-0.64268
 20
0.99472
 30
0.0
 10
-0.60648
 20
0.99472
 30
0.0
 10
-0.60648
 20
0.99472
 30
0.0
 10
-0.60648
 20
0.99472
 30
0.0
 10
-0.60648
 20
0.99472
 30
0.0
 10
-0.67541
 20
0.77501
 30
0.0
 10
-0.67541
 20
0.77501
 30
0.0
 10
-0.67541
 20
0.77501
 30
0.0
 10
-0.67541
 20
0.77501
 30
0.0
 10
-0.71394
 20
0.77501
 30
0.0
 10
-0.71394
 20
0.77501
 30
0.0
 10
-0.71394
 20
0.77501
 30
0.0
 10
-0.71394
 20
0.77501
 30
0.0
 10
-0.74879
 20
0.90645
 30
0.0
 10
-0.74879
 20
0.90645
 30
0.0
 10
-0.74879
 20
0.90645
 30
0.0
 10
-0.74879
 20
0.90645
 30
0.0
 10
-0.75761
 20
0.94406
 30
0.0
 10
-0.75761
 20
0.94406
 30
0.0
 10
-0.75761
 20
0.94406
 30
0.0
 10
-0.75761
 20
0.94406
 30
0.0
 10
-0.80206
 20
0.77501
 30
0.0
 10
-0.80206
 20
0.77501
 30
0.0
 10
-0.80206
 20
0.77501
 30
0.0
 10
-0.80206
 20
0.77501
 30
0.0
 10
-0.8415
 20
0.77501
 30
0.0
 10
-0.8415
 20
0.77501
 30
0.0
  0
SPLINE
  5
91
330
1F
100
AcDbEntity
  8
Layer 1
 62
     1
100
AcDbSpline
210
0.0
220
0.0
230
1.0
 70
    11
 71
     3
 72
    20
 73
    16
 74
     0
 42
0.0000000001
 43
0.0000000001
 12
1.0
 22
0.0
 32
0.0
 13
1.0
 23
0.0
 33
0.0
 40
0.0
 40
0.0
 40
0.0
 40
0.0
 40
0.2
 40
0.2
 40
0.2
 40
0.2
 40
0.4
 40
0.4
 40
0.4
 40
0.4
 40
0.6
 40
0.6
 40
0.6
 40
0.6
 40
1.0
 40
1.0
 40
1.0
 40
1.0
 10
-0.5753
 20
1.03578
 30
0.0
 10
-0.5753
 20
1.03578
 30
0.0
 10
-0.5753
 20
1.07811
 30
0.0
 10
-0.5753
 20
1.07811
 30
0.0
 10
-0.5753
 20
1.07811
 30
0.0
 10
-0.5753
 20
1.07811
 30
0.0
 10
-0.53805
 20
1.07811
 30
0.0
 10
-0.53805
 20
1.07811
 30
0.0
 10
-0.53805
 20
1.07811
 30
0.0
 10
-0.53805
 20
1.07811
 30
0.0
 10
-0.53805
 20
1.03578
 30
0.0
 10
-0.53805
 20
1.03578
 30
0.0
 10
-0.53805
 20
1.03578
 30
0.0
 10
-0.53805
 20
1.03578
 30
0.0
 10
-0.5753
 20
1.03578
 30
0.0
 10
-0.5753
 20
1.03578
 30
0.0
  0
SPLINE
  5
92
330
1F
100
AcDbEntity
  8
Layer 1
 62
     1
100
AcDbSpline
210
0.0
220
0.0
230
1.0
 70
    11
 71
     3
 72
    20
 73
    16
 74
     0
 42
0.0000000001
 43
0.0000000001
 12
1.0
 22
0.0
 32
0.0
 13
1.0
 23
0.0
 33
0.0
 40
0.0
 40
0.0
 40
0.0
 40
0.0
 40
0.2
 40
0.2
 40
0.2
 40
0.2
 40
0.4
 40
0.4
 40
0.4
 40
0.4
 40
0.6
 40
0.6
 40
0.6
 40
0.6
 40
1.0
 40
1.0
 40
1.0
 40
1.0
 10
-0.5753
 20
0.77501
 30
0.0
 10
-0.5753
 20
0.77501
 30
0.0
 10
-0.5753
 20
0.99472
 30
0.0
 10
-0.5753
 20
0.99472
 30
0.0
 10
-0.5753
 20
0.99472
 30
0.0
 10
-0.5753
 20
0.99472
 30
0.0
 10
-0.53805
 20
0.99472
 30
0.0
 10
-0.53805
 20
0.99472
 30
0.0
 10
-0.53805
 20
0.99472
 30
0.0
 10
-0.53805
 20
0.99472
 30
0.0
 10
-0.53805
 20
0.77501
 30
0.0
 10
-0.53805
 20
0.77501
 30
0.0
 10
-0.53805
 20
0.77501
 30
0.0
 10
-0.53805
 20
0.77501
 30
0.0
 10
-0.5753
 20
0.77501
 30
0.0
 10
-0.5753
 20
0.77501
 30
0.0
  0
SPLINE
  5
93
330
1F
100
AcDbEntity
  8
Layer 1
 62
     1
100
AcDbSpline
210
0.0
220
0.0
230
1.0
 70
    11
 71
     3
 72
    84
 73
    80
 74
     0
 42
0.0000000001
 43
0.0000000001
 12
1.0
 22
0.0
 32
0.0
 13
1.0
 23
0.0
 33
0.0
 40
0.0
 40
0.0
 40
0.0
 40
0.0
 40
0.0476190476190476
 40
0.0476190476190476
 40
0.0476190476190476
 40
0.0476190476190476
 40
0.0952380952380952
 40
0.0952380952380952
 40
0.0952380952380952
 40
0.0952380952380952
 40
0.1428571428571428
 40
0.1428571428571428
 40
0.1428571428571428
 40
0.1428571428571428
 40
0.1904761904761905
 40
0.1904761904761905
 40
0.1904761904761905
 40
0.1904761904761905
 40
0.2380952380952381
 40
0.2380952380952381
 40
0.2380952380952381
 40
0.2380952380952381
 40
0.2857142857142857
 40
0.2857142857142857
 40
0.2857142857142857
 40
0.2857142857142857
 40
0.3333333333333333
 40
0.3333333333333333
 40
0.3333333333333333
 40
0.3333333333333333
 40
0.3809523809523809
 40
0.3809523809523809
 40
0.3809523809523809
 40
0.3809523809523809
 40
0.4285714285714285
 40
0.4285714285714285
 40
0.4285714285714285
 40
0.4285714285714285
 40
0.4761904761904762
 40
0.4761904761904762
 40
0.4761904761904762
 40
0.4761904761904762
 40
0.5238095238095238
 40
0.5238095238095238
 40
0.5238095238095238
 40
0.5238095238095238
 40
0.5714285714285714
 40
0.5714285714285714
 40
0.5714285714285714
 40
0.5714285714285714
 40
0.6190476190476191
 40
0.6190476190476191
 40
0.6190476190476191
 40
0.6190476190476191
 40
0.6666666666666666
 40
0.6666666666666666
 40
0.6666666666666666
 40
0.6666666666666666
 40
0.7142857142857143
 40
0.7142857142857143
 40
0.7142857142857143
 40
0.7142857142857143
 40
0.7619047619047619
 40
0.7619047619047619
 40
0.7619047619047619
 40
0.7619047619047619
 40
0.8095238095238095
 40
0.8095238095238095
 40
0.8095238095238095
 40
0.8095238095238095
 40
0.8571428571428571
 40
0.8571428571428571
 40
0.8571428571428571
 40
0.8571428571428571
 40
0.9047619047619048
 40
0.9047619047619048
 40
0.9047619047619048
 40
0.9047619047619048
 40
1.0
 40
1.0
 40
1.0
 40
1.0
 10
-0.40039
 20
0.80824
 30
0.0
 10
-0.40039
 20
0.80824
 30
0.0
 10
-0.39531
 20
0.77536
 30
0.0
 10
-0.39531
 20
0.77536
 30
0.0
 10
-0.39531
 20
0.77536
 30
0.0
 10
-0.40576
 20
0.77318
 30
0.0
 10
-0.41514
 20
0.77205
 30
0.0
 10
-0.42332
 20
0.77205
 30
0.0
 10
-0.42332
 20
0.77205
 30
0.0
 10
-0.4368
 20
0.77205
 30
0.0
 10
-0.44724
 20
0.77416
 30
0.0
 10
-0.45472
 20
0.77847
 30
0.0
 10
-0.45472
 20
0.77847
 30
0.0
 10
-0.46213
 20
0.78277
 30
0.0
 10
-0.46735
 20
0.78834
 30
0.0
 10
-0.47038
 20
0.79533
 30
0.0
 10
-0.47038
 20
0.79533
 30
0.0
 10
-0.47342
 20
0.80231
 30
0.0
 10
-0.4749
 20
0.81699
 30
0.0
 10
-0.4749
 20
0.83936
 30
0.0
 10
-0.4749
 20
0.83936
 30
0.0
 10
-0.4749
 20
0.83936
 30
0.0
 10
-0.4749
 20
0.96593
 30
0.0
 10
-0.4749
 20
0.96593
 30
0.0
 10
-0.4749
 20
0.96593
 30
0.0
 10
-0.4749
 20
0.96593
 30
0.0
 10
-0.50242
 20
0.96593
 30
0.0
 10
-0.50242
 20
0.96593
 30
0.0
 10
-0.50242
 20
0.96593
 30
0.0
 10
-0.50242
 20
0.96593
 30
0.0
 10
-0.50242
 20
0.99472
 30
0.0
 10
-0.50242
 20
0.99472
 30
0.0
 10
-0.50242
 20
0.99472
 30
0.0
 10
-0.50242
 20
0.99472
 30
0.0
 10
-0.4749
 20
0.99472
 30
0.0
 10
-0.4749
 20
0.99472
 30
0.0
 10
-0.4749
 20
0.99472
 30
0.0
 10
-0.4749
 20
0.99472
 30
0.0
 10
-0.4749
 20
1.04905
 30
0.0
 10
-0.4749
 20
1.04905
 30
0.0
 10
-0.4749
 20
1.04905
 30
0.0
 10
-0.4749
 20
1.04905
 30
0.0
 10
-0.43765
 20
1.07141
 30
0.0
 10
-0.43765
 20
1.07141
 30
0.0
 10
-0.43765
 20
1.07141
 30
0.0
 10
-0.43765
 20
1.07141
 30
0.0
 10
-0.43765
 20
0.99472
 30
0.0
 10
-0.43765
 20
0.99472
 30
0.0
 10
-0.43765
 20
0.99472
 30
0.0
 10
-0.43765
 20
0.99472
 30
0.0
 10
-0.40039
 20
0.99472
 30
0.0
 10
-0.40039
 20
0.99472
 30
0.0
 10
-0.40039
 20
0.99472
 30
0.0
 10
-0.40039
 20
0.99472
 30
0.0
 10
-0.40039
 20
0.96593
 30
0.0
 10
-0.40039
 20
0.96593
 30
0.0
 10
-0.40039
 20
0.96593
 30
0.0
 10
-0.40039
 20
0.96593
 30
0.0
 10
-0.43765
 20
0.96593
 30
0.0
 10
-0.43765
 20
0.96593
 30
0.0
 10
-0.43765
 20
0.96593
 30
0.0
 10
-0.43765
 20
0.96593
 30
0.0
 10
-0.43765
 20
0.83724
 30
0.0
 10
-0.43765
 20
0.83724
 30
0.0
 10
-0.43765
 20
0.83724
 30
0.0
 10
-0.43765
 20
0.82659
 30
0.0
 10
-0.43701
 20
0.81974
 30
0.0
 10
-0.43567
 20
0.81671
 30
0.0
 10
-0.43567
 20
0.81671
 30
0.0
 10
-0.4344
 20
0.81367
 30
0.0
 10
-0.43229
 20
0.81128
 30
0.0
 10
-0.42932
 20
0.80944
 30
0.0
 10
-0.42932
 20
0.80944
 30
0.0
 10
-0.42636
 20
0.80768
 30
0.0
 10
-0.42213
 20
0.80676
 30
0.0
 10
-0.41662
 20
0.80676
 30
0.0
 10
-0.41662
 20
0.80676
 30
0.0
 10
-0.41253
 20
0.80676
 30
0.0
 10
-0.4071
 20
0.80725
 30
0.0
 10
-0.40039
 20
0.80824
 30
0.0
  0
SPLINE
  5
94
330
1F
100
AcDbEntity
  8
Layer 1
 62
     1
100
AcDbSpline
210
0.0
220
0.0
230
1.0
 70
    11
 71
     3
 72
    80
 73
    76
 74
     0
 42
0.0000000001
 43
0.0000000001
 12
1.0
 22
0.0
 32
0.0
 13
1.0
 23
0.0
 33
0.0
 40
0.0
 40
0.0
 40
0.0
 40
0.0
 40
0.05
 40
0.05
 40
0.05
 40
0.05
 40
0.1
 40
0.1
 40
0.1
 40
0.1
 40
0.15
 40
0.15
 40
0.15
 40
0.15
 40
0.2
 40
0.2
 40
0.2
 40
0.2
 40
0.25
 40
0.25
 40
0.25
 40
0.25
 40
0.3
 40
0.3
 40
0.3
 40
0.3
 40
0.35
 40
0.35
 40
0.35
 40
0.35
 40
0.4
 40
0.4
 40
0.4
 40
0.4
 40
0.45
 40
0.45
 40
0.45
 40
0.45
 40
0.5
 40
0.5
 40
0.5
 40
0.5
 40
0.55
 40
0.55
 40
0.55
 40
0.55
 40
0.6
 40
0.6
 40
0.6
 40
0.6
 40
0.65
 40
0.65
 40
0.65
 40
0.65
 40
0.7
 40
0.7
 40
0.7
 40
0.7
 40
0.75
 40
0.75
 40
0.75
 40
0.75
 40
0.8
 40
0.8
 40
0.8
 40
0.8
 40
0.85
 40
0.85
 40
0.85
 40
0.85
 40
0.9
 40
0.9
 40
0.9
 40
0.9
 40
1.0
 40
1.0
 40
1.0
 40
1.0
 10
-0.22012
 20
0.85544
 30
0.0
 10
-0.22012
 20
0.85544
 30
0.0
 10
-0.18371
 20
0.85036
 30
0.0
 10
-0.18371
 20
0.85036
 30
0.0
 10
-0.18371
 20
0.85036
 30
0.0
 10
-0.18774
 20
0.82532
 30
0.0
 10
-0.1979
 20
0.80577
 30
0.0
 10
-0.21434
 20
0.79159
 30
0.0
 10
-0.21434
 20
0.79159
 30
0.0
 10
-0.23078
 20
0.77741
 30
0.0
 10
-0.25102
 20
0.77035
 30
0.0
 10
-0.27494
 20
0.77035
 30
0.0
 10
-0.27494
 20
0.77035
 30
0.0
 10
-0.30493
 20
0.77035
 30
0.0
 10
-0.32906
 20
0.78016
 30
0.0
 10
-0.34726
 20
0.79977
 30
0.0
 10
-0.34726
 20
0.79977
 30
0.0
 10
-0.36554
 20
0.81939
 30
0.0
 10
-0.37464
 20
0.84747
 30
0.0
 10
-0.37464
 20
0.88402
 30
0.0
 10
-0.37464
 20
0.88402
 30
0.0
 10
-0.37464
 20
0.90772
 30
0.0
 10
-0.37069
 20
0.9284
 30
0.0
 10
-0.36285
 20
0.94618
 30
0.0
 10
-0.36285
 20
0.94618
 30
0.0
 10
-0.35502
 20
0.96389
 30
0.0
 10
-0.3431
 20
0.97722
 30
0.0
 10
-0.32701
 20
0.98604
 30
0.0
 10
-0.32701
 20
0.98604
 30
0.0
 10
-0.311
 20
0.99493
 30
0.0
 10
-0.29357
 20
0.99937
 30
0.0
 10
-0.27466
 20
0.99937
 30
0.0
 10
-0.27466
 20
0.99937
 30
0.0
 10
-0.25088
 20
0.99937
 30
0.0
 10
-0.23134
 20
0.99338
 30
0.0
 10
-0.21624
 20
0.98131
 30
0.0
 10
-0.21624
 20
0.98131
 30
0.0
 10
-0.20107
 20
0.96925
 30
0.0
 10
-0.19133
 20
0.9521
 30
0.0
 10
-0.1871
 20
0.92995
 30
0.0
 10
-0.1871
 20
0.92995
 30
0.0
 10
-0.1871
 20
0.92995
 30
0.0
 10
-0.22308
 20
0.92445
 30
0.0
 10
-0.22308
 20
0.92445
 30
0.0
 10
-0.22308
 20
0.92445
 30
0.0
 10
-0.22654
 20
0.93919
 30
0.0
 10
-0.23261
 20
0.95027
 30
0.0
 10
-0.24143
 20
0.95775
 30
0.0
 10
-0.24143
 20
0.95775
 30
0.0
 10
-0.25018
 20
0.96516
 30
0.0
 10
-0.26076
 20
0.9689
 30
0.0
 10
-0.27318
 20
0.9689
 30
0.0
 10
-0.27318
 20
0.9689
 30
0.0
 10
-0.29195
 20
0.9689
 30
0.0
 10
-0.30719
 20
0.96219
 30
0.0
 10
-0.31897
 20
0.94879
 30
0.0
 10
-0.31897
 20
0.94879
 30
0.0
 10
-0.33068
 20
0.93531
 30
0.0
 10
-0.33654
 20
0.91414
 30
0.0
 10
-0.33654
 20
0.88508
 30
0.0
 10
-0.33654
 20
0.88508
 30
0.0
 10
-0.33654
 20
0.85558
 30
0.0
 10
-0.33089
 20
0.83421
 30
0.0
 10
-0.3196
 20
0.82087
 30
0.0
 10
-0.3196
 20
0.82087
 30
0.0
 10
-0.30824
 20
0.80754
 30
0.0
 10
-0.2935
 20
0.80083
 30
0.0
 10
-0.27537
 20
0.80083
 30
0.0
 10
-0.27537
 20
0.80083
 30
0.0
 10
-0.26069
 20
0.80083
 30
0.0
 10
-0.24848
 20
0.80528
 30
0.0
 10
-0.23875
 20
0.81424
 30
0.0
 10
-0.23875
 20
0.81424
 30
0.0
 10
-0.22894
 20
0.82313
 30
0.0
 10
-0.22273
 20
0.83689
 30
0.0
 10
-0.22012
 20
0.85544
 30
0.0
  0
SPLINE
  5
95
330
1F
100
AcDbEntity
  8
Layer 1
 62
     1
100
AcDbSpline
210
0.0
220
0.0
230
1.0
 70
    11
 71
     3
 72
    72
 73
    68
 74
     0
 42
0.0000000001
 43
0.0000000001
 12
1.0
 22
0.0
 32
0.0
 13
1.0
 23
0.0
 33
0.0
 40
0.0
 40
0.0
 40
0.0
 40
0.0
 40
0.0555555555555556
 40
0.0555555555555556
 40
0.0555555555555556
 40
0.0555555555555556
 40
0.1111111111111111
 40
0.1111111111111111
 40
0.1111111111111111
 40
0.1111111111111111
 40
0.1666666666666667
 40
0.1666666666666667
 40
0.1666666666666667
 40
0.1666666666666667
 40
0.2222222222222222
 40
0.2222222222222222
 40
0.2222222222222222
 40
0.2222222222222222
 40
0.2777777777777778
 40
0.2777777777777778
 40
0.2777777777777778
 40
0.2777777777777778
 40
0.3333333333333333
 40
0.3333333333333333
 40
0.3333333333333333
 40
0.3333333333333333
 40
0.3888888888888889
 40
0.3888888888888889
 40
0.3888888888888889
 40
0.3888888888888889
 40
0.4444444444444444
 40
0.4444444444444444
 40
0.4444444444444444
 40
0.4444444444444444
 40
0.5
 40
0.5
 40
0.5
 40
0.5
 40
0.5555555555555556
 40
0.5555555555555556
 40
0.5555555555555556
 40
0.5555555555555556
 40
0.6111111111111112
 40
0.6111111111111112
 40
0.6111111111111112
 40
0.6111111111111112
 40
0.6666666666666666
 40
0.6666666666666666
 40
0.6666666666666666
 40
0.6666666666666666
 40
0.7222222222222222
 40
0.7222222222222222
 40
0.7222222222222222
 40
0.7222222222222222
 40
0.7777777777777778
 40
0.7777777777777778
 40
0.7777777777777778
 40
0.7777777777777778
 40
0.8333333333333334
 40
0.8333333333333334
 40
0.8333333333333334
 40
0.8333333333333334
 40
0.8888888888888888
 40
0.8888888888888888
 40
0.8888888888888888
 40
0.8888888888888888
 40
1.0
 40
1.0
 40
1.0
 40
1.0
 10
-0.15196
 20
0.77501
 30
0.0
 10
-0.15196
 20
0.77501
 30
0.0
 10
-0.15196
 20
1.07811
 30
0.0
 10
-0.15196
 20
1.07811
 30
0.0
 10
-0.15196
 20
1.07811
 30
0.0
 10
-0.15196
 20
1.07811
 30
0.0
 10
-0.11471
 20
1.07811
 30
0.0
 10
-0.11471
 20
1.07811
 30
0.0
 10
-0.11471
 20
1.07811
 30
0.0
 10
-0.11471
 20
1.07811
 30
0.0
 10
-0.11471
 20
0.96904
 30
0.0
 10
-0.11471
 20
0.96904
 30
0.0
 10
-0.11471
 20
0.96904
 30
0.0
 10
-0.09742
 20
0.98929
 30
0.0
 10
-0.07562
 20
0.99937
 30
0.0
 10
-0.04923
 20
0.99937
 30
0.0
 10
-0.04923
 20
0.99937
 30
0.0
 10
-0.03308
 20
0.99937
 30
0.0
 10
-0.01903
 20
0.9962
 30
0.0
 10
-0.00704
 20
0.98978
 30
0.0
 10
-0.00704
 20
0.98978
 30
0.0
 10
0.00488
 20
0.98336
 30
0.0
 10
0.01342
 20
0.97454
 30
0.0
 10
0.01857
 20
0.96325
 30
0.0
 10
0.01857
 20
0.96325
 30
0.0
 10
0.02372
 20
0.95196
 30
0.0
 10
0.02626
 20
0.93552
 30
0.0
 10
0.02626
 20
0.91407
 30
0.0
 10
0.02626
 20
0.91407
 30
0.0
 10
0.02626
 20
0.91407
 30
0.0
 10
0.02626
 20
0.77501
 30
0.0
 10
0.02626
 20
0.77501
 30
0.0
 10
0.02626
 20
0.77501
 30
0.0
 10
0.02626
 20
0.77501
 30
0.0
 10
-0.01099
 20
0.77501
 30
0.0
 10
-0.01099
 20
0.77501
 30
0.0
 10
-0.01099
 20
0.77501
 30
0.0
 10
-0.01099
 20
0.77501
 30
0.0
 10
-0.01099
 20
0.91393
 30
0.0
 10
-0.01099
 20
0.91393
 30
0.0
 10
-0.01099
 20
0.91393
 30
0.0
 10
-0.01099
 20
0.93249
 30
0.0
 10
-0.01501
 20
0.94604
 30
0.0
 10
-0.02299
 20
0.9545
 30
0.0
 10
-0.02299
 20
0.9545
 30
0.0
 10
-0.03103
 20
0.96297
 30
0.0
 10
-0.04232
 20
0.9672
 30
0.0
 10
-0.05699
 20
0.9672
 30
0.0
 10
-0.05699
 20
0.9672
 30
0.0
 10
-0.06793
 20
0.9672
 30
0.0
 10
-0.07823
 20
0.96438
 30
0.0
 10
-0.0879
 20
0.95866
 30
0.0
 10
-0.0879
 20
0.95866
 30
0.0
 10
-0.09756
 20
0.95295
 30
0.0
 10
-0.10441
 20
0.94519
 30
0.0
 10
-0.10857
 20
0.93538
 30
0.0
 10
-0.10857
 20
0.93538
 30
0.0
 10
-0.11266
 20
0.92564
 30
0.0
 10
-0.11471
 20
0.91217
 30
0.0
 10
-0.11471
 20
0.89495
 30
0.0
 10
-0.11471
 20
0.89495
 30
0.0
 10
-0.11471
 20
0.89495
 30
0.0
 10
-0.11471
 20
0.77501
 30
0.0
 10
-0.11471
 20
0.77501
 30
0.0
 10
-0.11471
 20
0.77501
 30
0.0
 10
-0.11471
 20
0.77501
 30
0.0
 10
-0.15196
 20
0.77501
 30
0.0
 10
-0.15196
 20
0.77501
 30
0.0
  0
ELLIPSE
  5
96
330
1F
100
AcDbEntity
  8
Layer 1
370
    18
100
AcDbEllipse
 10
1.80688
 20
-2.50716
 30
0.0
 11
0.0
 21
0.1
 31
0.0
210
0.0
220
0.0
230
1.0
 40
1.0
 41
0.0
 42
6.283185307179586
  0
ELLIPSE
  5
97
330
1F
100
AcDbEntity
  8
Layer 1
370
    18
100
AcDbEllipse
 10
1.81102
 20
-9.18883
 30
0.0
 11
0.0
 21
0.1
 31
0.0
210
0.0
220
0.0
230
1.0
 40
1.0
 41
0.0
 42
6.283185307179586
  0
ELLIPSE
  5
98
330
1F
100
AcDbEntity
  8
Layer 1
370
    18
100
AcDbEllipse
 10
-5.87541
 20
-2.50763
 30
0.0
 11
0.0
 21
0.1
 31
0.0
210
0.0
220
0.0
230
1.0
 40
1.0
 41
0.0
 42
6.283185307179586
  0
ELLIPSE
  5
99
330
1F
100
AcDbEntity
  8
Layer 1
370
    18
100
AcDbEllipse
 10
-5.87541
 20
-5.6919
 30
0.0
 11
0.0
 21
0.1
 31
0.0
210
0.0
220
0.0
230
1.0
 40
1.0
 41
0.0
 42
6.283185307179586
  0
ELLIPSE
  5
9A
330
1F
100
AcDbEntity
  8
Layer 1
370
    18
100
AcDbEllipse
 10
1.81607
 20
-5.6919
 30
0.0
 11
0.0
 21
0.1
 31
0.0
210
0.0
220
0.0
230
1.0
 40
1.0
 41
0.0
 42
6.283185307179586
  0
ELLIPSE
  5
9B
330
1F
100
AcDbEntity
  8
Layer 1
370
    18
100
AcDbEllipse
 10
-5.87128
 20
-9.18581
 30
0.0
 11
0.0
 21
0.1
 31
0.0
210
0.0
220
0.0
230
1.0
 40
1.0
 41
0.0
 42
6.283185307179586
  0
LWPOLYLINE
  5
9C
330
1F
100
AcDbEntity
  8
Layer 1
370
    18
100
AcDbPolyline
 90
        5
 70
     1
 43
0.0
 10
-5.70067
 20
-5.34555
 10
1.59933
 20
-5.34555
 10
1.59933
 20
-2.82555
 10
-5.70067
 20
-2.82555
 10
-5.70067
 20
-5.34555
  0
ELLIPSE
  5
9D
330
1F
100
AcDbEntity
  8
Layer 1
370
    18
100
AcDbEllipse
 10
-2.02986
 20
-7.63706
 30
0.0
 11
0.0
 21
0.50001
 31
0.0
210
0.0
220
0.0
230
1.0
 40
0.9999800003999921
 41
0.0
 42
6.283185307179586
  0
LWPOLYLINE
  5
9E
330
1F
100
AcDbEntity
  8
Layer 1
370
    18
100
AcDbPolyline
 90
        5
 70
     1
 43
0.0
 10
-4.82994
 20
-8.87357
 10
-3.57994
 20
-8.87357
 10
-3.57994
 20
-7.62357
 10
-4.82994
 20
-7.62357
 10
-4.82994
 20
-8.87357
  0
LWPOLYLINE
  5
9F
330
1F
100
AcDbEntity
  8
Layer 1
370
    18
100
AcDbPolyline
 90
        5
 70
     1
 43
0.0
 10
-4.82877
 20
-7.51123
 10
-3.57877
 20
-7.51123
 10
-3.57877
 20
-6.26123
 10
-4.82877
 20
-6.26123
 10
-4.82877
 20
-7.51123
  0
LWPOLYLINE
  5
A0
330
1F
100
AcDbEntity
  8
Layer 1
370
    18
100
AcDbPolyline
 90
        5
 70
     1
 43
0.0
 10
-0.42177
 20
-8.86823
 10
0.82823
 20
-8.86823
 10
0.82823
 20
-7.61823
 10
-0.42177
 20
-7.61823
 10
-0.42177
 20
-8.86823
  0
LWPOLYLINE
  5
A1
330
1F
100
AcDbEntity
  8
Layer 1
370
    18
100
AcDbPolyline
 90
        5
 70
     1
 43
0.0
 10
-0.4306
 20
-7.50589
 10
0.8194
 20
-7.50589
 10
0.8194
 20
-6.25589
 10
-0.4306
 20
-6.25589
 10
-0.4306
 20
-7.50589
  0
SPLINE
  5
A2
330
1F
100
AcDbEntity
  8
Layer 1
 62
     1
100
AcDbSpline
210
0.0
220
0.0
230
1.0
 70
    11
 71
     3
 72
    28
 73
    24
 74
     0
 42
0.0000000001
 43
0.0000000001
 12
1.0
 22
0.0
 32
0.0
 13
1.0
 23
0.0
 33
0.0
 40
0.0
 40
0.0
 40
0.0
 40
0.0
 40
0.1428571428571428
 40
0.1428571428571428
 40
0.1428571428571428
 40
0.1428571428571428
 40
0.2857142857142857
 40
0.2857142857142857
 40
0.2857142857142857
 40
0.2857142857142857
 40
0.4285714285714285
 40
0.4285714285714285
 40
0.4285714285714285
 40
0.4285714285714285
 40
0.5714285714285714
 40
0.5714285714285714
 40
0.5714285714285714
 40
0.5714285714285714
 40
0.7142857142857143
 40
0.7142857142857143
 40
0.7142857142857143
 40
0.7142857142857143
 40
1.0
 40
1.0
 40
1.0
 40
1.0
 10
-2.63129
 20
-10.64841
 30
0.0
 10
-2.63129
 20
-10.64841
 30
0.0
 10
-2.63129
 20
-10.04219
 30
0.0
 10
-2.63129
 20
-10.04219
 30
0.0
 10
-2.63129
 20
-10.04219
 30
0.0
 10
-2.63129
 20
-10.04219
 30
0.0
 10
-2.55086
 20
-10.04219
 30
0.0
 10
-2.55086
 20
-10.04219
 30
0.0
 10
-2.55086
 20
-10.04219
 30
0.0
 10
-2.55086
 20
-10.04219
 30
0.0
 10
-2.55086
 20
-10.57729
 30
0.0
 10
-2.55086
 20
-10.57729
 30
0.0
 10
-2.55086
 20
-10.57729
 30
0.0
 10
-2.55086
 20
-10.57729
 30
0.0
 10
-2.25283
 20
-10.57729
 30
0.0
 10
-2.25283
 20
-10.57729
 30
0.0
 10
-2.25283
 20
-10.57729
 30
0.0
 10
-2.25283
 20
-10.57729
 30
0.0
 10
-2.25283
 20
-10.64841
 30
0.0
 10
-2.25283
 20
-10.64841
 30
0.0
 10
-2.25283
 20
-10.64841
 30
0.0
 10
-2.25283
 20
-10.64841
 30
0.0
 10
-2.63129
 20
-10.64841
 30
0.0
 10
-2.63129
 20
-10.64841
 30
0.0
  0
SPLINE
  5
A3
330
1F
100
AcDbEntity
  8
Layer 1
 62
     1
100
AcDbSpline
210
0.0
220
0.0
230
1.0
 70
    11
 71
     3
 72
    36
 73
    32
 74
     0
 42
0.0000000001
 43
0.0000000001
 12
1.0
 22
0.0
 32
0.0
 13
1.0
 23
0.0
 33
0.0
 40
0.0
 40
0.0
 40
0.0
 40
0.0
 40
0.1111111111111111
 40
0.1111111111111111
 40
0.1111111111111111
 40
0.1111111111111111
 40
0.2222222222222222
 40
0.2222222222222222
 40
0.2222222222222222
 40
0.2222222222222222
 40
0.3333333333333333
 40
0.3333333333333333
 40
0.3333333333333333
 40
0.3333333333333333
 40
0.4444444444444444
 40
0.4444444444444444
 40
0.4444444444444444
 40
0.4444444444444444
 40
0.5555555555555556
 40
0.5555555555555556
 40
0.5555555555555556
 40
0.5555555555555556
 40
0.6666666666666666
 40
0.6666666666666666
 40
0.6666666666666666
 40
0.6666666666666666
 40
0.7777777777777778
 40
0.7777777777777778
 40
0.7777777777777778
 40
0.7777777777777778
 40
1.0
 40
1.0
 40
1.0
 40
1.0
 10
-2.22348
 20
-10.64841
 30
0.0
 10
-2.22348
 20
-10.64841
 30
0.0
 10
-1.99093
 20
-10.04219
 30
0.0
 10
-1.99093
 20
-10.04219
 30
0.0
 10
-1.99093
 20
-10.04219
 30
0.0
 10
-1.99093
 20
-10.04219
 30
0.0
 10
-1.90273
 20
-10.04219
 30
0.0
 10
-1.90273
 20
-10.04219
 30
0.0
 10
-1.90273
 20
-10.04219
 30
0.0
 10
-1.90273
 20
-10.04219
 30
0.0
 10
-1.65593
 20
-10.64841
 30
0.0
 10
-1.65593
 20
-10.64841
 30
0.0
 10
-1.65593
 20
-10.64841
 30
0.0
 10
-1.65593
 20
-10.64841
 30
0.0
 10
-1.74723
 20
-10.64841
 30
0.0
 10
-1.74723
 20
-10.64841
 30
0.0
 10
-1.74723
 20
-10.64841
 30
0.0
 10
-1.74723
 20
-10.64841
 30
0.0
 10
-1.81736
 20
-10.46468
 30
0.0
 10
-1.81736
 20
-10.46468
 30
0.0
 10
-1.81736
 20
-10.46468
 30
0.0
 10
-1.81736
 20
-10.46468
 30
0.0
 10
-2.07263
 20
-10.46468
 30
0.0
 10
-2.07263
 20
-10.46468
 30
0.0
 10
-2.07263
 20
-10.46468
 30
0.0
 10
-2.07263
 20
-10.46468
 30
0.0
 10
-2.13839
 20
-10.64841
 30
0.0
 10
-2.13839
 20
-10.64841
 30
0.0
 10
-2.13839
 20
-10.64841
 30
0.0
 10
-2.13839
 20
-10.64841
 30
0.0
 10
-2.22348
 20
-10.64841
 30
0.0
 10
-2.22348
 20
-10.64841
 30
0.0
  0
SPLINE
  5
A4
330
1F
100
AcDbEntity
  8
Layer 1
 62
     1
100
AcDbSpline
210
0.0
220
0.0
230
1.0
 70
    11
 71
     3
 72
    24
 73
    20
 74
     0
 42
0.0000000001
 43
0.0000000001
 12
1.0
 22
0.0
 32
0.0
 13
1.0
 23
0.0
 33
0.0
 40
0.0
 40
0.0
 40
0.0
 40
0.0
 40
0.1666666666666667
 40
0.1666666666666667
 40
0.1666666666666667
 40
0.1666666666666667
 40
0.3333333333333333
 40
0.3333333333333333
 40
0.3333333333333333
 40
0.3333333333333333
 40
0.5
 40
0.5
 40
0.5
 40
0.5
 40
0.6666666666666666
 40
0.6666666666666666
 40
0.6666666666666666
 40
0.6666666666666666
 40
1.0
 40
1.0
 40
1.0
 40
1.0
 10
-2.04907
 20
-10.39949
 30
0.0
 10
-2.04907
 20
-10.39949
 30
0.0
 10
-1.84248
 20
-10.39949
 30
0.0
 10
-1.84248
 20
-10.39949
 30
0.0
 10
-1.84248
 20
-10.39949
 30
0.0
 10
-1.84248
 20
-10.39949
 30
0.0
 10
-1.9057
 20
-10.23143
 30
0.0
 10
-1.9057
 20
-10.23143
 30
0.0
 10
-1.9057
 20
-10.23143
 30
0.0
 10
-1.92475
 20
-10.18034
 30
0.0
 10
-1.93914
 20
-10.13815
 30
0.0
 10
-1.94916
 20
-10.10485
 30
0.0
 10
-1.94916
 20
-10.10485
 30
0.0
 10
-1.95748
 20
-10.14436
 30
0.0
 10
-1.96863
 20
-10.18316
 30
0.0
 10
-1.9826
 20
-10.22155
 30
0.0
 10
-1.9826
 20
-10.22155
 30
0.0
 10
-1.9826
 20
-10.22155
 30
0.0
 10
-2.04907
 20
-10.39949
 30
0.0
 10
-2.04907
 20
-10.39949
 30
0.0
  0
SPLINE
  5
A5
330
1F
100
AcDbEntity
  8
Layer 1
 62
     1
100
AcDbSpline
210
0.0
220
0.0
230
1.0
 70
    11
 71
     3
 72
    48
 73
    44
 74
     0
 42
0.0000000001
 43
0.0000000001
 12
1.0
 22
0.0
 32
0.0
 13
1.0
 23
0.0
 33
0.0
 40
0.0
 40
0.0
 40
0.0
 40
0.0
 40
0.0833333333333333
 40
0.0833333333333333
 40
0.0833333333333333
 40
0.0833333333333333
 40
0.1666666666666667
 40
0.1666666666666667
 40
0.1666666666666667
 40
0.1666666666666667
 40
0.25
 40
0.25
 40
0.25
 40
0.25
 40
0.3333333333333333
 40
0.3333333333333333
 40
0.3333333333333333
 40
0.3333333333333333
 40
0.4166666666666667
 40
0.4166666666666667
 40
0.4166666666666667
 40
0.4166666666666667
 40
0.5
 40
0.5
 40
0.5
 40
0.5
 40
0.5833333333333334
 40
0.5833333333333334
 40
0.5833333333333334
 40
0.5833333333333334
 40
0.6666666666666666
 40
0.6666666666666666
 40
0.6666666666666666
 40
0.6666666666666666
 40
0.75
 40
0.75
 40
0.75
 40
0.75
 40
0.8333333333333334
 40
0.8333333333333334
 40
0.8333333333333334
 40
0.8333333333333334
 40
1.0
 40
1.0
 40
1.0
 40
1.0
 10
-1.61684
 20
-10.35335
 30
0.0
 10
-1.61684
 20
-10.25287
 30
0.0
 10
-1.58975
 20
-10.17413
 30
0.0
 10
-1.5357
 20
-10.11727
 30
0.0
 10
-1.5357
 20
-10.11727
 30
0.0
 10
-1.48165
 20
-10.0604
 30
0.0
 10
-1.41195
 20
-10.03203
 30
0.0
 10
-1.32643
 20
-10.03203
 30
0.0
 10
-1.32643
 20
-10.03203
 30
0.0
 10
-1.27041
 20
-10.03203
 30
0.0
 10
-1.22003
 20
-10.04544
 30
0.0
 10
-1.17502
 20
-10.07211
 30
0.0
 10
-1.17502
 20
-10.07211
 30
0.0
 10
-1.13015
 20
-10.09878
 30
0.0
 10
-1.09586
 20
-10.13603
 30
0.0
 10
-1.07229
 20
-10.18387
 30
0.0
 10
-1.07229
 20
-10.18387
 30
0.0
 10
-1.04872
 20
-10.23157
 30
0.0
 10
-1.03687
 20
-10.28575
 30
0.0
 10
-1.03687
 20
-10.34629
 30
0.0
 10
-1.03687
 20
-10.34629
 30
0.0
 10
-1.03687
 20
-10.40767
 30
0.0
 10
-1.04929
 20
-10.46271
 30
0.0
 10
-1.07412
 20
-10.51111
 30
0.0
 10
-1.07412
 20
-10.51111
 30
0.0
 10
-1.09896
 20
-10.55965
 30
0.0
 10
-1.1341
 20
-10.59634
 30
0.0
 10
-1.17953
 20
-10.62118
 30
0.0
 10
-1.17953
 20
-10.62118
 30
0.0
 10
-1.22511
 20
-10.64615
 30
0.0
 10
-1.27422
 20
-10.65857
 30
0.0
 10
-1.32686
 20
-10.65857
 30
0.0
 10
-1.32686
 20
-10.65857
 30
0.0
 10
-1.38401
 20
-10.65857
 30
0.0
 10
-1.43495
 20
-10.64474
 30
0.0
 10
-1.47996
 20
-10.61722
 30
0.0
 10
-1.47996
 20
-10.61722
 30
0.0
 10
-1.52484
 20
-10.58971
 30
0.0
 10
-1.55898
 20
-10.55217
 30
0.0
 10
-1.58213
 20
-10.50448
 30
0.0
 10
-1.58213
 20
-10.50448
 30
0.0
 10
-1.60527
 20
-10.45692
 30
0.0
 10
-1.61684
 20
-10.40654
 30
0.0
 10
-1.61684
 20
-10.35335
 30
0.0
  0
SPLINE
  5
A6
330
1F
100
AcDbEntity
  8
Layer 1
 62
     1
100
AcDbSpline
210
0.0
220
0.0
230
1.0
 70
    11
 71
     3
 72
    40
 73
    36
 74
     0
 42
0.0000000001
 43
0.0000000001
 12
1.0
 22
0.0
 32
0.0
 13
1.0
 23
0.0
 33
0.0
 40
0.0
 40
0.0
 40
0.0
 40
0.0
 40
0.1
 40
0.1
 40
0.1
 40
0.1
 40
0.2
 40
0.2
 40
0.2
 40
0.2
 40
0.3
 40
0.3
 40
0.3
 40
0.3
 40
0.4
 40
0.4
 40
0.4
 40
0.4
 40
0.5
 40
0.5
 40
0.5
 40
0.5
 40
0.6
 40
0.6
 40
0.6
 40
0.6
 40
0.7
 40
0.7
 40
0.7
 40
0.7
 40
0.8
 40
0.8
 40
0.8
 40
0.8
 40
1.0
 40
1.0
 40
1.0
 40
1.0
 10
-1.53387
 20
-10.35476
 30
0.0
 10
-1.53387
 20
-10.42771
 30
0.0
 10
-1.51425
 20
-10.48514
 30
0.0
 10
-1.47502
 20
-10.52705
 30
0.0
 10
-1.47502
 20
-10.52705
 30
0.0
 10
-1.43579
 20
-10.56896
 30
0.0
 10
-1.38655
 20
-10.58999
 30
0.0
 10
-1.32728
 20
-10.58999
 30
0.0
 10
-1.32728
 20
-10.58999
 30
0.0
 10
-1.26688
 20
-10.58999
 30
0.0
 10
-1.21735
 20
-10.56882
 30
0.0
 10
-1.17826
 20
-10.52649
 30
0.0
 10
-1.17826
 20
-10.52649
 30
0.0
 10
-1.13932
 20
-10.48416
 30
0.0
 10
-1.11984
 20
-10.42404
 30
0.0
 10
-1.11984
 20
-10.34615
 30
0.0
 10
-1.11984
 20
-10.34615
 30
0.0
 10
-1.11984
 20
-10.2969
 30
0.0
 10
-1.12817
 20
-10.25386
 30
0.0
 10
-1.14482
 20
-10.21717
 30
0.0
 10
-1.14482
 20
-10.21717
 30
0.0
 10
-1.16147
 20
-10.18048
 30
0.0
 10
-1.18588
 20
-10.15198
 30
0.0
 10
-1.21792
 20
-10.1318
 30
0.0
 10
-1.21792
 20
-10.1318
 30
0.0
 10
-1.25009
 20
-10.11162
 30
0.0
 10
-1.28607
 20
-10.10146
 30
0.0
 10
-1.32601
 20
-10.10146
 30
0.0
 10
-1.32601
 20
-10.10146
 30
0.0
 10
-1.38274
 20
-10.10146
 30
0.0
 10
-1.43156
 20
-10.12093
 30
0.0
 10
-1.47248
 20
-10.15988
 30
0.0
 10
-1.47248
 20
-10.15988
 30
0.0
 10
-1.5134
 20
-10.19883
 30
0.0
 10
-1.53387
 20
-10.26374
 30
0.0
 10
-1.53387
 20
-10.35476
 30
0.0
  0
SPLINE
  5
A7
330
1F
100
AcDbEntity
  8
Layer 1
 62
     1
100
AcDbSpline
210
0.0
220
0.0
230
1.0
 70
    11
 71
     3
 72
   144
 73
   140
 74
     0
 42
0.0000000001
 43
0.0000000001
 12
1.0
 22
0.0
 32
0.0
 13
1.0
 23
0.0
 33
0.0
 40
0.0
 40
0.0
 40
0.0
 40
0.0
 40
0.0277777777777778
 40
0.0277777777777778
 40
0.0277777777777778
 40
0.0277777777777778
 40
0.0555555555555556
 40
0.0555555555555556
 40
0.0555555555555556
 40
0.0555555555555556
 40
0.0833333333333333
 40
0.0833333333333333
 40
0.0833333333333333
 40
0.0833333333333333
 40
0.1111111111111111
 40
0.1111111111111111
 40
0.1111111111111111
 40
0.1111111111111111
 40
0.1388888888888889
 40
0.1388888888888889
 40
0.1388888888888889
 40
0.1388888888888889
 40
0.1666666666666667
 40
0.1666666666666667
 40
0.1666666666666667
 40
0.1666666666666667
 40
0.1944444444444444
 40
0.1944444444444444
 40
0.1944444444444444
 40
0.1944444444444444
 40
0.2222222222222222
 40
0.2222222222222222
 40
0.2222222222222222
 40
0.2222222222222222
 40
0.25
 40
0.25
 40
0.25
 40
0.25
 40
0.2777777777777778
 40
0.2777777777777778
 40
0.2777777777777778
 40
0.2777777777777778
 40
0.3055555555555556
 40
0.3055555555555556
 40
0.3055555555555556
 40
0.3055555555555556
 40
0.3333333333333333
 40
0.3333333333333333
 40
0.3333333333333333
 40
0.3333333333333333
 40
0.3611111111111111
 40
0.3611111111111111
 40
0.3611111111111111
 40
0.3611111111111111
 40
0.3888888888888889
 40
0.3888888888888889
 40
0.3888888888888889
 40
0.3888888888888889
 40
0.4166666666666667
 40
0.4166666666666667
 40
0.4166666666666667
 40
0.4166666666666667
 40
0.4444444444444444
 40
0.4444444444444444
 40
0.4444444444444444
 40
0.4444444444444444
 40
0.4722222222222222
 40
0.4722222222222222
 40
0.4722222222222222
 40
0.4722222222222222
 40
0.5
 40
0.5
 40
0.5
 40
0.5
 40
0.5277777777777778
 40
0.5277777777777778
 40
0.5277777777777778
 40
0.5277777777777778
 40
0.5555555555555556
 40
0.5555555555555556
 40
0.5555555555555556
 40
0.5555555555555556
 40
0.5833333333333334
 40
0.5833333333333334
 40
0.5833333333333334
 40
0.5833333333333334
 40
0.6111111111111112
 40
0.6111111111111112
 40
0.6111111111111112
 40
0.6111111111111112
 40
0.6388888888888888
 40
0.6388888888888888
 40
0.6388888888888888
 40
0.6388888888888888
 40
0.6666666666666666
 40
0.6666666666666666
 40
0.6666666666666666
 40
0.6666666666666666
 40
0.6944444444444444
 40
0.6944444444444444
 40
0.6944444444444444
 40
0.6944444444444444
 40
0.7222222222222222
 40
0.7222222222222222
 40
0.7222222222222222
 40
0.7222222222222222
 40
0.75
 40
0.75
 40
0.75
 40
0.75
 40
0.7777777777777778
 40
0.7777777777777778
 40
0.7777777777777778
 40
0.7777777777777778
 40
0.8055555555555556
 40
0.8055555555555556
 40
0.8055555555555556
 40
0.8055555555555556
 40
0.8333333333333334
 40
0.8333333333333334
 40
0.8333333333333334
 40
0.8333333333333334
 40
0.8611111111111112
 40
0.8611111111111112
 40
0.8611111111111112
 40
0.8611111111111112
 40
0.8888888888888888
 40
0.8888888888888888
 40
0.8888888888888888
 40
0.8888888888888888
 40
0.9166666666666666
 40
0.9166666666666666
 40
0.9166666666666666
 40
0.9166666666666666
 40
0.9444444444444444
 40
0.9444444444444444
 40
0.9444444444444444
 40
0.9444444444444444
 40
1.0
 40
1.0
 40
1.0
 40
1.0
 10
-0.95996
 20
-10.45368
 30
0.0
 10
-0.95996
 20
-10.45368
 30
0.0
 10
-0.88461
 20
-10.4469
 30
0.0
 10
-0.88461
 20
-10.4469
 30
0.0
 10
-0.88461
 20
-10.4469
 30
0.0
 10
-0.88108
 20
-10.47738
 30
0.0
 10
-0.87276
 20
-10.50236
 30
0.0
 10
-0.85963
 20
-10.52197
 30
0.0
 10
-0.85963
 20
-10.52197
 30
0.0
 10
-0.84651
 20
-10.54145
 30
0.0
 10
-0.82619
 20
-10.55725
 30
0.0
 10
-0.79867
 20
-10.56939
 30
0.0
 10
-0.79867
 20
-10.56939
 30
0.0
 10
-0.77116
 20
-10.58138
 30
0.0
 10
-0.74011
 20
-10.58745
 30
0.0
 10
-0.70568
 20
-10.58745
 30
0.0
 10
-0.70568
 20
-10.58745
 30
0.0
 10
-0.67506
 20
-10.58745
 30
0.0
 10
-0.64811
 20
-10.58293
 30
0.0
 10
-0.62468
 20
-10.57376
 30
0.0
 10
-0.62468
 20
-10.57376
 30
0.0
 10
-0.60126
 20
-10.56459
 30
0.0
 10
-0.5839
 20
-10.55203
 30
0.0
 10
-0.57247
 20
-10.53609
 30
0.0
 10
-0.57247
 20
-10.53609
 30
0.0
 10
-0.56104
 20
-10.52014
 30
0.0
 10
-0.55525
 20
-10.50278
 30
0.0
 10
-0.55525
 20
-10.48416
 30
0.0
 10
-0.55525
 20
-10.48416
 30
0.0
 10
-0.55525
 20
-10.46525
 30
0.0
 10
-0.56076
 20
-10.44874
 30
0.0
 10
-0.57176
 20
-10.43448
 30
0.0
 10
-0.57176
 20
-10.43448
 30
0.0
 10
-0.58277
 20
-10.42037
 30
0.0
 10
-0.60098
 20
-10.40852
 30
0.0
 10
-0.62638
 20
-10.39878
 30
0.0
 10
-0.62638
 20
-10.39878
 30
0.0
 10
-0.6426
 20
-10.39257
 30
0.0
 10
-0.67859
 20
-10.3827
 30
0.0
 10
-0.73433
 20
-10.36929
 30
0.0
 10
-0.73433
 20
-10.36929
 30
0.0
 10
-0.79006
 20
-10.35589
 30
0.0
 10
-0.82901
 20
-10.34333
 30
0.0
 10
-0.85131
 20
-10.33147
 30
0.0
 10
-0.85131
 20
-10.33147
 30
0.0
 10
-0.88024
 20
-10.31623
 30
0.0
 10
-0.90168
 20
-10.29732
 30
0.0
 10
-0.9158
 20
-10.27489
 30
0.0
 10
-0.9158
 20
-10.27489
 30
0.0
 10
-0.93005
 20
-10.25245
 30
0.0
 10
-0.9371
 20
-10.22719
 30
0.0
 10
-0.9371
 20
-10.19939
 30
0.0
 10
-0.9371
 20
-10.19939
 30
0.0
 10
-0.9371
 20
-10.16863
 30
0.0
 10
-0.92835
 20
-10.13998
 30
0.0
 10
-0.911
 20
-10.11346
 30
0.0
 10
-0.911
 20
-10.11346
 30
0.0
 10
-0.89364
 20
-10.08679
 30
0.0
 10
-0.86838
 20
-10.06661
 30
0.0
 10
-0.83494
 20
-10.05278
 30
0.0
 10
-0.83494
 20
-10.05278
 30
0.0
 10
-0.80164
 20
-10.03895
 30
0.0
 10
-0.76452
 20
-10.03203
 30
0.0
 10
-0.72374
 20
-10.03203
 30
0.0
 10
-0.72374
 20
-10.03203
 30
0.0
 10
-0.67887
 20
-10.03203
 30
0.0
 10
-0.63922
 20
-10.03923
 30
0.0
 10
-0.60493
 20
-10.05377
 30
0.0
 10
-0.60493
 20
-10.05377
 30
0.0
 10
-0.57064
 20
-10.06816
 30
0.0
 10
-0.54425
 20
-10.08947
 30
0.0
 10
-0.52576
 20
-10.11769
 30
0.0
 10
-0.52576
 20
-10.11769
 30
0.0
 10
-0.50728
 20
-10.14577
 30
0.0
 10
-0.4974
 20
-10.17766
 30
0.0
 10
-0.49599
 20
-10.21322
 30
0.0
 10
-0.49599
 20
-10.21322
 30
0.0
 10
-0.49599
 20
-10.21322
 30
0.0
 10
-0.57303
 20
-10.21915
 30
0.0
 10
-0.57303
 20
-10.21915
 30
0.0
 10
-0.57303
 20
-10.21915
 30
0.0
 10
-0.57713
 20
-10.18091
 30
0.0
 10
-0.5911
 20
-10.15198
 30
0.0
 10
-0.61495
 20
-10.13251
 30
0.0
 10
-0.61495
 20
-10.13251
 30
0.0
 10
-0.63879
 20
-10.11289
 30
0.0
 10
-0.67407
 20
-10.10315
 30
0.0
 10
-0.72064
 20
-10.10315
 30
0.0
 10
-0.72064
 20
-10.10315
 30
0.0
 10
-0.76918
 20
-10.10315
 30
0.0
 10
-0.8046
 20
-10.11204
 30
0.0
 10
-0.82675
 20
-10.12982
 30
0.0
 10
-0.82675
 20
-10.12982
 30
0.0
 10
-0.84891
 20
-10.1476
 30
0.0
 10
-0.86006
 20
-10.16905
 30
0.0
 10
-0.86006
 20
-10.19417
 30
0.0
 10
-0.86006
 20
-10.19417
 30
0.0
 10
-0.86006
 20
-10.2159
 30
0.0
 10
-0.85215
 20
-10.23382
 30
0.0
 10
-0.83649
 20
-10.24794
 30
0.0
 10
-0.83649
 20
-10.24794
 30
0.0
 10
-0.82097
 20
-10.26191
 30
0.0
 10
-0.78075
 20
-10.27644
 30
0.0
 10
-0.71556
 20
-10.29112
 30
0.0
 10
-0.71556
 20
-10.29112
 30
0.0
 10
-0.65036
 20
-10.30593
 30
0.0
 10
-0.60563
 20
-10.31877
 30
0.0
 10
-0.58136
 20
-10.32978
 30
0.0
 10
-0.58136
 20
-10.32978
 30
0.0
 10
-0.54622
 20
-10.34601
 30
0.0
 10
-0.52012
 20
-10.36647
 30
0.0
 10
-0.50333
 20
-10.39145
 30
0.0
 10
-0.50333
 20
-10.39145
 30
0.0
 10
-0.48653
 20
-10.41628
 30
0.0
 10
-0.47821
 20
-10.44493
 30
0.0
 10
-0.47821
 20
-10.47738
 30
0.0
 10
-0.47821
 20
-10.47738
 30
0.0
 10
-0.47821
 20
-10.5097
 30
0.0
 10
-0.48738
 20
-10.5399
 30
0.0
 10
-0.50587
 20
-10.5684
 30
0.0
 10
-0.50587
 20
-10.5684
 30
0.0
 10
-0.52435
 20
-10.5969
 30
0.0
 10
-0.55074
 20
-10.61906
 30
0.0
 10
-0.58531
 20
-10.63486
 30
0.0
 10
-0.58531
 20
-10.63486
 30
0.0
 10
-0.61988
 20
-10.65067
 30
0.0
 10
-0.65869
 20
-10.65857
 30
0.0
 10
-0.70201
 20
-10.65857
 30
0.0
 10
-0.70201
 20
-10.65857
 30
0.0
 10
-0.75676
 20
-10.65857
 30
0.0
 10
-0.80262
 20
-10.65053
 30
0.0
 10
-0.83959
 20
-10.63458
 30
0.0
 10
-0.83959
 20
-10.63458
 30
0.0
 10
-0.87671
 20
-10.61864
 30
0.0
 10
-0.90564
 20
-10.59465
 30
0.0
 10
-0.92666
 20
-10.56247
 30
0.0
 10
-0.92666
 20
-10.56247
 30
0.0
 10
-0.94783
 20
-10.53044
 30
0.0
 10
-0.95883
 20
-10.49417
 30
0.0
 10
-0.95996
 20
-10.45368
 30
0.0
  0
SPLINE
  5
A8
330
1F
100
AcDbEntity
  8
Layer 1
 62
     1
100
AcDbSpline
210
0.0
220
0.0
230
1.0
 70
    11
 71
     3
 72
    28
 73
    24
 74
     0
 42
0.0000000001
 43
0.0000000001
 12
1.0
 22
0.0
 32
0.0
 13
1.0
 23
0.0
 33
0.0
 40
0.0
 40
0.0
 40
0.0
 40
0.0
 40
0.1428571428571428
 40
0.1428571428571428
 40
0.1428571428571428
 40
0.1428571428571428
 40
0.2857142857142857
 40
0.2857142857142857
 40
0.2857142857142857
 40
0.2857142857142857
 40
0.4285714285714285
 40
0.4285714285714285
 40
0.4285714285714285
 40
0.4285714285714285
 40
0.5714285714285714
 40
0.5714285714285714
 40
0.5714285714285714
 40
0.5714285714285714
 40
0.7142857142857143
 40
0.7142857142857143
 40
0.7142857142857143
 40
0.7142857142857143
 40
1.0
 40
1.0
 40
1.0
 40
1.0
 10
-0.13714
 20
-10.64841
 30
0.0
 10
-0.13714
 20
-10.64841
 30
0.0
 10
-0.13714
 20
-10.04219
 30
0.0
 10
-0.13714
 20
-10.04219
 30
0.0
 10
-0.13714
 20
-10.04219
 30
0.0
 10
-0.13714
 20
-10.04219
 30
0.0
 10
-0.05671
 20
-10.04219
 30
0.0
 10
-0.05671
 20
-10.04219
 30
0.0
 10
-0.05671
 20
-10.04219
 30
0.0
 10
-0.05671
 20
-10.04219
 30
0.0
 10
-0.05671
 20
-10.57729
 30
0.0
 10
-0.05671
 20
-10.57729
 30
0.0
 10
-0.05671
 20
-10.57729
 30
0.0
 10
-0.05671
 20
-10.57729
 30
0.0
 10
0.24132
 20
-10.57729
 30
0.0
 10
0.24132
 20
-10.57729
 30
0.0
 10
0.24132
 20
-10.57729
 30
0.0
 10
0.24132
 20
-10.57729
 30
0.0
 10
0.24132
 20
-10.64841
 30
0.0
 10
0.24132
 20
-10.64841
 30
0.0
 10
0.24132
 20
-10.64841
 30
0.0
 10
0.24132
 20
-10.64841
 30
0.0
 10
-0.13714
 20
-10.64841
 30
0.0
 10
-0.13714
 20
-10.64841
 30
0.0
  0
SPLINE
  5
A9
330
1F
100
AcDbEntity
  8
Layer 1
 62
     1
100
AcDbSpline
210
0.0
220
0.0
230
1.0
 70
    11
 71
     3
 72
   112
 73
   108
 74
     0
 42
0.0000000001
 43
0.0000000001
 12
1.0
 22
0.0
 32
0.0
 13
1.0
 23
0.0
 33
0.0
 40
0.0
 40
0.0
 40
0.0
 40
0.0
 40
0.0357142857142857
 40
0.0357142857142857
 40
0.0357142857142857
 40
0.0357142857142857
 40
0.0714285714285714
 40
0.0714285714285714
 40
0.0714285714285714
 40
0.0714285714285714
 40
0.1071428571428571
 40
0.1071428571428571
 40
0.1071428571428571
 40
0.1071428571428571
 40
0.1428571428571428
 40
0.1428571428571428
 40
0.1428571428571428
 40
0.1428571428571428
 40
0.1785714285714286
 40
0.1785714285714286
 40
0.1785714285714286
 40
0.1785714285714286
 40
0.2142857142857143
 40
0.2142857142857143
 40
0.2142857142857143
 40
0.2142857142857143
 40
0.25
 40
0.25
 40
0.25
 40
0.25
 40
0.2857142857142857
 40
0.2857142857142857
 40
0.2857142857142857
 40
0.2857142857142857
 40
0.3214285714285715
 40
0.3214285714285715
 40
0.3214285714285715
 40
0.3214285714285715
 40
0.3571428571428572
 40
0.3571428571428572
 40
0.3571428571428572
 40
0.3571428571428572
 40
0.3928571428571428
 40
0.3928571428571428
 40
0.3928571428571428
 40
0.3928571428571428
 40
0.4285714285714285
 40
0.4285714285714285
 40
0.4285714285714285
 40
0.4285714285714285
 40
0.4642857142857143
 40
0.4642857142857143
 40
0.4642857142857143
 40
0.4642857142857143
 40
0.5
 40
0.5
 40
0.5
 40
0.5
 40
0.5357142857142857
 40
0.5357142857142857
 40
0.5357142857142857
 40
0.5357142857142857
 40
0.5714285714285714
 40
0.5714285714285714
 40
0.5714285714285714
 40
0.5714285714285714
 40
0.6071428571428571
 40
0.6071428571428571
 40
0.6071428571428571
 40
0.6071428571428571
 40
0.6428571428571429
 40
0.6428571428571429
 40
0.6428571428571429
 40
0.6428571428571429
 40
0.6785714285714286
 40
0.6785714285714286
 40
0.6785714285714286
 40
0.6785714285714286
 40
0.7142857142857143
 40
0.7142857142857143
 40
0.7142857142857143
 40
0.7142857142857143
 40
0.75
 40
0.75
 40
0.75
 40
0.75
 40
0.7857142857142857
 40
0.7857142857142857
 40
0.7857142857142857
 40
0.7857142857142857
 40
0.8214285714285714
 40
0.8214285714285714
 40
0.8214285714285714
 40
0.8214285714285714
 40
0.8571428571428571
 40
0.8571428571428571
 40
0.8571428571428571
 40
0.8571428571428571
 40
0.8928571428571429
 40
0.8928571428571429
 40
0.8928571428571429
 40
0.8928571428571429
 40
0.9285714285714286
 40
0.9285714285714286
 40
0.9285714285714286
 40
0.9285714285714286
 40
1.0
 40
1.0
 40
1.0
 40
1.0
 10
0.61484
 20
-10.59338
 30
0.0
 10
0.58718
 20
-10.61694
 30
0.0
 10
0.56051
 20
-10.63345
 30
0.0
 10
0.53497
 20
-10.64319
 30
0.0
 10
0.53497
 20
-10.64319
 30
0.0
 10
0.50943
 20
-10.65293
 30
0.0
 10
0.48206
 20
-10.65772
 30
0.0
 10
0.4527
 20
-10.65772
 30
0.0
 10
0.4527
 20
-10.65772
 30
0.0
 10
0.40444
 20
-10.65772
 30
0.0
 10
0.36733
 20
-10.64601
 30
0.0
 10
0.34137
 20
-10.62245
 30
0.0
 10
0.34137
 20
-10.62245
 30
0.0
 10
0.3154
 20
-10.59902
 30
0.0
 10
0.30242
 20
-10.56896
 30
0.0
 10
0.30242
 20
-10.53242
 30
0.0
 10
0.30242
 20
-10.53242
 30
0.0
 10
0.30242
 20
-10.51097
 30
0.0
 10
0.30736
 20
-10.49135
 30
0.0
 10
0.3171
 20
-10.47357
 30
0.0
 10
0.3171
 20
-10.47357
 30
0.0
 10
0.32697
 20
-10.45579
 30
0.0
 10
0.33981
 20
-10.44168
 30
0.0
 10
0.35562
 20
-10.43096
 30
0.0
 10
0.35562
 20
-10.43096
 30
0.0
 10
0.37156
 20
-10.42023
 30
0.0
 10
0.38934
 20
-10.41205
 30
0.0
 10
0.40924
 20
-10.40654
 30
0.0
 10
0.40924
 20
-10.40654
 30
0.0
 10
0.42392
 20
-10.40273
 30
0.0
 10
0.44607
 20
-10.39907
 30
0.0
 10
0.47556
 20
-10.3954
 30
0.0
 10
0.47556
 20
-10.3954
 30
0.0
 10
0.53568
 20
-10.38834
 30
0.0
 10
0.58013
 20
-10.37973
 30
0.0
 10
0.60849
 20
-10.36986
 30
0.0
 10
0.60849
 20
-10.36986
 30
0.0
 10
0.60877
 20
-10.3597
 30
0.0
 10
0.60891
 20
-10.3532
 30
0.0
 10
0.60891
 20
-10.35052
 30
0.0
 10
0.60891
 20
-10.35052
 30
0.0
 10
0.60891
 20
-10.32033
 30
0.0
 10
0.60186
 20
-10.29902
 30
0.0
 10
0.58775
 20
-10.2866
 30
0.0
 10
0.58775
 20
-10.2866
 30
0.0
 10
0.5687
 20
-10.26981
 30
0.0
 10
0.54033
 20
-10.26148
 30
0.0
 10
0.5028
 20
-10.26148
 30
0.0
 10
0.5028
 20
-10.26148
 30
0.0
 10
0.46766
 20
-10.26148
 30
0.0
 10
0.4417
 20
-10.26769
 30
0.0
 10
0.42505
 20
-10.27997
 30
0.0
 10
0.42505
 20
-10.27997
 30
0.0
 10
0.40825
 20
-10.29224
 30
0.0
 10
0.39598
 20
-10.31398
 30
0.0
 10
0.38793
 20
-10.3453
 30
0.0
 10
0.38793
 20
-10.3453
 30
0.0
 10
0.38793
 20
-10.3453
 30
0.0
 10
0.31512
 20
-10.33514
 30
0.0
 10
0.31512
 20
-10.33514
 30
0.0
 10
0.31512
 20
-10.33514
 30
0.0
 10
0.32175
 20
-10.30396
 30
0.0
 10
0.33262
 20
-10.2787
 30
0.0
 10
0.34786
 20
-10.25951
 30
0.0
 10
0.34786
 20
-10.25951
 30
0.0
 10
0.3631
 20
-10.24032
 30
0.0
 10
0.38511
 20
-10.22564
 30
0.0
 10
0.4139
 20
-10.2152
 30
0.0
 10
0.4139
 20
-10.2152
 30
0.0
 10
0.44254
 20
-10.2049
 30
0.0
 10
0.47599
 20
-10.19967
 30
0.0
 10
0.51381
 20
-10.19967
 30
0.0
 10
0.51381
 20
-10.19967
 30
0.0
 10
0.55134
 20
-10.19967
 30
0.0
 10
0.58196
 20
-10.20405
 30
0.0
 10
0.60553
 20
-10.21294
 30
0.0
 10
0.60553
 20
-10.21294
 30
0.0
 10
0.62895
 20
-10.22183
 30
0.0
 10
0.64631
 20
-10.23284
 30
0.0
 10
0.65732
 20
-10.24624
 30
0.0
 10
0.65732
 20
-10.24624
 30
0.0
 10
0.66832
 20
-10.25965
 30
0.0
 10
0.67608
 20
-10.27658
 30
0.0
 10
0.6806
 20
-10.29704
 30
0.0
 10
0.6806
 20
-10.29704
 30
0.0
 10
0.683
 20
-10.30974
 30
0.0
 10
0.68427
 20
-10.3326
 30
0.0
 10
0.68427
 20
-10.36548
 30
0.0
 10
0.68427
 20
-10.36548
 30
0.0
 10
0.68427
 20
-10.36548
 30
0.0
 10
0.68427
 20
-10.46426
 30
0.0
 10
0.68427
 20
-10.46426
 30
0.0
 10
0.68427
 20
-10.46426
 30
0.0
 10
0.68427
 20
-10.53326
 30
0.0
 10
0.68582
 20
-10.57687
 30
0.0
 10
0.68892
 20
-10.59535
 30
0.0
 10
0.68892
 20
-10.59535
 30
0.0
 10
0.69189
 20
-10.61384
 30
0.0
 10
0.6981
 20
-10.63148
 30
0.0
 10
0.70713
 20
-10.64841
 30
0.0
 10
0.70713
 20
-10.64841
 30
0.0
 10
0.70713
 20
-10.64841
 30
0.0
 10
0.62923
 20
-10.64841
 30
0.0
 10
0.62923
 20
-10.64841
 30
0.0
 10
0.62923
 20
-10.64841
 30
0.0
 10
0.62176
 20
-10.63275
 30
0.0
 10
0.61696
 20
-10.6144
 30
0.0
 10
0.61484
 20
-10.59338
 30
0.0
  0
SPLINE
  5
AA
330
1F
100
AcDbEntity
  8
Layer 1
 62
     1
100
AcDbSpline
210
0.0
220
0.0
230
1.0
 70
    11
 71
     3
 72
    44
 73
    40
 74
     0
 42
0.0000000001
 43
0.0000000001
 12
1.0
 22
0.0
 32
0.0
 13
1.0
 23
0.0
 33
0.0
 40
0.0
 40
0.0
 40
0.0
 40
0.0
 40
0.0909090909090909
 40
0.0909090909090909
 40
0.0909090909090909
 40
0.0909090909090909
 40
0.1818181818181818
 40
0.1818181818181818
 40
0.1818181818181818
 40
0.1818181818181818
 40
0.2727272727272727
 40
0.2727272727272727
 40
0.2727272727272727
 40
0.2727272727272727
 40
0.3636363636363636
 40
0.3636363636363636
 40
0.3636363636363636
 40
0.3636363636363636
 40
0.4545454545454545
 40
0.4545454545454545
 40
0.4545454545454545
 40
0.4545454545454545
 40
0.5454545454545454
 40
0.5454545454545454
 40
0.5454545454545454
 40
0.5454545454545454
 40
0.6363636363636364
 40
0.6363636363636364
 40
0.6363636363636364
 40
0.6363636363636364
 40
0.7272727272727273
 40
0.7272727272727273
 40
0.7272727272727273
 40
0.7272727272727273
 40
0.8181818181818182
 40
0.8181818181818182
 40
0.8181818181818182
 40
0.8181818181818182
 40
1.0
 40
1.0
 40
1.0
 40
1.0
 10
0.60891
 20
-10.42828
 30
0.0
 10
0.58182
 20
-10.43928
 30
0.0
 10
0.54118
 20
-10.4486
 30
0.0
 10
0.48699
 20
-10.45622
 30
0.0
 10
0.48699
 20
-10.45622
 30
0.0
 10
0.45623
 20
-10.46059
 30
0.0
 10
0.4345
 20
-10.46553
 30
0.0
 10
0.4218
 20
-10.47103
 30
0.0
 10
0.4218
 20
-10.47103
 30
0.0
 10
0.4091
 20
-10.47654
 30
0.0
 10
0.39936
 20
-10.48458
 30
0.0
 10
0.39245
 20
-10.49502
 30
0.0
 10
0.39245
 20
-10.49502
 30
0.0
 10
0.38553
 20
-10.5056
 30
0.0
 10
0.38201
 20
-10.51732
 30
0.0
 10
0.38201
 20
-10.5303
 30
0.0
 10
0.38201
 20
-10.5303
 30
0.0
 10
0.38201
 20
-10.54991
 30
0.0
 10
0.38949
 20
-10.56642
 30
0.0
 10
0.40458
 20
-10.57955
 30
0.0
 10
0.40458
 20
-10.57955
 30
0.0
 10
0.41968
 20
-10.59267
 30
0.0
 10
0.4417
 20
-10.5993
 30
0.0
 10
0.47063
 20
-10.5993
 30
0.0
 10
0.47063
 20
-10.5993
 30
0.0
 10
0.49927
 20
-10.5993
 30
0.0
 10
0.52481
 20
-10.59309
 30
0.0
 10
0.54725
 20
-10.58054
 30
0.0
 10
0.54725
 20
-10.58054
 30
0.0
 10
0.56954
 20
-10.56812
 30
0.0
 10
0.58605
 20
-10.55104
 30
0.0
 10
0.5965
 20
-10.52945
 30
0.0
 10
0.5965
 20
-10.52945
 30
0.0
 10
0.60454
 20
-10.51266
 30
0.0
 10
0.60849
 20
-10.48797
 30
0.0
 10
0.60849
 20
-10.45537
 30
0.0
 10
0.60849
 20
-10.45537
 30
0.0
 10
0.60849
 20
-10.45537
 30
0.0
 10
0.60891
 20
-10.42828
 30
0.0
 10
0.60891
 20
-10.42828
 30
0.0
  0
SPLINE
  5
AB
330
1F
100
AcDbEntity
  8
Layer 1
 62
     1
100
AcDbSpline
210
0.0
220
0.0
230
1.0
 70
    11
 71
     3
 72
   136
 73
   132
 74
     0
 42
0.0000000001
 43
0.0000000001
 12
1.0
 22
0.0
 32
0.0
 13
1.0
 23
0.0
 33
0.0
 40
0.0
 40
0.0
 40
0.0
 40
0.0
 40
0.0294117647058824
 40
0.0294117647058824
 40
0.0294117647058824
 40
0.0294117647058824
 40
0.0588235294117647
 40
0.0588235294117647
 40
0.0588235294117647
 40
0.0588235294117647
 40
0.0882352941176471
 40
0.0882352941176471
 40
0.0882352941176471
 40
0.0882352941176471
 40
0.1176470588235294
 40
0.1176470588235294
 40
0.1176470588235294
 40
0.1176470588235294
 40
0.1470588235294118
 40
0.1470588235294118
 40
0.1470588235294118
 40
0.1470588235294118
 40
0.1764705882352941
 40
0.1764705882352941
 40
0.1764705882352941
 40
0.1764705882352941
 40
0.2058823529411765
 40
0.2058823529411765
 40
0.2058823529411765
 40
0.2058823529411765
 40
0.2352941176470588
 40
0.2352941176470588
 40
0.2352941176470588
 40
0.2352941176470588
 40
0.2647058823529412
 40
0.2647058823529412
 40
0.2647058823529412
 40
0.2647058823529412
 40
0.2941176470588235
 40
0.2941176470588235
 40
0.2941176470588235
 40
0.2941176470588235
 40
0.3235294117647059
 40
0.3235294117647059
 40
0.3235294117647059
 40
0.3235294117647059
 40
0.3529411764705883
 40
0.3529411764705883
 40
0.3529411764705883
 40
0.3529411764705883
 40
0.3823529411764706
 40
0.3823529411764706
 40
0.3823529411764706
 40
0.3823529411764706
 40
0.4117647058823529
 40
0.4117647058823529
 40
0.4117647058823529
 40
0.4117647058823529
 40
0.4411764705882353
 40
0.4411764705882353
 40
0.4411764705882353
 40
0.4411764705882353
 40
0.4705882352941176
 40
0.4705882352941176
 40
0.4705882352941176
 40
0.4705882352941176
 40
0.5
 40
0.5
 40
0.5
 40
0.5
 40
0.5294117647058824
 40
0.5294117647058824
 40
0.5294117647058824
 40
0.5294117647058824
 40
0.5588235294117647
 40
0.5588235294117647
 40
0.5588235294117647
 40
0.5588235294117647
 40
0.5882352941176471
 40
0.5882352941176471
 40
0.5882352941176471
 40
0.5882352941176471
 40
0.6176470588235294
 40
0.6176470588235294
 40
0.6176470588235294
 40
0.6176470588235294
 40
0.6470588235294118
 40
0.6470588235294118
 40
0.6470588235294118
 40
0.6470588235294118
 40
0.6764705882352942
 40
0.6764705882352942
 40
0.6764705882352942
 40
0.6764705882352942
 40
0.7058823529411765
 40
0.7058823529411765
 40
0.7058823529411765
 40
0.7058823529411765
 40
0.7352941176470589
 40
0.7352941176470589
 40
0.7352941176470589
 40
0.7352941176470589
 40
0.7647058823529411
 40
0.7647058823529411
 40
0.7647058823529411
 40
0.7647058823529411
 40
0.7941176470588235
 40
0.7941176470588235
 40
0.7941176470588235
 40
0.7941176470588235
 40
0.8235294117647058
 40
0.8235294117647058
 40
0.8235294117647058
 40
0.8235294117647058
 40
0.8529411764705882
 40
0.8529411764705882
 40
0.8529411764705882
 40
0.8529411764705882
 40
0.8823529411764706
 40
0.8823529411764706
 40
0.8823529411764706
 40
0.8823529411764706
 40
0.9117647058823529
 40
0.9117647058823529
 40
0.9117647058823529
 40
0.9117647058823529
 40
0.9411764705882353
 40
0.9411764705882353
 40
0.9411764705882353
 40
0.9411764705882353
 40
1.0
 40
1.0
 40
1.0
 40
1.0
 10
0.76908
 20
-10.51718
 30
0.0
 10
0.76908
 20
-10.51718
 30
0.0
 10
0.84274
 20
-10.50532
 30
0.0
 10
0.84274
 20
-10.50532
 30
0.0
 10
0.84274
 20
-10.50532
 30
0.0
 10
0.84683
 20
-10.53482
 30
0.0
 10
0.8584
 20
-10.55739
 30
0.0
 10
0.87731
 20
-10.5732
 30
0.0
 10
0.87731
 20
-10.5732
 30
0.0
 10
0.89622
 20
-10.58886
 30
0.0
 10
0.92275
 20
-10.59676
 30
0.0
 10
0.95661
 20
-10.59676
 30
0.0
 10
0.95661
 20
-10.59676
 30
0.0
 10
0.9909
 20
-10.59676
 30
0.0
 10
1.0163
 20
-10.58985
 30
0.0
 10
1.03296
 20
-10.57588
 30
0.0
 10
1.03296
 20
-10.57588
 30
0.0
 10
1.04947
 20
-10.56205
 30
0.0
 10
1.05779
 20
-10.54568
 30
0.0
 10
1.05779
 20
-10.52691
 30
0.0
 10
1.05779
 20
-10.52691
 30
0.0
 10
1.05779
 20
-10.51012
 30
0.0
 10
1.05031
 20
-10.49686
 30
0.0
 10
1.0355
 20
-10.48726
 30
0.0
 10
1.0355
 20
-10.48726
 30
0.0
 10
1.02505
 20
-10.48063
 30
0.0
 10
0.99965
 20
-10.4723
 30
0.0
 10
0.9593
 20
-10.462
 30
0.0
 10
0.9593
 20
-10.462
 30
0.0
 10
0.90483
 20
-10.44831
 30
0.0
 10
0.86715
 20
-10.43646
 30
0.0
 10
0.84598
 20
-10.42644
 30
0.0
 10
0.84598
 20
-10.42644
 30
0.0
 10
0.82496
 20
-10.41628
 30
0.0
 10
0.80901
 20
-10.40245
 30
0.0
 10
0.79815
 20
-10.38467
 30
0.0
 10
0.79815
 20
-10.38467
 30
0.0
 10
0.78728
 20
-10.36703
 30
0.0
 10
0.78178
 20
-10.34742
 30
0.0
 10
0.78178
 20
-10.32597
 30
0.0
 10
0.78178
 20
-10.32597
 30
0.0
 10
0.78178
 20
-10.30636
 30
0.0
 10
0.78629
 20
-10.28829
 30
0.0
 10
0.79518
 20
-10.27164
 30
0.0
 10
0.79518
 20
-10.27164
 30
0.0
 10
0.80421
 20
-10.25499
 30
0.0
 10
0.81635
 20
-10.24116
 30
0.0
 10
0.83173
 20
-10.23016
 30
0.0
 10
0.83173
 20
-10.23016
 30
0.0
 10
0.8433
 20
-10.22169
 30
0.0
 10
0.85911
 20
-10.21449
 30
0.0
 10
0.879
 20
-10.20856
 30
0.0
 10
0.879
 20
-10.20856
 30
0.0
 10
0.89904
 20
-10.20264
 30
0.0
 10
0.92035
 20
-10.19967
 30
0.0
 10
0.94321
 20
-10.19967
 30
0.0
 10
0.94321
 20
-10.19967
 30
0.0
 10
0.97764
 20
-10.19967
 30
0.0
 10
1.00784
 20
-10.20461
 30
0.0
 10
1.0338
 20
-10.21463
 30
0.0
 10
1.0338
 20
-10.21463
 30
0.0
 10
1.05991
 20
-10.22451
 30
0.0
 10
1.0791
 20
-10.23806
 30
0.0
 10
1.09152
 20
-10.25499
 30
0.0
 10
1.09152
 20
-10.25499
 30
0.0
 10
1.10379
 20
-10.27207
 30
0.0
 10
1.1124
 20
-10.29478
 30
0.0
 10
1.11706
 20
-10.32329
 30
0.0
 10
1.11706
 20
-10.32329
 30
0.0
 10
1.11706
 20
-10.32329
 30
0.0
 10
1.04424
 20
-10.33345
 30
0.0
 10
1.04424
 20
-10.33345
 30
0.0
 10
1.04424
 20
-10.33345
 30
0.0
 10
1.041
 20
-10.31059
 30
0.0
 10
1.0314
 20
-10.29267
 30
0.0
 10
1.0156
 20
-10.27983
 30
0.0
 10
1.0156
 20
-10.27983
 30
0.0
 10
0.99979
 20
-10.26699
 30
0.0
 10
0.9775
 20
-10.26064
 30
0.0
 10
0.94857
 20
-10.26064
 30
0.0
 10
0.94857
 20
-10.26064
 30
0.0
 10
0.91456
 20
-10.26064
 30
0.0
 10
0.89015
 20
-10.26628
 30
0.0
 10
0.87562
 20
-10.27757
 30
0.0
 10
0.87562
 20
-10.27757
 30
0.0
 10
0.86108
 20
-10.28886
 30
0.0
 10
0.85374
 20
-10.30212
 30
0.0
 10
0.85374
 20
-10.31722
 30
0.0
 10
0.85374
 20
-10.31722
 30
0.0
 10
0.85374
 20
-10.32682
 30
0.0
 10
0.85671
 20
-10.33557
 30
0.0
 10
0.86277
 20
-10.34333
 30
0.0
 10
0.86277
 20
-10.34333
 30
0.0
 10
0.86884
 20
-10.35123
 30
0.0
 10
0.8783
 20
-10.35786
 30
0.0
 10
0.89128
 20
-10.36308
 30
0.0
 10
0.89128
 20
-10.36308
 30
0.0
 10
0.89876
 20
-10.3659
 30
0.0
 10
0.92049
 20
-10.37225
 30
0.0
 10
0.9569
 20
-10.38213
 30
0.0
 10
0.9569
 20
-10.38213
 30
0.0
 10
1.00939
 20
-10.3961
 30
0.0
 10
1.04608
 20
-10.40767
 30
0.0
 10
1.06696
 20
-10.41656
 30
0.0
 10
1.06696
 20
-10.41656
 30
0.0
 10
1.08785
 20
-10.42545
 30
0.0
 10
1.10422
 20
-10.43858
 30
0.0
 10
1.11607
 20
-10.45551
 30
0.0
 10
1.11607
 20
-10.45551
 30
0.0
 10
1.12806
 20
-10.47258
 30
0.0
 10
1.13399
 20
-10.49375
 30
0.0
 10
1.13399
 20
-10.51915
 30
0.0
 10
1.13399
 20
-10.51915
 30
0.0
 10
1.13399
 20
-10.54385
 30
0.0
 10
1.12679
 20
-10.56713
 30
0.0
 10
1.11226
 20
-10.589
 30
0.0
 10
1.11226
 20
-10.589
 30
0.0
 10
1.09773
 20
-10.61087
 30
0.0
 10
1.07684
 20
-10.62781
 30
0.0
 10
1.04961
 20
-10.6398
 30
0.0
 10
1.04961
 20
-10.6398
 30
0.0
 10
1.02223
 20
-10.6518
 30
0.0
 10
0.99133
 20
-10.65772
 30
0.0
 10
0.9569
 20
-10.65772
 30
0.0
 10
0.9569
 20
-10.65772
 30
0.0
 10
0.89989
 20
-10.65772
 30
0.0
 10
0.85628
 20
-10.64587
 30
0.0
 10
0.82637
 20
-10.6223
 30
0.0
 10
0.82637
 20
-10.6223
 30
0.0
 10
0.79645
 20
-10.5986
 30
0.0
 10
0.7774
 20
-10.5636
 30
0.0
 10
0.76908
 20
-10.51718
 30
0.0
  0
SPLINE
  5
AC
330
1F
100
AcDbEntity
  8
Layer 1
 62
     1
100
AcDbSpline
210
0.0
220
0.0
230
1.0
 70
    11
 71
     3
 72
    64
 73
    60
 74
     0
 42
0.0000000001
 43
0.0000000001
 12
1.0
 22
0.0
 32
0.0
 13
1.0
 23
0.0
 33
0.0
 40
0.0
 40
0.0
 40
0.0
 40
0.0
 40
0.0625
 40
0.0625
 40
0.0625
 40
0.0625
 40
0.125
 40
0.125
 40
0.125
 40
0.125
 40
0.1875
 40
0.1875
 40
0.1875
 40
0.1875
 40
0.25
 40
0.25
 40
0.25
 40
0.25
 40
0.3125
 40
0.3125
 40
0.3125
 40
0.3125
 40
0.375
 40
0.375
 40
0.375
 40
0.375
 40
0.4375
 40
0.4375
 40
0.4375
 40
0.4375
 40
0.5
 40
0.5
 40
0.5
 40
0.5
 40
0.5625
 40
0.5625
 40
0.5625
 40
0.5625
 40
0.625
 40
0.625
 40
0.625
 40
0.625
 40
0.6875
 40
0.6875
 40
0.6875
 40
0.6875
 40
0.75
 40
0.75
 40
0.75
 40
0.75
 40
0.8125
 40
0.8125
 40
0.8125
 40
0.8125
 40
0.875
 40
0.875
 40
0.875
 40
0.875
 40
1.0
 40
1.0
 40
1.0
 40
1.0
 10
1.52177
 20
-10.50617
 30
0.0
 10
1.52177
 20
-10.50617
 30
0.0
 10
1.59882
 20
-10.51633
 30
0.0
 10
1.59882
 20
-10.51633
 30
0.0
 10
1.59882
 20
-10.51633
 30
0.0
 10
1.58682
 20
-10.56106
 30
0.0
 10
1.56439
 20
-10.59592
 30
0.0
 10
1.53165
 20
-10.62061
 30
0.0
 10
1.53165
 20
-10.62061
 30
0.0
 10
1.49891
 20
-10.64531
 30
0.0
 10
1.45714
 20
-10.65772
 30
0.0
 10
1.4062
 20
-10.65772
 30
0.0
 10
1.4062
 20
-10.65772
 30
0.0
 10
1.34214
 20
-10.65772
 30
0.0
 10
1.29134
 20
-10.63797
 30
0.0
 10
1.2538
 20
-10.59846
 30
0.0
 10
1.2538
 20
-10.59846
 30
0.0
 10
1.21626
 20
-10.55909
 30
0.0
 10
1.1975
 20
-10.50363
 30
0.0
 10
1.1975
 20
-10.43237
 30
0.0
 10
1.1975
 20
-10.43237
 30
0.0
 10
1.1975
 20
-10.35871
 30
0.0
 10
1.21641
 20
-10.30142
 30
0.0
 10
1.25436
 20
-10.26078
 30
0.0
 10
1.25436
 20
-10.26078
 30
0.0
 10
1.29232
 20
-10.21999
 30
0.0
 10
1.34157
 20
-10.19967
 30
0.0
 10
1.40211
 20
-10.19967
 30
0.0
 10
1.40211
 20
-10.19967
 30
0.0
 10
1.46067
 20
-10.19967
 30
0.0
 10
1.50851
 20
-10.21957
 30
0.0
 10
1.54562
 20
-10.25951
 30
0.0
 10
1.54562
 20
-10.25951
 30
0.0
 10
1.58273
 20
-10.29944
 30
0.0
 10
1.60136
 20
-10.3556
 30
0.0
 10
1.60136
 20
-10.42799
 30
0.0
 10
1.60136
 20
-10.42799
 30
0.0
 10
1.60136
 20
-10.43237
 30
0.0
 10
1.60122
 20
-10.439
 30
0.0
 10
1.60094
 20
-10.44775
 30
0.0
 10
1.60094
 20
-10.44775
 30
0.0
 10
1.60094
 20
-10.44775
 30
0.0
 10
1.2737
 20
-10.44775
 30
0.0
 10
1.2737
 20
-10.44775
 30
0.0
 10
1.2737
 20
-10.44775
 30
0.0
 10
1.27652
 20
-10.49587
 30
0.0
 10
1.29007
 20
-10.53284
 30
0.0
 10
1.31462
 20
-10.55838
 30
0.0
 10
1.31462
 20
-10.55838
 30
0.0
 10
1.33903
 20
-10.58392
 30
0.0
 10
1.36965
 20
-10.59676
 30
0.0
 10
1.4062
 20
-10.59676
 30
0.0
 10
1.4062
 20
-10.59676
 30
0.0
 10
1.43344
 20
-10.59676
 30
0.0
 10
1.45672
 20
-10.58957
 30
0.0
 10
1.47591
 20
-10.57517
 30
0.0
 10
1.47591
 20
-10.57517
 30
0.0
 10
1.49524
 20
-10.56078
 30
0.0
 10
1.51048
 20
-10.53778
 30
0.0
 10
1.52177
 20
-10.50617
 30
0.0
  0
SPLINE
  5
AD
330
1F
100
AcDbEntity
  8
Layer 1
 62
     1
100
AcDbSpline
210
0.0
220
0.0
230
1.0
 70
    11
 71
     3
 72
    24
 73
    20
 74
     0
 42
0.0000000001
 43
0.0000000001
 12
1.0
 22
0.0
 32
0.0
 13
1.0
 23
0.0
 33
0.0
 40
0.0
 40
0.0
 40
0.0
 40
0.0
 40
0.1666666666666667
 40
0.1666666666666667
 40
0.1666666666666667
 40
0.1666666666666667
 40
0.3333333333333333
 40
0.3333333333333333
 40
0.3333333333333333
 40
0.3333333333333333
 40
0.5
 40
0.5
 40
0.5
 40
0.5
 40
0.6666666666666666
 40
0.6666666666666666
 40
0.6666666666666666
 40
0.6666666666666666
 40
1.0
 40
1.0
 40
1.0
 40
1.0
 10
1.27793
 20
-10.38679
 30
0.0
 10
1.27793
 20
-10.38679
 30
0.0
 10
1.52262
 20
-10.38679
 30
0.0
 10
1.52262
 20
-10.38679
 30
0.0
 10
1.52262
 20
-10.38679
 30
0.0
 10
1.51937
 20
-10.34982
 30
0.0
 10
1.50992
 20
-10.32216
 30
0.0
 10
1.49454
 20
-10.30367
 30
0.0
 10
1.49454
 20
-10.30367
 30
0.0
 10
1.47097
 20
-10.27503
 30
0.0
 10
1.44021
 20
-10.26064
 30
0.0
 10
1.40253
 20
-10.26064
 30
0.0
 10
1.40253
 20
-10.26064
 30
0.0
 10
1.36838
 20
-10.26064
 30
0.0
 10
1.33974
 20
-10.27207
 30
0.0
 10
1.31645
 20
-10.29493
 30
0.0
 10
1.31645
 20
-10.29493
 30
0.0
 10
1.29331
 20
-10.31779
 30
0.0
 10
1.28047
 20
-10.34841
 30
0.0
 10
1.27793
 20
-10.38679
 30
0.0
  0
SPLINE
  5
AE
330
1F
100
AcDbEntity
  8
Layer 1
 62
     1
100
AcDbSpline
210
0.0
220
0.0
230
1.0
 70
    11
 71
     3
 72
    56
 73
    52
 74
     0
 42
0.0000000001
 43
0.0000000001
 12
1.0
 22
0.0
 32
0.0
 13
1.0
 23
0.0
 33
0.0
 40
0.0
 40
0.0
 40
0.0
 40
0.0
 40
0.0714285714285714
 40
0.0714285714285714
 40
0.0714285714285714
 40
0.0714285714285714
 40
0.1428571428571428
 40
0.1428571428571428
 40
0.1428571428571428
 40
0.1428571428571428
 40
0.2142857142857143
 40
0.2142857142857143
 40
0.2142857142857143
 40
0.2142857142857143
 40
0.2857142857142857
 40
0.2857142857142857
 40
0.2857142857142857
 40
0.2857142857142857
 40
0.3571428571428572
 40
0.3571428571428572
 40
0.3571428571428572
 40
0.3571428571428572
 40
0.4285714285714285
 40
0.4285714285714285
 40
0.4285714285714285
 40
0.4285714285714285
 40
0.5
 40
0.5
 40
0.5
 40
0.5
 40
0.5714285714285714
 40
0.5714285714285714
 40
0.5714285714285714
 40
0.5714285714285714
 40
0.6428571428571429
 40
0.6428571428571429
 40
0.6428571428571429
 40
0.6428571428571429
 40
0.7142857142857143
 40
0.7142857142857143
 40
0.7142857142857143
 40
0.7142857142857143
 40
0.7857142857142857
 40
0.7857142857142857
 40
0.7857142857142857
 40
0.7857142857142857
 40
0.8571428571428571
 40
0.8571428571428571
 40
0.8571428571428571
 40
0.8571428571428571
 40
1.0
 40
1.0
 40
1.0
 40
1.0
 10
1.69209
 20
-10.64841
 30
0.0
 10
1.69209
 20
-10.64841
 30
0.0
 10
1.69209
 20
-10.20899
 30
0.0
 10
1.69209
 20
-10.20899
 30
0.0
 10
1.69209
 20
-10.20899
 30
0.0
 10
1.69209
 20
-10.20899
 30
0.0
 10
1.75898
 20
-10.20899
 30
0.0
 10
1.75898
 20
-10.20899
 30
0.0
 10
1.75898
 20
-10.20899
 30
0.0
 10
1.75898
 20
-10.20899
 30
0.0
 10
1.75898
 20
-10.2763
 30
0.0
 10
1.75898
 20
-10.2763
 30
0.0
 10
1.75898
 20
-10.2763
 30
0.0
 10
1.77605
 20
-10.24511
 30
0.0
 10
1.79186
 20
-10.22451
 30
0.0
 10
1.80639
 20
-10.21463
 30
0.0
 10
1.80639
 20
-10.21463
 30
0.0
 10
1.82093
 20
-10.20461
 30
0.0
 10
1.83687
 20
-10.19967
 30
0.0
 10
1.85423
 20
-10.19967
 30
0.0
 10
1.85423
 20
-10.19967
 30
0.0
 10
1.87935
 20
-10.19967
 30
0.0
 10
1.90489
 20
-10.20758
 30
0.0
 10
1.93085
 20
-10.22324
 30
0.0
 10
1.93085
 20
-10.22324
 30
0.0
 10
1.93085
 20
-10.22324
 30
0.0
 10
1.90433
 20
-10.29196
 30
0.0
 10
1.90433
 20
-10.29196
 30
0.0
 10
1.90433
 20
-10.29196
 30
0.0
 10
1.88626
 20
-10.2818
 30
0.0
 10
1.8682
 20
-10.27672
 30
0.0
 10
1.85014
 20
-10.27672
 30
0.0
 10
1.85014
 20
-10.27672
 30
0.0
 10
1.83391
 20
-10.27672
 30
0.0
 10
1.81938
 20
-10.28166
 30
0.0
 10
1.80654
 20
-10.2914
 30
0.0
 10
1.80654
 20
-10.2914
 30
0.0
 10
1.79369
 20
-10.30113
 30
0.0
 10
1.78452
 20
-10.31468
 30
0.0
 10
1.77902
 20
-10.33204
 30
0.0
 10
1.77902
 20
-10.33204
 30
0.0
 10
1.77069
 20
-10.35843
 30
0.0
 10
1.7666
 20
-10.38735
 30
0.0
 10
1.7666
 20
-10.41882
 30
0.0
 10
1.7666
 20
-10.41882
 30
0.0
 10
1.7666
 20
-10.41882
 30
0.0
 10
1.7666
 20
-10.64841
 30
0.0
 10
1.7666
 20
-10.64841
 30
0.0
 10
1.7666
 20
-10.64841
 30
0.0
 10
1.7666
 20
-10.64841
 30
0.0
 10
1.69209
 20
-10.64841
 30
0.0
 10
1.69209
 20
-10.64841
 30
0.0
  0
ENDSEC
  0
SECTION
  2
OBJECTS
  0
DICTIONARY
  5
C
330
0
100
AcDbDictionary
281
     1
  3
ACAD_GROUP
350
D
  3
ACAD_LAYOUT
350
1A
  3
ACAD_MATERIAL
350
3B
  3
ACAD_MLEADERSTYLE
350
D0
  3
ACAD_MLINESTYLE
350
17
  3
ACAD_PLOTSETTINGS
350
19
  3
ACAD_PLOTSTYLENAME
350
E
  3
ACAD_TABLESTYLE
350
CF
  3
ACAD_VISUALSTYLE
350
2A
  0
DICTIONARY
  5
D
102
{ACAD_REACTORS
330
C
102
}
330
C
100
AcDbDictionary
281
     1
  0
DICTIONARY
  5
1A
102
{ACAD_REACTORS
330
C
102
}
330
C
100
AcDbDictionary
281
     1
  3
Layout1
350
1E
  3
Layout2
350
26
  3
Model
350
22
  0
DICTIONARY
  5
3B
102
{ACAD_REACTORS
330
C
102
}
330
C
100
AcDbDictionary
281
     1
  3
ByBlock
350
3D
  3
ByLayer
350
3C
  3
Global
350
3E
  0
DICTIONARY
  5
D0
102
{ACAD_REACTORS
330
C
102
}
330
C
100
AcDbDictionary
281
     1
  0
DICTIONARY
  5
17
102
{ACAD_REACTORS
330
C
102
}
330
C
100
AcDbDictionary
281
     1
  3
Standard
350
18
  0
DICTIONARY
  5
19
102
{ACAD_REACTORS
330
C
102
}
330
C
100
AcDbDictionary
281
     1
  0
ACDBDICTIONARYWDFLT
  5
E
102
{ACAD_REACTORS
330
C
102
}
330
C
100
AcDbDictionary
281
     1
  3
Normal
350
F
100
AcDbDictionaryWithDefault
340
F
  0
DICTIONARY
  5
CF
102
{ACAD_REACTORS
330
C
102
}
330
C
100
AcDbDictionary
281
     1
  0
DICTIONARY
  5
2A
102
{ACAD_REACTORS
330
C
102
}
330
C
100
AcDbDictionary
281
     1
  3
2dWireframe
350
2F
  3
3D Hidden
350
31
  3
3dWireframe
350
30
  3
Basic
350
32
  3
Brighten
350
36
  3
ColorChange
350
3A
  3
Conceptual
350
34
  3
Dim
350
35
  3
Facepattern
350
39
  3
Flat
350
2B
  3
FlatWithEdges
350
2C
  3
Gouraud
350
2D
  3
GouraudWithEdges
350
2E
  3
Linepattern
350
38
  3
Realistic
350
33
  3
Thicken
350
37
  0
LAYOUT
  5
1E
102
{ACAD_REACTORS
330
1A
102
}
330
1A
100
AcDbPlotSettings
  1

  2
none_device
  4

  6

 40
0.0
 41
0.0
 42
0.0
 43
0.0
 44
0.0
 45
0.0
 46
0.0
 47
0.0
 48
0.0
 49
0.0
140
0.0
141
0.0
142
1.0
143
1.0
 70
   688
 72
     0
 73
     0
 74
     5
  7

 75
    16
 76
     0
 77
     2
 78
   300
147
1.0
148
0.0
149
0.0
100
AcDbLayout
  1
Layout1
 70
     1
 71
     1
 10
0.0
 20
0.0
 11
12.0
 21
9.0
 12
0.0
 22
0.0
 32
0.0
 14
1.000000000000000E+20
 24
1.000000000000000E+20
 34
1.000000000000000E+20
 15
-1.000000000000000E+20
 25
-1.000000000000000E+20
 35
-1.000000000000000E+20
146
0.0
 13
0.0
 23
0.0
 33
0.0
 16
1.0
 26
0.0
 36
0.0
 17
0.0
 27
1.0
 37
0.0
 76
     0
330
1B
  0
LAYOUT
  5
26
102
{ACAD_REACTORS
330
1A
102
}
330
1A
100
AcDbPlotSettings
  1

  2
none_device
  4

  6

 40
0.0
 41
0.0
 42
0.0
 43
0.0
 44
0.0
 45
0.0
 46
0.0
 47
0.0
 48
0.0
 49
0.0
140
0.0
141
0.0
142
1.0
143
1.0
 70
   688
 72
     0
 73
     0
 74
     5
  7

 75
    16
 76
     0
 77
     2
 78
   300
147
1.0
148
0.0
149
0.0
100
AcDbLayout
  1
Layout2
 70
     1
 71
     2
 10
0.0
 20
0.0
 11
0.0
 21
0.0
 12
0.0
 22
0.0
 32
0.0
 14
0.0
 24
0.0
 34
0.0
 15
0.0
 25
0.0
 35
0.0
146
0.0
 13
0.0
 23
0.0
 33
0.0
 16
1.0
 26
0.0
 36
0.0
 17
0.0
 27
1.0
 37
0.0
 76
     0
330
23
  0
LAYOUT
  5
22
102
{ACAD_REACTORS
330
1A
102
}
330
1A
100
AcDbPlotSettings
  1

  2
none_device
  4

  6

 40
0.0
 41
0.0
 42
0.0
 43
0.0
 44
0.0
 45
0.0
 46
0.0
 47
0.0
 48
0.0
 49
0.0
140
0.0
141
0.0
142
1.0
143
1.0
 70
  1712
 72
     0
 73
     0
 74
     0
  7

 75
     0
 76
     0
 77
     2
 78
   300
147
1.0
148
0.0
149
0.0
100
AcDbLayout
  1
Model
 70
     1
 71
     0
 10
0.0
 20
0.0
 11
12.0
 21
9.0
 12
0.0
 22
0.0
 32
0.0
 14
-7.43529
 24
-11.31996
 34
0.0
 15
6.58235
 25
10.19768
 35
0.0
146
0.0
 13
0.0
 23
0.0
 33
0.0
 16
1.0
 26
0.0
 36
0.0
 17
0.0
 27
1.0
 37
0.0
 76
     0
330
1F
331
29
  0
MATERIAL
  5
3D
102
{ACAD_REACTORS
330
3B
102
}
330
3B
100
AcDbMaterial
  1
ByBlock
 72
     1
 94
      127
  0
MATERIAL
  5
3C
102
{ACAD_REACTORS
330
3B
102
}
330
3B
100
AcDbMaterial
  1
ByLayer
 72
     1
 94
      127
  0
MATERIAL
  5
3E
102
{ACAD_REACTORS
330
3B
102
}
330
3B
100
AcDbMaterial
  1
Global
 72
     1
 94
      127
  0
MLINESTYLE
  5
18
102
{ACAD_REACTORS
330
17
102
}
330
17
100
AcDbMlineStyle
  2
Standard
 70
     0
  3

 62
   256
 51
90.0
 52
90.0
 71
     2
 49
0.5
 62
   256
  6
BYLAYER
 49
-0.5
 62
   256
  6
BYLAYER
  0
ACDBPLACEHOLDER
  5
F
102
{ACAD_REACTORS
330
E
102
}
330
E
  0
VISUALSTYLE
  5
2F
102
{ACAD_REACTORS
330
2A
102
}
102
{ACAD_XDICTIONARY
360
B7
102
}
330
2A
100
AcDbVisualStyle
  2
2dWireframe
 70
     4
 71
     0
 72
     2
 73
     0
 90
        0
 40
-0.6
 41
-30.0
 62
     5
 63
     7
421
 16777215
 74
     1
 91
        4
 64
     7
 65
   257
 75
     1
175
     1
 42
1.0
 92
        0
 66
   257
 43
1.0
 76
     1
 77
     6
 78
     2
 67
     7
 79
     5
170
     0
171
     0
290
     0
174
     0
 93
        1
 44
0.0
173
     0
291
     0
 45
0.0
  0
VISUALSTYLE
  5
31
102
{ACAD_REACTORS
330
2A
102
}
102
{ACAD_XDICTIONARY
360
BB
102
}
330
2A
100
AcDbVisualStyle
  2
3D Hidden
 70
     6
 71
     1
 72
     2
 73
     2
 90
        0
 40
-0.6
 41
-30.0
 62
     5
 63
     7
421
 16777215
 74
     2
 91
        2
 64
     7
 65
   257
 75
     2
175
     1
 42
40.0
 92
        0
 66
   257
 43
1.0
 76
     1
 77
     6
 78
     2
 67
     7
 79
     3
170
     0
171
     0
290
     0
174
     0
 93
        1
 44
0.0
173
     0
291
     0
 45
0.0
  0
VISUALSTYLE
  5
30
102
{ACAD_REACTORS
330
2A
102
}
102
{ACAD_XDICTIONARY
360
B9
102
}
330
2A
100
AcDbVisualStyle
  2
3dWireframe
 70
     5
 71
     0
 72
     2
 73
     0
 90
        0
 40
-0.6
 41
-30.0
 62
     5
 63
     7
421
 16777215
 74
     1
 91
        4
 64
     7
 65
   257
 75
     1
175
     1
 42
1.0
 92
        0
 66
   257
 43
1.0
 76
     1
 77
     6
 78
     2
 67
     7
 79
     5
170
     0
171
     0
290
     0
174
     0
 93
        1
 44
0.0
173
     0
291
     0
 45
0.0
  0
VISUALSTYLE
  5
32
102
{ACAD_REACTORS
330
2A
102
}
102
{ACAD_XDICTIONARY
360
BD
102
}
330
2A
100
AcDbVisualStyle
  2
Basic
 70
     7
 71
     1
 72
     0
 73
     1
 90
        0
 40
-0.6
 41
-30.0
 62
     5
 63
     7
421
 16777215
 74
     0
 91
        4
 64
     7
 65
   257
 75
     1
175
     1
 42
1.0
 92
        8
 66
     7
 43
1.0
 76
     1
 77
     6
 78
     2
 67
     7
 79
     5
170
     0
171
     0
290
     0
174
     0
 93
        1
 44
0.0
173
     0
291
     1
 45
0.0
  0
VISUALSTYLE
  5
36
102
{ACAD_REACTORS
330
2A
102
}
102
{ACAD_XDICTIONARY
360
C5
102
}
330
2A
100
AcDbVisualStyle
  2
Brighten
 70
    12
 71
     2
 72
     2
 73
     0
 90
        0
 40
-0.6
 41
-30.0
 62
     5
 63
     7
421
 16777215
 74
     1
 91
        4
 64
     7
 65
   257
 75
     1
175
     1
 42
1.0
 92
        8
 66
     7
 43
1.0
 76
     1
 77
     6
 78
     2
 67
     7
 79
     5
170
     0
171
     0
290
     0
174
     0
 93
        1
 44
50.0
173
     0
291
     1
 45
0.0
  0
VISUALSTYLE
  5
3A
102
{ACAD_REACTORS
330
2A
102
}
102
{ACAD_XDICTIONARY
360
CD
102
}
330
2A
100
AcDbVisualStyle
  2
ColorChange
 70
    16
 71
     2
 72
     2
 73
     3
 90
        0
 40
-0.6
 41
-30.0
 62
     5
 63
     8
421
  8421504
 74
     1
 91
        4
 64
     7
 65
   257
 75
     1
175
     1
 42
1.0
 92
        8
 66
     8
424
  8421504
 43
1.0
 76
     1
 77
     6
 78
     2
 67
     7
 79
     5
170
     0
171
     0
290
     0
174
     0
 93
        1
 44
0.0
173
     0
291
     1
 45
0.0
  0
VISUALSTYLE
  5
34
102
{ACAD_REACTORS
330
2A
102
}
102
{ACAD_XDICTIONARY
360
C1
102
}
330
2A
100
AcDbVisualStyle
  2
Conceptual
 70
     9
 71
     3
 72
     2
 73
     0
 90
        0
 40
-0.6
 41
-30.0
 62
     5
 63
     7
421
 16777215
 74
     2
 91
        2
 64
     7
 65
   257
 75
     1
175
     1
 42
40.0
 92
        8
 66
     7
 43
1.0
 76
     1
 77
     6
 78
     2
 67
     7
 79
     3
170
     0
171
     0
290
     0
174
     0
 93
        1
 44
0.0
173
     0
291
     0
 45
0.0
  0
VISUALSTYLE
  5
35
102
{ACAD_REACTORS
330
2A
102
}
102
{ACAD_XDICTIONARY
360
C3
102
}
330
2A
100
AcDbVisualStyle
  2
Dim
 70
    11
 71
     2
 72
     2
 73
     0
 90
        0
 40
-0.6
 41
-30.0
 62
     5
 63
     7
421
 16777215
 74
     1
 91
        4
 64
     7
 65
   257
 75
     1
175
     1
 42
1.0
 92
        8
 66
     7
 43
1.0
 76
     1
 77
     6
 78
     2
 67
     7
 79
     5
170
     0
171
     0
290
     0
174
     0
 93
        1
 44
-50.0
173
     0
291
     1
 45
0.0
  0
VISUALSTYLE
  5
39
102
{ACAD_REACTORS
330
2A
102
}
102
{ACAD_XDICTIONARY
360
CB
102
}
330
2A
100
AcDbVisualStyle
  2
Facepattern
 70
    15
 71
     2
 72
     2
 73
     0
 90
        0
 40
-0.6
 41
-30.0
 62
     5
 63
     7
421
 16777215
 74
     1
 91
        4
 64
     7
 65
   257
 75
     1
175
     1
 42
1.0
 92
        8
 66
     7
 43
1.0
 76
     1
 77
     6
 78
     2
 67
     7
 79
     5
170
     0
171
     0
290
     0
174
     0
 93
        1
 44
0.0
173
     0
291
     1
 45
0.0
  0
VISUALSTYLE
  5
2B
102
{ACAD_REACTORS
330
2A
102
}
102
{ACAD_XDICTIONARY
360
AF
102
}
330
2A
100
AcDbVisualStyle
  2
Flat
 70
     0
 71
     2
 72
     1
 73
     1
 90
        2
 40
-0.6
 41
30.0
 62
     5
 63
     7
421
 16777215
 74
     0
 91
        4
 64
     7
 65
   257
 75
     1
175
     1
 42
1.0
 92
        8
 66
     7
 43
1.0
 76
     1
 77
     6
 78
     2
 67
     7
 79
     5
170
     0
171
     0
290
     0
174
     0
 93
       13
 44
0.0
173
     0
291
     1
 45
0.0
  0
VISUALSTYLE
  5
2C
102
{ACAD_REACTORS
330
2A
102
}
102
{ACAD_XDICTIONARY
360
B1
102
}
330
2A
100
AcDbVisualStyle
  2
FlatWithEdges
 70
     1
 71
     2
 72
     1
 73
     1
 90
        2
 40
-0.6
 41
30.0
 62
     5
 63
     7
421
 16777215
 74
     1
 91
        4
 64
     7
 65
   257
 75
     1
175
     1
 42
1.0
 92
        0
 66
   257
 43
1.0
 76
     1
 77
     6
 78
     2
 67
     7
 79
     5
170
     0
171
     0
290
     0
174
     0
 93
       13
 44
0.0
173
     0
291
     1
 45
0.0
  0
VISUALSTYLE
  5
2D
102
{ACAD_REACTORS
330
2A
102
}
102
{ACAD_XDICTIONARY
360
B3
102
}
330
2A
100
AcDbVisualStyle
  2
Gouraud
 70
     2
 71
     2
 72
     2
 73
     1
 90
        2
 40
-0.6
 41
30.0
 62
     5
 63
     7
421
 16777215
 74
     0
 91
        4
 64
     7
 65
   257
 75
     1
175
     1
 42
1.0
 92
        0
 66
     7
 43
1.0
 76
     1
 77
     6
 78
     2
 67
     7
 79
     5
170
     0
171
     0
290
     0
174
     0
 93
       13
 44
0.0
173
     0
291
     1
 45
0.0
  0
VISUALSTYLE
  5
2E
102
{ACAD_REACTORS
330
2A
102
}
102
{ACAD_XDICTIONARY
360
B5
102
}
330
2A
100
AcDbVisualStyle
  2
GouraudWithEdges
 70
     3
 71
     2
 72
     2
 73
     1
 90
        2
 40
-0.6
 41
30.0
 62
     5
 63
     7
421
 16777215
 74
     1
 91
        4
 64
     7
 65
   257
 75
     1
175
     1
 42
1.0
 92
        0
 66
   257
 43
1.0
 76
     1
 77
     6
 78
     2
 67
     7
 79
     5
170
     0
171
     0
290
     0
174
     0
 93
       13
 44
0.0
173
     0
291
     1
 45
0.0
  0
VISUALSTYLE
  5
38
102
{ACAD_REACTORS
330
2A
102
}
102
{ACAD_XDICTIONARY
360
C9
102
}
330
2A
100
AcDbVisualStyle
  2
Linepattern
 70
    14
 71
     2
 72
     2
 73
     0
 90
        0
 40
-0.6
 41
-30.0
 62
     5
 63
     7
421
 16777215
 74
     1
 91
        4
 64
     7
 65
   257
 75
     7
175
     7
 42
1.0
 92
        8
 66
     7
 43
1.0
 76
     1
 77
     6
 78
     2
 67
     7
 79
     5
170
     0
171
     0
290
     0
174
     0
 93
        1
 44
0.0
173
     0
291
     1
 45
0.0
  0
VISUALSTYLE
  5
33
102
{ACAD_REACTORS
330
2A
102
}
102
{ACAD_XDICTIONARY
360
BF
102
}
330
2A
100
AcDbVisualStyle
  2
Realistic
 70
     8
 71
     2
 72
     2
 73
     0
 90
        0
 40
-0.6
 41
-30.0
 62
     5
 63
     7
421
 16777215
 74
     1
 91
        0
 64
     7
 65
   257
 75
     1
175
     1
 42
1.0
 92
        8
 66
     8
424
  7895160
 43
1.0
 76
     1
 77
     6
 78
     2
 67
     7
 79
     5
170
     0
171
     0
290
     0
174
     0
 93
       13
 44
0.0
173
     0
291
     0
 45
0.0
  0
VISUALSTYLE
  5
37
102
{ACAD_REACTORS
330
2A
102
}
102
{ACAD_XDICTIONARY
360
C7
102
}
330
2A
100
AcDbVisualStyle
  2
Thicken
 70
    13
 71
     2
 72
     2
 73
     0
 90
        0
 40
-0.6
 41
-30.0
 62
     5
 63
     7
421
 16777215
 74
     1
 91
        4
 64
     7
 65
   257
 75
     1
175
     1
 42
1.0
 92
       12
 66
     7
 43
1.0
 76
     1
 77
     6
 78
     2
 67
     7
 79
     5
170
     0
171
     0
290
     0
174
     0
 93
        1
 44
0.0
173
     0
291
     1
 45
0.0
  0
DICTIONARY
  5
B7
330
2F
100
AcDbDictionary
280
     1
281
     1
  3
ACAD_XREC_ROUNDTRIP
360
B8
  0
DICTIONARY
  5
BB
330
31
100
AcDbDictionary
280
     1
281
     1
  3
ACAD_XREC_ROUNDTRIP
360
BC
  0
DICTIONARY
  5
B9
330
30
100
AcDbDictionary
280
     1
281
     1
  3
ACAD_XREC_ROUNDTRIP
360
BA
  0
DICTIONARY
  5
BD
330
32
100
AcDbDictionary
280
     1
281
     1
  3
ACAD_XREC_ROUNDTRIP
360
BE
  0
DICTIONARY
  5
C5
330
36
100
AcDbDictionary
280
     1
281
     1
  3
ACAD_XREC_ROUNDTRIP
360
C6
  0
DICTIONARY
  5
CD
330
3A
100
AcDbDictionary
280
     1
281
     1
  3
ACAD_XREC_ROUNDTRIP
360
CE
  0
DICTIONARY
  5
C1
330
34
100
AcDbDictionary
280
     1
281
     1
  3
ACAD_XREC_ROUNDTRIP
360
C2
  0
DICTIONARY
  5
C3
330
35
100
AcDbDictionary
280
     1
281
     1
  3
ACAD_XREC_ROUNDTRIP
360
C4
  0
DICTIONARY
  5
CB
330
39
100
AcDbDictionary
280
     1
281
     1
  3
ACAD_XREC_ROUNDTRIP
360
CC
  0
DICTIONARY
  5
AF
330
2B
100
AcDbDictionary
280
     1
281
     1
  3
ACAD_XREC_ROUNDTRIP
360
B0
  0
DICTIONARY
  5
B1
330
2C
100
AcDbDictionary
280
     1
281
     1
  3
ACAD_XREC_ROUNDTRIP
360
B2
  0
DICTIONARY
  5
B3
330
2D
100
AcDbDictionary
280
     1
281
     1
  3
ACAD_XREC_ROUNDTRIP
360
B4
  0
DICTIONARY
  5
B5
330
2E
100
AcDbDictionary
280
     1
281
     1
  3
ACAD_XREC_ROUNDTRIP
360
B6
  0
DICTIONARY
  5
C9
330
38
100
AcDbDictionary
280
     1
281
     1
  3
ACAD_XREC_ROUNDTRIP
360
CA
  0
DICTIONARY
  5
BF
330
33
100
AcDbDictionary
280
     1
281
     1
  3
ACAD_XREC_ROUNDTRIP
360
C0
  0
DICTIONARY
  5
C7
330
37
100
AcDbDictionary
280
     1
281
     1
  3
ACAD_XREC_ROUNDTRIP
360
C8
  0
XRECORD
  5
B8
102
{ACAD_REACTORS
330
B7
102
}
330
B7
100
AcDbXrecord
280
     1
102
RTVSPropertyOp0
 70
     1
102
RTVSPropertyOp1
 70
     1
102
RTVSPropertyOp2
 70
     1
102
RTVSPropertyOp3
 70
     1
102
RTVSPropertyOp4
 70
     1
102
RTVSPropertyOp5
 70
     1
102
RTVSPropertyOp6
 70
     1
102
RTVSPropertyOp7
 70
     1
102
RTVSPropertyOp8
 70
     1
102
RTVSPropertyOp9
 70
     1
102
RTVSPropertyOp10
 70
     1
102
RTVSPropertyOp11
 70
     1
102
RTVSPropertyOp12
 70
     1
102
RTVSPropertyOp13
 70
     1
102
RTVSPropertyOp14
 70
     1
102
RTVSPropertyOp15
 70
     1
102
RTVSPropertyOp16
 70
     1
102
RTVSPropertyOp17
 70
     1
102
RTVSPropertyOp18
 70
     1
102
RTVSPropertyOp19
 70
     1
102
RTVSPropertyOp20
 70
     1
102
RTVSPropertyOp21
 70
     1
102
RTVSPropertyOp22
 70
     1
102
RTVSPropertyOp23
 70
     1
102
RTVSPropertyOp24
 70
     1
102
RTVSPropertyOp25
 70
     1
102
RTVSPropertyOp26
 70
     1
102
RTVSPropertyOp27
 70
     1
102
RTVSPropertyOp28
 70
     1
102
RTVSPropertyOp29
 70
     1
102
RTVSPropertyOp30
 70
     1
102
RTVSPropertyOp31
 70
     1
102
RTVSPropertyOp32
 70
     1
  0
XRECORD
  5
BC
102
{ACAD_REACTORS
330
BB
102
}
330
BB
100
AcDbXrecord
280
     1
102
RTVSPropertyOp0
 70
     1
102
RTVSPropertyOp1
 70
     1
102
RTVSPropertyOp2
 70
     1
102
RTVSPropertyOp3
 70
     1
102
RTVSPropertyOp4
 70
     1
102
RTVSPropertyOp5
 70
     1
102
RTVSPropertyOp6
 70
     1
102
RTVSPropertyOp7
 70
     1
102
RTVSPropertyOp8
 70
     1
102
RTVSPropertyOp9
 70
     1
102
RTVSPropertyOp10
 70
     1
102
RTVSPropertyOp11
 70
     1
102
RTVSPropertyOp12
 70
     1
102
RTVSPropertyOp13
 70
     1
102
RTVSPropertyOp14
 70
     1
102
RTVSPropertyOp15
 70
     1
102
RTVSPropertyOp16
 70
     1
102
RTVSPropertyOp17
 70
     1
102
RTVSPropertyOp18
 70
     1
102
RTVSPropertyOp19
 70
     1
102
RTVSPropertyOp20
 70
     1
102
RTVSPropertyOp21
 70
     1
102
RTVSPropertyOp22
 70
     1
102
RTVSPropertyOp23
 70
     1
102
RTVSPropertyOp24
 70
     1
102
RTVSPropertyOp25
 70
     1
102
RTVSPropertyOp26
 70
     1
102
RTVSPropertyOp27
 70
     1
102
RTVSPropertyOp28
 70
     1
102
RTVSPropertyOp29
 70
     1
102
RTVSPropertyOp30
 70
     1
102
RTVSPropertyOp31
 70
     1
102
RTVSPropertyOp32
 70
     1
  0
XRECORD
  5
BA
102
{ACAD_REACTORS
330
B9
102
}
330
B9
100
AcDbXrecord
280
     1
102
RTVSPropertyOp0
 70
     1
102
RTVSPropertyOp1
 70
     1
102
RTVSPropertyOp2
 70
     1
102
RTVSPropertyOp3
 70
     1
102
RTVSPropertyOp4
 70
     1
102
RTVSPropertyOp5
 70
     1
102
RTVSPropertyOp6
 70
     1
102
RTVSPropertyOp7
 70
     1
102
RTVSPropertyOp8
 70
     1
102
RTVSPropertyOp9
 70
     1
102
RTVSPropertyOp10
 70
     1
102
RTVSPropertyOp11
 70
     1
102
RTVSPropertyOp12
 70
     1
102
RTVSPropertyOp13
 70
     1
102
RTVSPropertyOp14
 70
     1
102
RTVSPropertyOp15
 70
     1
102
RTVSPropertyOp16
 70
     1
102
RTVSPropertyOp17
 70
     1
102
RTVSPropertyOp18
 70
     1
102
RTVSPropertyOp19
 70
     1
102
RTVSPropertyOp20
 70
     1
102
RTVSPropertyOp21
 70
     1
102
RTVSPropertyOp22
 70
     1
102
RTVSPropertyOp23
 70
     1
102
RTVSPropertyOp24
 70
     1
102
RTVSPropertyOp25
 70
     1
102
RTVSPropertyOp26
 70
     1
102
RTVSPropertyOp27
 70
     1
102
RTVSPropertyOp28
 70
     1
102
RTVSPropertyOp29
 70
     1
102
RTVSPropertyOp30
 70
     1
102
RTVSPropertyOp31
 70
     1
102
RTVSPropertyOp32
 70
     1
  0
XRECORD
  5
BE
102
{ACAD_REACTORS
330
BD
102
}
330
BD
100
AcDbXrecord
280
     1
102
RTVSPropertyOp0
 70
     1
102
RTVSPropertyOp1
 70
     1
102
RTVSPropertyOp2
 70
     1
102
RTVSPropertyOp3
 70
     1
102
RTVSPropertyOp4
 70
     1
102
RTVSPropertyOp5
 70
     1
102
RTVSPropertyOp6
 70
     1
102
RTVSPropertyOp7
 70
     1
102
RTVSPropertyOp8
 70
     1
102
RTVSPropertyOp9
 70
     1
102
RTVSPropertyOp10
 70
     1
102
RTVSPropertyOp11
 70
     1
102
RTVSPropertyOp12
 70
     1
102
RTVSPropertyOp13
 70
     1
102
RTVSPropertyOp14
 70
     1
102
RTVSPropertyOp15
 70
     1
102
RTVSPropertyOp16
 70
     1
102
RTVSPropertyOp17
 70
     1
102
RTVSPropertyOp18
 70
     1
102
RTVSPropertyOp19
 70
     1
102
RTVSPropertyOp20
 70
     1
102
RTVSPropertyOp21
 70
     1
102
RTVSPropertyOp22
 70
     1
102
RTVSPropertyOp23
 70
     1
102
RTVSPropertyOp24
 70
     1
102
RTVSPropertyOp25
 70
     1
102
RTVSPropertyOp26
 70
     1
102
RTVSPropertyOp27
 70
     1
102
RTVSPropertyOp28
 70
     1
102
RTVSPropertyOp29
 70
     1
102
RTVSPropertyOp30
 70
     1
102
RTVSPropertyOp31
 70
     1
102
RTVSPropertyOp32
 70
     1
  0
XRECORD
  5
C6
102
{ACAD_REACTORS
330
C5
102
}
330
C5
100
AcDbXrecord
280
     1
102
RTVSPropertyOp0
 70
     1
102
RTVSPropertyOp1
 70
     1
102
RTVSPropertyOp2
 70
     1
102
RTVSPropertyOp3
 70
     1
102
RTVSPropertyOp4
 70
     1
102
RTVSPropertyOp5
 70
     1
102
RTVSPropertyOp6
 70
     1
102
RTVSPropertyOp7
 70
     1
102
RTVSPropertyOp8
 70
     1
102
RTVSPropertyOp9
 70
     1
102
RTVSPropertyOp10
 70
     1
102
RTVSPropertyOp11
 70
     1
102
RTVSPropertyOp12
 70
     1
102
RTVSPropertyOp13
 70
     1
102
RTVSPropertyOp14
 70
     1
102
RTVSPropertyOp15
 70
     1
102
RTVSPropertyOp16
 70
     1
102
RTVSPropertyOp17
 70
     1
102
RTVSPropertyOp18
 70
     1
102
RTVSPropertyOp19
 70
     1
102
RTVSPropertyOp20
 70
     1
102
RTVSPropertyOp21
 70
     1
102
RTVSPropertyOp22
 70
     1
102
RTVSPropertyOp23
 70
     1
102
RTVSPropertyOp24
 70
     1
102
RTVSPropertyOp25
 70
     1
102
RTVSPropertyOp26
 70
     1
102
RTVSPropertyOp27
 70
     1
102
RTVSPropertyOp28
 70
     1
102
RTVSPropertyOp29
 70
     1
102
RTVSPropertyOp30
 70
     1
102
RTVSPropertyOp31
 70
     1
102
RTVSPropertyOp32
 70
     1
  0
XRECORD
  5
CE
102
{ACAD_REACTORS
330
CD
102
}
330
CD
100
AcDbXrecord
280
     1
102
RTVSPropertyOp0
 70
     1
102
RTVSPropertyOp1
 70
     1
102
RTVSPropertyOp2
 70
     1
102
RTVSPropertyOp3
 70
     1
102
RTVSPropertyOp4
 70
     1
102
RTVSPropertyOp5
 70
     1
102
RTVSPropertyOp6
 70
     1
102
RTVSPropertyOp7
 70
     1
102
RTVSPropertyOp8
 70
     1
102
RTVSPropertyOp9
 70
     1
102
RTVSPropertyOp10
 70
     1
102
RTVSPropertyOp11
 70
     1
102
RTVSPropertyOp12
 70
     1
102
RTVSPropertyOp13
 70
     1
102
RTVSPropertyOp14
 70
     1
102
RTVSPropertyOp15
 70
     1
102
RTVSPropertyOp16
 70
     1
102
RTVSPropertyOp17
 70
     1
102
RTVSPropertyOp18
 70
     1
102
RTVSPropertyOp19
 70
     1
102
RTVSPropertyOp20
 70
     1
102
RTVSPropertyOp21
 70
     1
102
RTVSPropertyOp22
 70
     1
102
RTVSPropertyOp23
 70
     1
102
RTVSPropertyOp24
 70
     1
102
RTVSPropertyOp25
 70
     1
102
RTVSPropertyOp26
 70
     1
102
RTVSPropertyOp27
 70
     1
102
RTVSPropertyOp28
 70
     1
102
RTVSPropertyOp29
 70
     1
102
RTVSPropertyOp30
 70
     1
102
RTVSPropertyOp31
 70
     1
102
RTVSPropertyOp32
 70
     1
  0
XRECORD
  5
C2
102
{ACAD_REACTORS
330
C1
102
}
330
C1
100
AcDbXrecord
280
     1
102
RTVSPropertyOp0
 70
     1
102
RTVSPropertyOp1
 70
     1
102
RTVSPropertyOp2
 70
     1
102
RTVSPropertyOp3
 70
     1
102
RTVSPropertyOp4
 70
     1
102
RTVSPropertyOp5
 70
     1
102
RTVSPropertyOp6
 70
     1
102
RTVSPropertyOp7
 70
     1
102
RTVSPropertyOp8
 70
     1
102
RTVSPropertyOp9
 70
     1
102
RTVSPropertyOp10
 70
     1
102
RTVSPropertyOp11
 70
     1
102
RTVSPropertyOp12
 70
     1
102
RTVSPropertyOp13
 70
     1
102
RTVSPropertyOp14
 70
     1
102
RTVSPropertyOp15
 70
     1
102
RTVSPropertyOp16
 70
     1
102
RTVSPropertyOp17
 70
     1
102
RTVSPropertyOp18
 70
     1
102
RTVSPropertyOp19
 70
     1
102
RTVSPropertyOp20
 70
     1
102
RTVSPropertyOp21
 70
     1
102
RTVSPropertyOp22
 70
     1
102
RTVSPropertyOp23
 70
     1
102
RTVSPropertyOp24
 70
     1
102
RTVSPropertyOp25
 70
     1
102
RTVSPropertyOp26
 70
     1
102
RTVSPropertyOp27
 70
     1
102
RTVSPropertyOp28
 70
     1
102
RTVSPropertyOp29
 70
     1
102
RTVSPropertyOp30
 70
     1
102
RTVSPropertyOp31
 70
     1
102
RTVSPropertyOp32
 70
     1
  0
XRECORD
  5
C4
102
{ACAD_REACTORS
330
C3
102
}
330
C3
100
AcDbXrecord
280
     1
102
RTVSPropertyOp0
 70
     1
102
RTVSPropertyOp1
 70
     1
102
RTVSPropertyOp2
 70
     1
102
RTVSPropertyOp3
 70
     1
102
RTVSPropertyOp4
 70
     1
102
RTVSPropertyOp5
 70
     1
102
RTVSPropertyOp6
 70
     1
102
RTVSPropertyOp7
 70
     1
102
RTVSPropertyOp8
 70
     1
102
RTVSPropertyOp9
 70
     1
102
RTVSPropertyOp10
 70
     1
102
RTVSPropertyOp11
 70
     1
102
RTVSPropertyOp12
 70
     1
102
RTVSPropertyOp13
 70
     1
102
RTVSPropertyOp14
 70
     1
102
RTVSPropertyOp15
 70
     1
102
RTVSPropertyOp16
 70
     1
102
RTVSPropertyOp17
 70
     1
102
RTVSPropertyOp18
 70
     1
102
RTVSPropertyOp19
 70
     1
102
RTVSPropertyOp20
 70
     1
102
RTVSPropertyOp21
 70
     1
102
RTVSPropertyOp22
 70
     1
102
RTVSPropertyOp23
 70
     1
102
RTVSPropertyOp24
 70
     1
102
RTVSPropertyOp25
 70
     1
102
RTVSPropertyOp26
 70
     1
102
RTVSPropertyOp27
 70
     1
102
RTVSPropertyOp28
 70
     1
102
RTVSPropertyOp29
 70
     1
102
RTVSPropertyOp30
 70
     1
102
RTVSPropertyOp31
 70
     1
102
RTVSPropertyOp32
 70
     1
  0
XRECORD
  5
CC
102
{ACAD_REACTORS
330
CB
102
}
330
CB
100
AcDbXrecord
280
     1
102
RTVSPropertyOp0
 70
     1
102
RTVSPropertyOp1
 70
     1
102
RTVSPropertyOp2
 70
     1
102
RTVSPropertyOp3
 70
     1
102
RTVSPropertyOp4
 70
     1
102
RTVSPropertyOp5
 70
     1
102
RTVSPropertyOp6
 70
     1
102
RTVSPropertyOp7
 70
     1
102
RTVSPropertyOp8
 70
     1
102
RTVSPropertyOp9
 70
     1
102
RTVSPropertyOp10
 70
     1
102
RTVSPropertyOp11
 70
     1
102
RTVSPropertyOp12
 70
     1
102
RTVSPropertyOp13
 70
     1
102
RTVSPropertyOp14
 70
     1
102
RTVSPropertyOp15
 70
     1
102
RTVSPropertyOp16
 70
     1
102
RTVSPropertyOp17
 70
     1
102
RTVSPropertyOp18
 70
     1
102
RTVSPropertyOp19
 70
     1
102
RTVSPropertyOp20
 70
     1
102
RTVSPropertyOp21
 70
     1
102
RTVSPropertyOp22
 70
     1
102
RTVSPropertyOp23
 70
     1
102
RTVSPropertyOp24
 70
     1
102
RTVSPropertyOp25
 70
     1
102
RTVSPropertyOp26
 70
     1
102
RTVSPropertyOp27
 70
     1
102
RTVSPropertyOp28
 70
     1
102
RTVSPropertyOp29
 70
     1
102
RTVSPropertyOp30
 70
     1
102
RTVSPropertyOp31
 70
     1
102
RTVSPropertyOp32
 70
     1
  0
XRECORD
  5
B0
102
{ACAD_REACTORS
330
AF
102
}
330
AF
100
AcDbXrecord
280
     1
102
RTVSPropertyOp0
 70
     1
102
RTVSPropertyOp1
 70
     1
102
RTVSPropertyOp2
 70
     1
102
RTVSPropertyOp3
 70
     1
102
RTVSPropertyOp4
 70
     1
102
RTVSPropertyOp5
 70
     1
102
RTVSPropertyOp6
 70
     1
102
RTVSPropertyOp7
 70
     1
102
RTVSPropertyOp8
 70
     1
102
RTVSPropertyOp9
 70
     1
102
RTVSPropertyOp10
 70
     1
102
RTVSPropertyOp11
 70
     1
102
RTVSPropertyOp12
 70
     1
102
RTVSPropertyOp13
 70
     1
102
RTVSPropertyOp14
 70
     1
102
RTVSPropertyOp15
 70
     1
102
RTVSPropertyOp16
 70
     1
102
RTVSPropertyOp17
 70
     1
102
RTVSPropertyOp18
 70
     1
102
RTVSPropertyOp19
 70
     1
102
RTVSPropertyOp20
 70
     1
102
RTVSPropertyOp21
 70
     1
102
RTVSPropertyOp22
 70
     1
102
RTVSPropertyOp23
 70
     1
102
RTVSPropertyOp24
 70
     1
102
RTVSPropertyOp25
 70
     1
102
RTVSPropertyOp26
 70
     1
102
RTVSPropertyOp27
 70
     1
102
RTVSPropertyOp28
 70
     1
102
RTVSPropertyOp29
 70
     1
102
RTVSPropertyOp30
 70
     1
102
RTVSPropertyOp31
 70
     1
102
RTVSPropertyOp32
 70
     1
  0
XRECORD
  5
B2
102
{ACAD_REACTORS
330
B1
102
}
330
B1
100
AcDbXrecord
280
     1
102
RTVSPropertyOp0
 70
     1
102
RTVSPropertyOp1
 70
     1
102
RTVSPropertyOp2
 70
     1
102
RTVSPropertyOp3
 70
     1
102
RTVSPropertyOp4
 70
     1
102
RTVSPropertyOp5
 70
     1
102
RTVSPropertyOp6
 70
     1
102
RTVSPropertyOp7
 70
     1
102
RTVSPropertyOp8
 70
     1
102
RTVSPropertyOp9
 70
     1
102
RTVSPropertyOp10
 70
     1
102
RTVSPropertyOp11
 70
     1
102
RTVSPropertyOp12
 70
     1
102
RTVSPropertyOp13
 70
     1
102
RTVSPropertyOp14
 70
     1
102
RTVSPropertyOp15
 70
     1
102
RTVSPropertyOp16
 70
     1
102
RTVSPropertyOp17
 70
     1
102
RTVSPropertyOp18
 70
     1
102
RTVSPropertyOp19
 70
     1
102
RTVSPropertyOp20
 70
     1
102
RTVSPropertyOp21
 70
     1
102
RTVSPropertyOp22
 70
     1
102
RTVSPropertyOp23
 70
     1
102
RTVSPropertyOp24
 70
     1
102
RTVSPropertyOp25
 70
     1
102
RTVSPropertyOp26
 70
     1
102
RTVSPropertyOp27
 70
     1
102
RTVSPropertyOp28
 70
     1
102
RTVSPropertyOp29
 70
     1
102
RTVSPropertyOp30
 70
     1
102
RTVSPropertyOp31
 70
     1
102
RTVSPropertyOp32
 70
     1
  0
XRECORD
  5
B4
102
{ACAD_REACTORS
330
B3
102
}
330
B3
100
AcDbXrecord
280
     1
102
RTVSPropertyOp0
 70
     1
102
RTVSPropertyOp1
 70
     1
102
RTVSPropertyOp2
 70
     1
102
RTVSPropertyOp3
 70
     1
102
RTVSPropertyOp4
 70
     1
102
RTVSPropertyOp5
 70
     1
102
RTVSPropertyOp6
 70
     1
102
RTVSPropertyOp7
 70
     1
102
RTVSPropertyOp8
 70
     1
102
RTVSPropertyOp9
 70
     1
102
RTVSPropertyOp10
 70
     1
102
RTVSPropertyOp11
 70
     1
102
RTVSPropertyOp12
 70
     1
102
RTVSPropertyOp13
 70
     1
102
RTVSPropertyOp14
 70
     1
102
RTVSPropertyOp15
 70
     1
102
RTVSPropertyOp16
 70
     1
102
RTVSPropertyOp17
 70
     1
102
RTVSPropertyOp18
 70
     1
102
RTVSPropertyOp19
 70
     1
102
RTVSPropertyOp20
 70
     1
102
RTVSPropertyOp21
 70
     1
102
RTVSPropertyOp22
 70
     1
102
RTVSPropertyOp23
 70
     1
102
RTVSPropertyOp24
 70
     1
102
RTVSPropertyOp25
 70
     1
102
RTVSPropertyOp26
 70
     1
102
RTVSPropertyOp27
 70
     1
102
RTVSPropertyOp28
 70
     1
102
RTVSPropertyOp29
 70
     1
102
RTVSPropertyOp30
 70
     1
102
RTVSPropertyOp31
 70
     1
102
RTVSPropertyOp32
 70
     1
  0
XRECORD
  5
B6
102
{ACAD_REACTORS
330
B5
102
}
330
B5
100
AcDbXrecord
280
     1
102
RTVSPropertyOp0
 70
     1
102
RTVSPropertyOp1
 70
     1
102
RTVSPropertyOp2
 70
     1
102
RTVSPropertyOp3
 70
     1
102
RTVSPropertyOp4
 70
     1
102
RTVSPropertyOp5
 70
     1
102
RTVSPropertyOp6
 70
     1
102
RTVSPropertyOp7
 70
     1
102
RTVSPropertyOp8
 70
     1
102
RTVSPropertyOp9
 70
     1
102
RTVSPropertyOp10
 70
     1
102
RTVSPropertyOp11
 70
     1
102
RTVSPropertyOp12
 70
     1
102
RTVSPropertyOp13
 70
     1
102
RTVSPropertyOp14
 70
     1
102
RTVSPropertyOp15
 70
     1
102
RTVSPropertyOp16
 70
     1
102
RTVSPropertyOp17
 70
     1
102
RTVSPropertyOp18
 70
     1
102
RTVSPropertyOp19
 70
     1
102
RTVSPropertyOp20
 70
     1
102
RTVSPropertyOp21
 70
     1
102
RTVSPropertyOp22
 70
     1
102
RTVSPropertyOp23
 70
     1
102
RTVSPropertyOp24
 70
     1
102
RTVSPropertyOp25
 70
     1
102
RTVSPropertyOp26
 70
     1
102
RTVSPropertyOp27
 70
     1
102
RTVSPropertyOp28
 70
     1
102
RTVSPropertyOp29
 70
     1
102
RTVSPropertyOp30
 70
     1
102
RTVSPropertyOp31
 70
     1
102
RTVSPropertyOp32
 70
     1
  0
XRECORD
  5
CA
102
{ACAD_REACTORS
330
C9
102
}
330
C9
100
AcDbXrecord
280
     1
102
RTVSPropertyOp0
 70
     1
102
RTVSPropertyOp1
 70
     1
102
RTVSPropertyOp2
 70
     1
102
RTVSPropertyOp3
 70
     1
102
RTVSPropertyOp4
 70
     1
102
RTVSPropertyOp5
 70
     1
102
RTVSPropertyOp6
 70
     1
102
RTVSPropertyOp7
 70
     1
102
RTVSPropertyOp8
 70
     1
102
RTVSPropertyOp9
 70
     1
102
RTVSPropertyOp10
 70
     1
102
RTVSPropertyOp11
 70
     1
102
RTVSPropertyOp12
 70
     1
102
RTVSPropertyOp13
 70
     1
102
RTVSPropertyOp14
 70
     1
102
RTVSPropertyOp15
 70
     1
102
RTVSPropertyOp16
 70
     1
102
RTVSPropertyOp17
 70
     1
102
RTVSPropertyOp18
 70
     1
102
RTVSPropertyOp19
 70
     1
102
RTVSPropertyOp20
 70
     1
102
RTVSPropertyOp21
 70
     1
102
RTVSPropertyOp22
 70
     1
102
RTVSPropertyOp23
 70
     1
102
RTVSPropertyOp24
 70
     1
102
RTVSPropertyOp25
 70
     1
102
RTVSPropertyOp26
 70
     1
102
RTVSPropertyOp27
 70
     1
102
RTVSPropertyOp28
 70
     1
102
RTVSPropertyOp29
 70
     1
102
RTVSPropertyOp30
 70
     1
102
RTVSPropertyOp31
 70
     1
102
RTVSPropertyOp32
 70
     1
  0
XRECORD
  5
C0
102
{ACAD_REACTORS
330
BF
102
}
330
BF
100
AcDbXrecord
280
     1
102
RTVSPropertyOp0
 70
     1
102
RTVSPropertyOp1
 70
     1
102
RTVSPropertyOp2
 70
     1
102
RTVSPropertyOp3
 70
     1
102
RTVSPropertyOp4
 70
     1
102
RTVSPropertyOp5
 70
     1
102
RTVSPropertyOp6
 70
     1
102
RTVSPropertyOp7
 70
     1
102
RTVSPropertyOp8
 70
     1
102
RTVSPropertyOp9
 70
     1
102
RTVSPropertyOp10
 70
     1
102
RTVSPropertyOp11
 70
     1
102
RTVSPropertyOp12
 70
     1
102
RTVSPropertyOp13
 70
     1
102
RTVSPropertyOp14
 70
     1
102
RTVSPropertyOp15
 70
     1
102
RTVSPropertyOp16
 70
     1
102
RTVSPropertyOp17
 70
     1
102
RTVSPropertyOp18
 70
     1
102
RTVSPropertyOp19
 70
     1
102
RTVSPropertyOp20
 70
     1
102
RTVSPropertyOp21
 70
     1
102
RTVSPropertyOp22
 70
     1
102
RTVSPropertyOp23
 70
     1
102
RTVSPropertyOp24
 70
     1
102
RTVSPropertyOp25
 70
     1
102
RTVSPropertyOp26
 70
     1
102
RTVSPropertyOp27
 70
     1
102
RTVSPropertyOp28
 70
     1
102
RTVSPropertyOp29
 70
     1
102
RTVSPropertyOp30
 70
     1
102
RTVSPropertyOp31
 70
     1
102
RTVSPropertyOp32
 70
     1
  0
XRECORD
  5
C8
102
{ACAD_REACTORS
330
C7
102
}
330
C7
100
AcDbXrecord
280
     1
102
RTVSPropertyOp0
 70
     1
102
RTVSPropertyOp1
 70
     1
102
RTVSPropertyOp2
 70
     1
102
RTVSPropertyOp3
 70
     1
102
RTVSPropertyOp4
 70
     1
102
RTVSPropertyOp5
 70
     1
102
RTVSPropertyOp6
 70
     1
102
RTVSPropertyOp7
 70
     1
102
RTVSPropertyOp8
 70
     1
102
RTVSPropertyOp9
 70
     1
102
RTVSPropertyOp10
 70
     1
102
RTVSPropertyOp11
 70
     1
102
RTVSPropertyOp12
 70
     1
102
RTVSPropertyOp13
 70
     1
102
RTVSPropertyOp14
 70
     1
102
RTVSPropertyOp15
 70
     1
102
RTVSPropertyOp16
 70
     1
102
RTVSPropertyOp17
 70
     1
102
RTVSPropertyOp18
 70
     1
102
RTVSPropertyOp19
 70
     1
102
RTVSPropertyOp20
 70
     1
102
RTVSPropertyOp21
 70
     1
102
RTVSPropertyOp22
 70
     1
102
RTVSPropertyOp23
 70
     1
102
RTVSPropertyOp24
 70
     1
102
RTVSPropertyOp25
 70
     1
102
RTVSPropertyOp26
 70
     1
102
RTVSPropertyOp27
 70
     1
102
RTVSPropertyOp28
 70
     1
102
RTVSPropertyOp29
 70
     1
102
RTVSPropertyOp30
 70
     1
102
RTVSPropertyOp31
 70
     1
102
RTVSPropertyOp32
 70
     1
  0
ENDSEC
  0
EOF
