  0
SECTION
  2
HEADER
  9
$ACADVER
  1
AC1014
  9
$HANDSEED
  5
FFFF
  9
$MEASUREMENT
 70
     1
  0
ENDSEC
  0
SECTION
  2
TABLES
  0
TABLE
  2
VPORT
  5
8
330
0
100
AcDbSymbolTable
 70
     4
  0
VPORT
  5
2E
330
8
100
AcDbSymbolTableRecord
100
AcDbViewportTableRecord
  2
*ACTIVE
 70
     0
 10
0.0
 20
0.0
 11
1.0
 21
1.0
 12
210.0
 22
148.5
 13
0.0
 23
0.0
 14
10.0
 24
10.0
 15
10.0
 25
10.0
 16
0.0
 26
0.0
 36
1.0
 17
0.0
 27
0.0
 37
0.0
 40
341.0
 41
1.24
 42
50.0
 43
0.0
 44
0.0
 50
0.0
 51
0.0
 71
     0
 72
   100
 73
     1
 74
     3
 75
     0
 76
     0
 77
     0
 78
     0
  0
ENDTAB
  0
TABLE
  2
LTYPE
  5
5
330
0
100
AcDbSymbolTable
 70
     1
  0
LTYPE
  5
14
330
5
100
AcDbSymbolTableRecord
100
AcDbLinetypeTableRecord
  2
BYBLOCK
 70
     0
  3

 72
    65
 73
     0
 40
0.0
  0
LTYPE
  5
15
330
5
100
AcDbSymbolTableRecord
100
AcDbLinetypeTableRecord
  2
BYLAYER
 70
     0
  3

 72
    65
 73
     0
 40
0.0
  0
LTYPE
  5
16
330
5
100
AcDbSymbolTableRecord
100
AcDbLinetypeTableRecord
  2
CONTINUOUS
 70
     0
  3
Solid line
 72
    65
 73
     0
 40
0.0
  0
ENDTAB
  0
TABLE
  2
LAYER
  5
2
100
AcDbSymbolTable
 70
2
  0
LAYER
  5
50
100
AcDbSymbolTableRecord
100
AcDbLayerTableRecord
  2
0
 70
0
  6
CONTINUOUS
  0
LAYER
  5
51
100
AcDbSymbolTableRecord
100
AcDbLayerTableRecord
  2
comments
 70
0
  6
CONTINUOUS
  0
ENDTAB
  0
TABLE
  2
STYLE
  5
3
330
0
100
AcDbSymbolTable
 70
     1
  0
STYLE
  5
11
330
3
100
AcDbSymbolTableRecord
100
AcDbTextStyleTableRecord
  2
STANDARD
 70
     0
 40
0.0
 41
1.0
 50
0.0
 71
     0
 42
2.5
  3
txt
  4

  0
ENDTAB
  0
TABLE
  2
VIEW
  5
6
330
0
100
AcDbSymbolTable
 70
     0
  0
ENDTAB
  0
TABLE
  2
UCS
  5
7
330
0
100
AcDbSymbolTable
 70
     0
  0
ENDTAB
  0
TABLE
  2
APPID
  5
9
330
0
100
AcDbSymbolTable
 70
     2
  0
APPID
  5
12
330
9
100
AcDbSymbolTableRecord
100
AcDbRegAppTableRecord
  2
ACAD
 70
     0
  0
ENDTAB
  0
TABLE
  2
DIMSTYLE
  5
A
330
0
100
AcDbSymbolTable
 70
     1
  0
DIMSTYLE
105
27
330
A
100
AcDbSymbolTableRecord
100
AcDbDimStyleTableRecord
  2
ISO-25
 70
     0
  3

  4

  5

  6

  7

 40
1.0
 41
2.5
 42
0.625
 43
3.75
 44
1.25
 45
0.0
 46
0.0
 47
0.0
 48
0.0
140
2.5
141
2.5
142
0.0
143
0.03937007874016
144
1.0
145
0.0
146
1.0
147
0.625
 71
     0
 72
     0
 73
     0
 74
     0
 75
     0
 76
     0
 77
     1
 78
     8
170
     0
171
     3
172
     1
173
     0
174
     0
175
     0
176
     0
177
     0
178
     0
270
     2
271
     2
272
     2
273
     2
274
     3
340
11
275
     0
280
     0
281
     0
282
     0
283
     0
284
     8
285
     0
286
     0
287
     3
288
     0
  0
ENDTAB
  0
TABLE
  2
BLOCK_RECORD
  5
1
330
0
100
AcDbSymbolTable
 70
     1
  0
BLOCK_RECORD
  5
1F
330
1
100
AcDbSymbolTableRecord
100
AcDbBlockTableRecord
  2
*MODEL_SPACE
  0
BLOCK_RECORD
  5
1B
330
1
100
AcDbSymbolTableRecord
100
AcDbBlockTableRecord
  2
*PAPER_SPACE
  0
ENDTAB
  0
ENDSEC
  0
SECTION
  2
BLOCKS
  0
BLOCK
  5
20
330
1F
100
AcDbEntity
  8
0
100
AcDbBlockBegin
  2
*MODEL_SPACE
 70
     0
 10
0.0
 20
0.0
 30
0.0
  3
*MODEL_SPACE
  1

  0
ENDBLK
  5
21
330
1F
100
AcDbEntity
  8
0
100
AcDbBlockEnd
  0
BLOCK
  5
1C
330
1B
100
AcDbEntity
 67
     1
  8
0
100
AcDbBlockBegin
  2
*PAPER_SPACE
  1

  0
ENDBLK
  5
1D
330
1B
100
AcDbEntity
 67
     1
  8
0
100
AcDbBlockEnd
  0
ENDSEC
  0
SECTION
  2
ENTITIES
  0
LWPOLYLINE
  5
100
100
AcDbEntity
  8
0
 62
7
100
AcDbPolyline
 90
3
 70
0
 10
2664.966960
 20
57.092932
 30
0.0
 10
2664.966960
 20
538.982692
 30
0.0
 10
2608.274000
 20
538.982692
 30
0.0
  0
LWPOLYLINE
  5
101
100
AcDbEntity
  8
0
 62
7
100
AcDbPolyline
 90
2
 70
0
 10
1346.856720
 20
227.171668
 30
0.0
 10
1346.856720
 20
283.864580
 30
0.0
  0
LWPOLYLINE
  5
102
100
AcDbEntity
  8
0
 62
7
100
AcDbPolyline
 90
2
 70
0
 10
1318.510240
 20
283.864580
 30
0.0
 10
1318.510240
 20
340.557500
 30
0.0
  0
LWPOLYLINE
  5
103
100
AcDbEntity
  8
0
 62
7
100
AcDbPolyline
 90
2
 70
0
 10
1346.856720
 20
340.557500
 30
0.0
 10
1346.856720
 20
397.250412
 30
0.0
  0
LWPOLYLINE
  5
104
100
AcDbEntity
  8
0
 62
7
100
AcDbPolyline
 90
2
 70
0
 10
1318.510240
 20
397.250412
 30
0.0
 10
1318.510240
 20
453.943324
 30
0.0
  0
LWPOLYLINE
  5
105
100
AcDbEntity
  8
0
 62
7
100
AcDbPolyline
 90
2
 70
0
 10
1346.856720
 20
453.943324
 30
0.0
 10
1346.856720
 20
510.636236
 30
0.0
  0
LWPOLYLINE
  5
106
100
AcDbEntity
  8
0
 62
7
100
AcDbPolyline
 90
2
 70
0
 10
1318.510240
 20
595.675604
 30
0.0
 10
1318.510240
 20
510.636236
 30
0.0
  0
LWPOLYLINE
  5
107
100
AcDbEntity
  8
0
 62
7
100
AcDbPolyline
 90
2
 70
0
 10
1318.510240
 20
113.785844
 30
0.0
 10
1346.856720
 20
113.785844
 30
0.0
  0
LWPOLYLINE
  5
108
100
AcDbEntity
  8
0
 62
7
100
AcDbPolyline
 90
2
 70
0
 10
1318.510240
 20
170.478756
 30
0.0
 10
1346.856720
 20
170.478756
 30
0.0
  0
LWPOLYLINE
  5
109
100
AcDbEntity
  8
0
 62
7
100
AcDbPolyline
 90
2
 70
0
 10
1318.510240
 20
283.864580
 30
0.0
 10
1346.856720
 20
283.864580
 30
0.0
  0
LWPOLYLINE
  5
10a
100
AcDbEntity
  8
0
 62
7
100
AcDbPolyline
 90
2
 70
0
 10
1318.510240
 20
340.557500
 30
0.0
 10
1346.856720
 20
340.557500
 30
0.0
  0
LWPOLYLINE
  5
10b
100
AcDbEntity
  8
0
 62
7
100
AcDbPolyline
 90
2
 70
0
 10
1318.510240
 20
397.250412
 30
0.0
 10
1346.856720
 20
397.250412
 30
0.0
  0
LWPOLYLINE
  5
10c
100
AcDbEntity
  8
0
 62
7
100
AcDbPolyline
 90
2
 70
0
 10
1318.510240
 20
510.636236
 30
0.0
 10
1346.856720
 20
510.636236
 30
0.0
  0
LWPOLYLINE
  5
10d
100
AcDbEntity
  8
0
 62
7
100
AcDbPolyline
 90
2
 70
0
 10
1318.510240
 20
595.675604
 30
0.0
 10
2608.274000
 20
595.675604
 30
0.0
  0
LWPOLYLINE
  5
10e
100
AcDbEntity
  8
0
 62
7
100
AcDbPolyline
 90
3
 70
0
 10
1318.510240
 20
964.179540
 30
0.0
 10
1346.856720
 20
964.179540
 30
0.0
 10
1346.856720
 20
1020.872460
 30
0.0
  0
LWPOLYLINE
  5
10f
100
AcDbEntity
  8
0
 62
7
100
AcDbPolyline
 90
2
 70
0
 10
1318.510240
 20
1020.872460
 30
0.0
 10
1346.856720
 20
1020.872460
 30
0.0
  0
LWPOLYLINE
  5
110
100
AcDbEntity
  8
0
 62
7
100
AcDbPolyline
 90
4
 70
0
 10
1318.510240
 20
1020.872460
 30
0.0
 10
1318.510240
 20
1077.565372
 30
0.0
 10
1346.856720
 20
1077.565372
 30
0.0
 10
1346.856720
 20
1134.258284
 30
0.0
  0
LWPOLYLINE
  5
111
100
AcDbEntity
  8
0
 62
7
100
AcDbPolyline
 90
2
 70
0
 10
1318.510240
 20
1134.258284
 30
0.0
 10
1346.856720
 20
1134.258284
 30
0.0
  0
LWPOLYLINE
  5
112
100
AcDbEntity
  8
0
 62
7
100
AcDbPolyline
 90
4
 70
0
 10
1318.510240
 20
1134.258284
 30
0.0
 10
1318.510240
 20
1190.951196
 30
0.0
 10
1346.856720
 20
1190.951196
 30
0.0
 10
1346.856720
 20
1247.644108
 30
0.0
  0
LWPOLYLINE
  5
113
100
AcDbEntity
  8
0
 62
7
100
AcDbPolyline
 90
2
 70
0
 10
1318.510240
 20
1247.644108
 30
0.0
 10
1346.856720
 20
1247.644108
 30
0.0
  0
LWPOLYLINE
  5
114
100
AcDbEntity
  8
0
 62
7
100
AcDbPolyline
 90
4
 70
0
 10
1318.510240
 20
1247.644108
 30
0.0
 10
1318.510240
 20
1304.337020
 30
0.0
 10
1346.856720
 20
1304.337020
 30
0.0
 10
1346.856720
 20
1361.029940
 30
0.0
  0
LWPOLYLINE
  5
115
100
AcDbEntity
  8
0
 62
7
100
AcDbPolyline
 90
2
 70
0
 10
1318.510240
 20
1361.029940
 30
0.0
 10
1346.856720
 20
1361.029940
 30
0.0
  0
LWPOLYLINE
  5
116
100
AcDbEntity
  8
0
 62
7
100
AcDbPolyline
 90
4
 70
0
 10
1318.510240
 20
1361.029940
 30
0.0
 10
1318.510240
 20
1417.722852
 30
0.0
 10
1346.856720
 20
1417.722852
 30
0.0
 10
1346.856720
 20
1474.415764
 30
0.0
  0
LWPOLYLINE
  5
117
100
AcDbEntity
  8
0
 62
7
100
AcDbPolyline
 90
2
 70
0
 10
1318.510240
 20
1474.415764
 30
0.0
 10
1346.856720
 20
1474.415764
 30
0.0
  0
LWPOLYLINE
  5
118
100
AcDbEntity
  8
0
 62
7
100
AcDbPolyline
 90
4
 70
0
 10
1318.510240
 20
1474.415764
 30
0.0
 10
1318.510240
 20
1531.108676
 30
0.0
 10
1346.856720
 20
1531.108676
 30
0.0
 10
1346.856720
 20
1587.801588
 30
0.0
  0
LWPOLYLINE
  5
119
100
AcDbEntity
  8
0
 62
7
100
AcDbPolyline
 90
2
 70
0
 10
1318.510240
 20
1587.801588
 30
0.0
 10
1346.856720
 20
1587.801588
 30
0.0
  0
LWPOLYLINE
  5
11a
100
AcDbEntity
  8
0
 62
7
100
AcDbPolyline
 90
2
 70
0
 10
1318.510240
 20
1587.801588
 30
0.0
 10
1318.510240
 20
1644.494484
 30
0.0
  0
LWPOLYLINE
  5
11b
100
AcDbEntity
  8
0
 62
7
100
AcDbPolyline
 90
2
 70
0
 10
1346.856720
 20
1644.494484
 30
0.0
 10
1346.856720
 20
1729.533844
 30
0.0
  0
LWPOLYLINE
  5
11c
100
AcDbEntity
  8
0
 62
7
100
AcDbPolyline
 90
2
 70
0
 10
1318.510240
 20
1644.494484
 30
0.0
 10
1346.856720
 20
1644.494484
 30
0.0
  0
LWPOLYLINE
  5
11d
100
AcDbEntity
  8
0
 62
7
100
AcDbPolyline
 90
2
 70
0
 10
113.785824
 20
538.982692
 30
0.0
 10
113.785824
 20
527.644108
 30
0.0
  0
LWPOLYLINE
  5
11e
100
AcDbEntity
  8
0
 62
7
100
AcDbPolyline
 90
2
 70
0
 10
113.785824
 20
538.982692
 30
0.0
 10
170.478736
 20
538.982692
 30
0.0
  0
LWPOLYLINE
  5
11f
100
AcDbEntity
  8
0
 62
7
100
AcDbPolyline
 90
2
 70
0
 10
113.785824
 20
527.644108
 30
0.0
 10
170.478736
 20
527.644108
 30
0.0
  0
LWPOLYLINE
  5
120
100
AcDbEntity
  8
0
 62
7
100
AcDbPolyline
 90
2
 70
0
 10
170.478736
 20
538.982692
 30
0.0
 10
170.478736
 20
527.644108
 30
0.0
  0
LWPOLYLINE
  5
121
100
AcDbEntity
  8
0
 62
7
100
AcDbPolyline
 90
2
 70
0
 10
255.518112
 20
538.982692
 30
0.0
 10
255.518112
 20
527.644108
 30
0.0
  0
LWPOLYLINE
  5
122
100
AcDbEntity
  8
0
 62
7
100
AcDbPolyline
 90
2
 70
0
 10
255.518112
 20
538.982692
 30
0.0
 10
312.211024
 20
538.982692
 30
0.0
  0
LWPOLYLINE
  5
123
100
AcDbEntity
  8
0
 62
7
100
AcDbPolyline
 90
2
 70
0
 10
255.518112
 20
527.644108
 30
0.0
 10
312.211024
 20
527.644108
 30
0.0
  0
LWPOLYLINE
  5
124
100
AcDbEntity
  8
0
 62
7
100
AcDbPolyline
 90
2
 70
0
 10
312.211024
 20
538.982692
 30
0.0
 10
312.211024
 20
527.644108
 30
0.0
  0
LWPOLYLINE
  5
125
100
AcDbEntity
  8
0
 62
7
100
AcDbPolyline
 90
2
 70
0
 10
1389.376400
 20
538.982692
 30
0.0
 10
1389.376400
 20
527.644108
 30
0.0
  0
LWPOLYLINE
  5
126
100
AcDbEntity
  8
0
 62
7
100
AcDbPolyline
 90
2
 70
0
 10
1389.376400
 20
538.982692
 30
0.0
 10
1446.069280
 20
538.982692
 30
0.0
  0
LWPOLYLINE
  5
127
100
AcDbEntity
  8
0
 62
7
100
AcDbPolyline
 90
2
 70
0
 10
1389.376400
 20
527.644108
 30
0.0
 10
1446.069280
 20
527.644108
 30
0.0
  0
LWPOLYLINE
  5
128
100
AcDbEntity
  8
0
 62
7
100
AcDbPolyline
 90
2
 70
0
 10
1446.069280
 20
538.982692
 30
0.0
 10
1446.069280
 20
527.644108
 30
0.0
  0
LWPOLYLINE
  5
129
100
AcDbEntity
  8
0
 62
7
100
AcDbPolyline
 90
2
 70
0
 10
113.785824
 20
862.132297
 30
0.0
 10
113.785824
 20
850.793714
 30
0.0
  0
LWPOLYLINE
  5
12a
100
AcDbEntity
  8
0
 62
7
100
AcDbPolyline
 90
2
 70
0
 10
397.250392
 20
538.982692
 30
0.0
 10
397.250392
 20
527.644108
 30
0.0
  0
LWPOLYLINE
  5
12b
100
AcDbEntity
  8
0
 62
7
100
AcDbPolyline
 90
2
 70
0
 10
397.250392
 20
538.982692
 30
0.0
 10
453.943304
 20
538.982692
 30
0.0
  0
LWPOLYLINE
  5
12c
100
AcDbEntity
  8
0
 62
7
100
AcDbPolyline
 90
2
 70
0
 10
397.250392
 20
527.644108
 30
0.0
 10
453.943304
 20
527.644108
 30
0.0
  0
LWPOLYLINE
  5
12d
100
AcDbEntity
  8
0
 62
7
100
AcDbPolyline
 90
2
 70
0
 10
453.943304
 20
538.982692
 30
0.0
 10
453.943304
 20
527.644108
 30
0.0
  0
LWPOLYLINE
  5
12e
100
AcDbEntity
  8
0
 62
7
100
AcDbPolyline
 90
2
 70
0
 10
538.982680
 20
538.982692
 30
0.0
 10
538.982680
 20
527.644108
 30
0.0
  0
LWPOLYLINE
  5
12f
100
AcDbEntity
  8
0
 62
7
100
AcDbPolyline
 90
2
 70
0
 10
538.982680
 20
538.982692
 30
0.0
 10
595.675592
 20
538.982692
 30
0.0
  0
LWPOLYLINE
  5
130
100
AcDbEntity
  8
0
 62
7
100
AcDbPolyline
 90
2
 70
0
 10
538.982680
 20
527.644108
 30
0.0
 10
595.675592
 20
527.644108
 30
0.0
  0
LWPOLYLINE
  5
131
100
AcDbEntity
  8
0
 62
7
100
AcDbPolyline
 90
2
 70
0
 10
595.675592
 20
538.982692
 30
0.0
 10
595.675592
 20
527.644108
 30
0.0
  0
LWPOLYLINE
  5
132
100
AcDbEntity
  8
0
 62
7
100
AcDbPolyline
 90
2
 70
0
 10
680.714960
 20
538.982692
 30
0.0
 10
680.714960
 20
527.644108
 30
0.0
  0
LWPOLYLINE
  5
133
100
AcDbEntity
  8
0
 62
7
100
AcDbPolyline
 90
2
 70
0
 10
680.714960
 20
538.982692
 30
0.0
 10
737.407872
 20
538.982692
 30
0.0
  0
LWPOLYLINE
  5
134
100
AcDbEntity
  8
0
 62
7
100
AcDbPolyline
 90
2
 70
0
 10
680.714960
 20
527.644108
 30
0.0
 10
737.407872
 20
527.644108
 30
0.0
  0
LWPOLYLINE
  5
135
100
AcDbEntity
  8
0
 62
7
100
AcDbPolyline
 90
2
 70
0
 10
737.407872
 20
538.982692
 30
0.0
 10
737.407872
 20
527.644108
 30
0.0
  0
LWPOLYLINE
  5
136
100
AcDbEntity
  8
0
 62
7
100
AcDbPolyline
 90
2
 70
0
 10
822.447280
 20
538.982692
 30
0.0
 10
822.447280
 20
527.644108
 30
0.0
  0
LWPOLYLINE
  5
137
100
AcDbEntity
  8
0
 62
7
100
AcDbPolyline
 90
2
 70
0
 10
822.447280
 20
538.982692
 30
0.0
 10
879.140160
 20
538.982692
 30
0.0
  0
LWPOLYLINE
  5
138
100
AcDbEntity
  8
0
 62
7
100
AcDbPolyline
 90
2
 70
0
 10
822.447280
 20
527.644108
 30
0.0
 10
879.140160
 20
527.644108
 30
0.0
  0
LWPOLYLINE
  5
139
100
AcDbEntity
  8
0
 62
7
100
AcDbPolyline
 90
2
 70
0
 10
879.140160
 20
538.982692
 30
0.0
 10
879.140160
 20
527.644108
 30
0.0
  0
LWPOLYLINE
  5
13a
100
AcDbEntity
  8
0
 62
7
100
AcDbPolyline
 90
2
 70
0
 10
964.179520
 20
538.982692
 30
0.0
 10
964.179520
 20
527.644108
 30
0.0
  0
LWPOLYLINE
  5
13b
100
AcDbEntity
  8
0
 62
7
100
AcDbPolyline
 90
2
 70
0
 10
964.179520
 20
538.982692
 30
0.0
 10
1020.872480
 20
538.982692
 30
0.0
  0
LWPOLYLINE
  5
13c
100
AcDbEntity
  8
0
 62
7
100
AcDbPolyline
 90
2
 70
0
 10
964.179520
 20
527.644108
 30
0.0
 10
1020.872480
 20
527.644108
 30
0.0
  0
LWPOLYLINE
  5
13d
100
AcDbEntity
  8
0
 62
7
100
AcDbPolyline
 90
2
 70
0
 10
1020.872480
 20
538.982692
 30
0.0
 10
1020.872480
 20
527.644108
 30
0.0
  0
LWPOLYLINE
  5
13e
100
AcDbEntity
  8
0
 62
7
100
AcDbPolyline
 90
2
 70
0
 10
1105.911840
 20
538.982692
 30
0.0
 10
1105.911840
 20
527.644108
 30
0.0
  0
LWPOLYLINE
  5
13f
100
AcDbEntity
  8
0
 62
7
100
AcDbPolyline
 90
2
 70
0
 10
1105.911840
 20
538.982692
 30
0.0
 10
1162.604720
 20
538.982692
 30
0.0
  0
LWPOLYLINE
  5
140
100
AcDbEntity
  8
0
 62
7
100
AcDbPolyline
 90
2
 70
0
 10
1105.911840
 20
527.644108
 30
0.0
 10
1162.604720
 20
527.644108
 30
0.0
  0
LWPOLYLINE
  5
141
100
AcDbEntity
  8
0
 62
7
100
AcDbPolyline
 90
2
 70
0
 10
1162.604720
 20
538.982692
 30
0.0
 10
1162.604720
 20
527.644108
 30
0.0
  0
LWPOLYLINE
  5
142
100
AcDbEntity
  8
0
 62
7
100
AcDbPolyline
 90
2
 70
0
 10
1247.644080
 20
538.982692
 30
0.0
 10
1247.644080
 20
527.644108
 30
0.0
  0
LWPOLYLINE
  5
143
100
AcDbEntity
  8
0
 62
7
100
AcDbPolyline
 90
2
 70
0
 10
1247.644080
 20
538.982692
 30
0.0
 10
1304.337040
 20
538.982692
 30
0.0
  0
LWPOLYLINE
  5
144
100
AcDbEntity
  8
0
 62
7
100
AcDbPolyline
 90
2
 70
0
 10
1247.644080
 20
527.644108
 30
0.0
 10
1304.337040
 20
527.644108
 30
0.0
  0
LWPOLYLINE
  5
145
100
AcDbEntity
  8
0
 62
7
100
AcDbPolyline
 90
2
 70
0
 10
1304.337040
 20
538.982692
 30
0.0
 10
1304.337040
 20
527.644108
 30
0.0
  0
LWPOLYLINE
  5
146
100
AcDbEntity
  8
0
 62
7
100
AcDbPolyline
 90
2
 70
0
 10
1531.108640
 20
538.982692
 30
0.0
 10
1531.108640
 20
527.644108
 30
0.0
  0
LWPOLYLINE
  5
147
100
AcDbEntity
  8
0
 62
7
100
AcDbPolyline
 90
2
 70
0
 10
1531.108640
 20
538.982692
 30
0.0
 10
1587.801600
 20
538.982692
 30
0.0
  0
LWPOLYLINE
  5
148
100
AcDbEntity
  8
0
 62
7
100
AcDbPolyline
 90
2
 70
0
 10
1531.108640
 20
527.644108
 30
0.0
 10
1587.801600
 20
527.644108
 30
0.0
  0
LWPOLYLINE
  5
149
100
AcDbEntity
  8
0
 62
7
100
AcDbPolyline
 90
2
 70
0
 10
1587.801600
 20
538.982692
 30
0.0
 10
1587.801600
 20
527.644108
 30
0.0
  0
LWPOLYLINE
  5
14a
100
AcDbEntity
  8
0
 62
7
100
AcDbPolyline
 90
2
 70
0
 10
1672.840960
 20
538.982692
 30
0.0
 10
1672.840960
 20
527.644108
 30
0.0
  0
LWPOLYLINE
  5
14b
100
AcDbEntity
  8
0
 62
7
100
AcDbPolyline
 90
2
 70
0
 10
1672.840960
 20
538.982692
 30
0.0
 10
1729.533840
 20
538.982692
 30
0.0
  0
LWPOLYLINE
  5
14c
100
AcDbEntity
  8
0
 62
7
100
AcDbPolyline
 90
2
 70
0
 10
1672.840960
 20
527.644108
 30
0.0
 10
1729.533840
 20
527.644108
 30
0.0
  0
LWPOLYLINE
  5
14d
100
AcDbEntity
  8
0
 62
7
100
AcDbPolyline
 90
2
 70
0
 10
1729.533840
 20
538.982692
 30
0.0
 10
1729.533840
 20
527.644108
 30
0.0
  0
LWPOLYLINE
  5
14e
100
AcDbEntity
  8
0
 62
7
100
AcDbPolyline
 90
2
 70
0
 10
1814.573200
 20
538.982692
 30
0.0
 10
1814.573200
 20
527.644108
 30
0.0
  0
LWPOLYLINE
  5
14f
100
AcDbEntity
  8
0
 62
7
100
AcDbPolyline
 90
2
 70
0
 10
1814.573200
 20
538.982692
 30
0.0
 10
1871.266160
 20
538.982692
 30
0.0
  0
LWPOLYLINE
  5
150
100
AcDbEntity
  8
0
 62
7
100
AcDbPolyline
 90
2
 70
0
 10
1814.573200
 20
527.644108
 30
0.0
 10
1871.266160
 20
527.644108
 30
0.0
  0
LWPOLYLINE
  5
151
100
AcDbEntity
  8
0
 62
7
100
AcDbPolyline
 90
2
 70
0
 10
1871.266160
 20
538.982692
 30
0.0
 10
1871.266160
 20
527.644108
 30
0.0
  0
LWPOLYLINE
  5
152
100
AcDbEntity
  8
0
 62
7
100
AcDbPolyline
 90
2
 70
0
 10
1956.305520
 20
538.982692
 30
0.0
 10
1956.305520
 20
527.644108
 30
0.0
  0
LWPOLYLINE
  5
153
100
AcDbEntity
  8
0
 62
7
100
AcDbPolyline
 90
2
 70
0
 10
1956.305520
 20
538.982692
 30
0.0
 10
2012.998400
 20
538.982692
 30
0.0
  0
LWPOLYLINE
  5
154
100
AcDbEntity
  8
0
 62
7
100
AcDbPolyline
 90
2
 70
0
 10
1956.305520
 20
527.644108
 30
0.0
 10
2012.998400
 20
527.644108
 30
0.0
  0
LWPOLYLINE
  5
155
100
AcDbEntity
  8
0
 62
7
100
AcDbPolyline
 90
2
 70
0
 10
2012.998400
 20
538.982692
 30
0.0
 10
2012.998400
 20
527.644108
 30
0.0
  0
LWPOLYLINE
  5
156
100
AcDbEntity
  8
0
 62
7
100
AcDbPolyline
 90
2
 70
0
 10
2098.037760
 20
538.982692
 30
0.0
 10
2098.037760
 20
527.644108
 30
0.0
  0
LWPOLYLINE
  5
157
100
AcDbEntity
  8
0
 62
7
100
AcDbPolyline
 90
2
 70
0
 10
2098.037760
 20
538.982692
 30
0.0
 10
2154.730720
 20
538.982692
 30
0.0
  0
LWPOLYLINE
  5
158
100
AcDbEntity
  8
0
 62
7
100
AcDbPolyline
 90
2
 70
0
 10
2098.037760
 20
527.644108
 30
0.0
 10
2154.730720
 20
527.644108
 30
0.0
  0
LWPOLYLINE
  5
159
100
AcDbEntity
  8
0
 62
7
100
AcDbPolyline
 90
2
 70
0
 10
2154.730720
 20
538.982692
 30
0.0
 10
2154.730720
 20
527.644108
 30
0.0
  0
LWPOLYLINE
  5
15a
100
AcDbEntity
  8
0
 62
7
100
AcDbPolyline
 90
2
 70
0
 10
2239.770080
 20
538.982692
 30
0.0
 10
2239.770080
 20
527.644108
 30
0.0
  0
LWPOLYLINE
  5
15b
100
AcDbEntity
  8
0
 62
7
100
AcDbPolyline
 90
2
 70
0
 10
2239.770080
 20
538.982692
 30
0.0
 10
2296.462960
 20
538.982692
 30
0.0
  0
LWPOLYLINE
  5
15c
100
AcDbEntity
  8
0
 62
7
100
AcDbPolyline
 90
2
 70
0
 10
2239.770080
 20
527.644108
 30
0.0
 10
2296.462960
 20
527.644108
 30
0.0
  0
LWPOLYLINE
  5
15d
100
AcDbEntity
  8
0
 62
7
100
AcDbPolyline
 90
2
 70
0
 10
2296.462960
 20
538.982692
 30
0.0
 10
2296.462960
 20
527.644108
 30
0.0
  0
LWPOLYLINE
  5
15e
100
AcDbEntity
  8
0
 62
7
100
AcDbPolyline
 90
35
 70
0
 10
113.785824
 20
850.793714
 30
0.0
 10
170.478736
 20
850.793714
 30
0.0
 10
170.478736
 20
862.132297
 30
0.0
 10
255.518112
 20
862.132297
 30
0.0
 10
255.518112
 20
850.793714
 30
0.0
 10
312.211024
 20
850.793714
 30
0.0
 10
312.211024
 20
862.132297
 30
0.0
 10
397.250392
 20
862.132297
 30
0.0
 10
397.250392
 20
850.793714
 30
0.0
 10
453.943304
 20
850.793714
 30
0.0
 10
453.943304
 20
862.132297
 30
0.0
 10
538.982680
 20
862.132297
 30
0.0
 10
538.982680
 20
850.793714
 30
0.0
 10
595.675592
 20
850.793714
 30
0.0
 10
595.675592
 20
862.132297
 30
0.0
 10
680.714960
 20
862.132297
 30
0.0
 10
680.714960
 20
850.793714
 30
0.0
 10
737.407872
 20
850.793714
 30
0.0
 10
737.407872
 20
862.132297
 30
0.0
 10
822.447280
 20
862.132297
 30
0.0
 10
822.447280
 20
850.793714
 30
0.0
 10
879.140160
 20
850.793714
 30
0.0
 10
879.140160
 20
862.132297
 30
0.0
 10
964.179520
 20
862.132297
 30
0.0
 10
964.179520
 20
850.793714
 30
0.0
 10
1020.872480
 20
850.793714
 30
0.0
 10
1020.872480
 20
862.132297
 30
0.0
 10
1105.911840
 20
862.132297
 30
0.0
 10
1105.911840
 20
850.793714
 30
0.0
 10
1162.604720
 20
850.793714
 30
0.0
 10
1162.604720
 20
862.132297
 30
0.0
 10
1247.644080
 20
862.132297
 30
0.0
 10
1247.644080
 20
850.793714
 30
0.0
 10
1304.337040
 20
850.793714
 30
0.0
 10
1304.337040
 20
862.132297
 30
0.0
  0
LWPOLYLINE
  5
15f
100
AcDbEntity
  8
0
 62
7
100
AcDbPolyline
 90
29
 70
0
 10
1389.376400
 20
862.132297
 30
0.0
 10
1389.376400
 20
850.793714
 30
0.0
 10
1446.069280
 20
850.793714
 30
0.0
 10
1446.069280
 20
862.132297
 30
0.0
 10
1531.108640
 20
862.132297
 30
0.0
 10
1531.108640
 20
850.793714
 30
0.0
 10
1587.801600
 20
850.793714
 30
0.0
 10
1587.801600
 20
862.132297
 30
0.0
 10
1672.840960
 20
862.132297
 30
0.0
 10
1672.840960
 20
850.793714
 30
0.0
 10
1729.533840
 20
850.793714
 30
0.0
 10
1729.533840
 20
862.132297
 30
0.0
 10
1814.573200
 20
862.132297
 30
0.0
 10
1814.573200
 20
850.793714
 30
0.0
 10
1871.266160
 20
850.793714
 30
0.0
 10
1871.266160
 20
862.132297
 30
0.0
 10
1956.305520
 20
862.132297
 30
0.0
 10
1956.305520
 20
850.793714
 30
0.0
 10
2012.998400
 20
850.793714
 30
0.0
 10
2012.998400
 20
862.132297
 30
0.0
 10
2098.037760
 20
862.132297
 30
0.0
 10
2098.037760
 20
850.793714
 30
0.0
 10
2154.730720
 20
850.793714
 30
0.0
 10
2154.730720
 20
862.132297
 30
0.0
 10
2239.770080
 20
862.132297
 30
0.0
 10
2239.770080
 20
850.793714
 30
0.0
 10
2296.462960
 20
850.793714
 30
0.0
 10
2296.462960
 20
862.132297
 30
0.0
 10
2324.809440
 20
862.132297
 30
0.0
  0
LWPOLYLINE
  5
160
100
AcDbEntity
  8
0
 62
7
100
AcDbPolyline
 90
2
 70
0
 10
2177.822400
 20
81.811700
 30
0.0
 10
2188.721680
 20
78.686364
 30
0.0
  0
LWPOLYLINE
  5
161
100
AcDbEntity
  8
0
 62
7
100
AcDbPolyline
 90
2
 70
0
 10
2177.822400
 20
81.811700
 30
0.0
 10
2193.449040
 20
136.308428
 30
0.0
  0
LWPOLYLINE
  5
162
100
AcDbEntity
  8
0
 62
7
100
AcDbPolyline
 90
2
 70
0
 10
2188.721680
 20
78.686364
 30
0.0
 10
2204.348400
 20
133.183084
 30
0.0
  0
LWPOLYLINE
  5
163
100
AcDbEntity
  8
0
 62
7
100
AcDbPolyline
 90
2
 70
0
 10
2193.449040
 20
136.308428
 30
0.0
 10
2204.348400
 20
133.183084
 30
0.0
  0
LWPOLYLINE
  5
164
100
AcDbEntity
  8
0
 62
7
100
AcDbPolyline
 90
2
 70
0
 10
2216.889040
 20
218.053516
 30
0.0
 10
2227.788400
 20
214.928180
 30
0.0
  0
LWPOLYLINE
  5
165
100
AcDbEntity
  8
0
 62
7
100
AcDbPolyline
 90
2
 70
0
 10
2216.889040
 20
218.053516
 30
0.0
 10
2232.515760
 20
272.550236
 30
0.0
  0
LWPOLYLINE
  5
166
100
AcDbEntity
  8
0
 62
7
100
AcDbPolyline
 90
2
 70
0
 10
2227.788400
 20
214.928180
 30
0.0
 10
2243.415120
 20
269.424900
 30
0.0
  0
LWPOLYLINE
  5
167
100
AcDbEntity
  8
0
 62
7
100
AcDbPolyline
 90
2
 70
0
 10
2232.515760
 20
272.550236
 30
0.0
 10
2243.415120
 20
269.424900
 30
0.0
  0
LWPOLYLINE
  5
168
100
AcDbEntity
  8
0
 62
7
100
AcDbPolyline
 90
2
 70
0
 10
2255.955760
 20
354.295332
 30
0.0
 10
2266.855120
 20
351.169996
 30
0.0
  0
LWPOLYLINE
  5
169
100
AcDbEntity
  8
0
 62
7
100
AcDbPolyline
 90
2
 70
0
 10
2255.955760
 20
354.295332
 30
0.0
 10
2271.582480
 20
408.792052
 30
0.0
  0
LWPOLYLINE
  5
16a
100
AcDbEntity
  8
0
 62
7
100
AcDbPolyline
 90
2
 70
0
 10
2266.855120
 20
351.169996
 30
0.0
 10
2282.481840
 20
405.666716
 30
0.0
  0
LWPOLYLINE
  5
16b
100
AcDbEntity
  8
0
 62
7
100
AcDbPolyline
 90
2
 70
0
 10
2271.582480
 20
408.792052
 30
0.0
 10
2282.481840
 20
405.666716
 30
0.0
  0
LWPOLYLINE
  5
16c
100
AcDbEntity
  8
0
 62
7
100
AcDbPolyline
 90
2
 70
0
 10
2295.022480
 20
490.537148
 30
0.0
 10
2305.921840
 20
487.411804
 30
0.0
  0
LWPOLYLINE
  5
16d
100
AcDbEntity
  8
0
 62
7
100
AcDbPolyline
 90
2
 70
0
 10
2295.022480
 20
490.537148
 30
0.0
 10
2310.649200
 20
545.033868
 30
0.0
  0
LWPOLYLINE
  5
16e
100
AcDbEntity
  8
0
 62
7
100
AcDbPolyline
 90
2
 70
0
 10
2305.921840
 20
487.411804
 30
0.0
 10
2321.548560
 20
541.908532
 30
0.0
  0
SPLINE
  5
16f
100
AcDbEntity
  8
0
 62
7
100
AcDbSpline
 70
8
 71
3
 72
8
 73
4
 74
0
 40
0
 40
0
 40
0
 40
0
 40
1
 40
1
 40
1
 40
1
 10
1227.801600
 20
28.746484
 30
0.0
 10
1227.801600
 20
31.784656
 30
0.0
 10
1226.180754
 20
34.592043
 30
0.0
 10
1223.549620
 20
36.111129
 30
0.0
  0
SPLINE
  5
170
100
AcDbEntity
  8
0
 62
7
100
AcDbSpline
 70
8
 71
3
 72
8
 73
4
 74
0
 40
0
 40
0
 40
0
 40
0
 40
1
 40
1
 40
1
 40
1
 10
1223.549620
 20
36.111129
 30
0.0
 10
1220.918486
 20
37.630215
 30
0.0
 10
1217.676794
 20
37.630215
 30
0.0
 10
1215.045660
 20
36.111129
 30
0.0
  0
SPLINE
  5
171
100
AcDbEntity
  8
0
 62
7
100
AcDbSpline
 70
8
 71
3
 72
8
 73
4
 74
0
 40
0
 40
0
 40
0
 40
0
 40
1
 40
1
 40
1
 40
1
 10
1215.045660
 20
36.111129
 30
0.0
 10
1212.414526
 20
34.592043
 30
0.0
 10
1210.793680
 20
31.784656
 30
0.0
 10
1210.793680
 20
28.746484
 30
0.0
  0
SPLINE
  5
172
100
AcDbEntity
  8
0
 62
7
100
AcDbSpline
 70
8
 71
3
 72
8
 73
4
 74
0
 40
0
 40
0
 40
0
 40
0
 40
1
 40
1
 40
1
 40
1
 10
1210.793680
 20
28.746484
 30
0.0
 10
1210.793680
 20
25.708311
 30
0.0
 10
1212.414526
 20
22.900925
 30
0.0
 10
1215.045660
 20
21.381838
 30
0.0
  0
SPLINE
  5
173
100
AcDbEntity
  8
0
 62
7
100
AcDbSpline
 70
8
 71
3
 72
8
 73
4
 74
0
 40
0
 40
0
 40
0
 40
0
 40
1
 40
1
 40
1
 40
1
 10
1215.045660
 20
21.381838
 30
0.0
 10
1217.676794
 20
19.862752
 30
0.0
 10
1220.918486
 20
19.862752
 30
0.0
 10
1223.549620
 20
21.381838
 30
0.0
  0
SPLINE
  5
174
100
AcDbEntity
  8
0
 62
7
100
AcDbSpline
 70
8
 71
3
 72
8
 73
4
 74
0
 40
0
 40
0
 40
0
 40
0
 40
1
 40
1
 40
1
 40
1
 10
1223.549620
 20
21.381838
 30
0.0
 10
1226.180754
 20
22.900925
 30
0.0
 10
1227.801600
 20
25.708311
 30
0.0
 10
1227.801600
 20
28.746484
 30
0.0
  0
LWPOLYLINE
  5
175
100
AcDbEntity
  8
0
 62
7
100
AcDbPolyline
 90
2
 70
0
 10
2310.649200
 20
545.033868
 30
0.0
 10
2321.548560
 20
541.908532
 30
0.0
  0
LWPOLYLINE
  5
176
100
AcDbEntity
  8
0
 62
7
100
AcDbPolyline
 90
2
 70
0
 10
1227.801600
 20
28.746484
 30
0.0
 10
1227.801600
 20
28.746484
 30
0.0
  0
LWPOLYLINE
  5
177
100
AcDbEntity
  8
0
 62
7
100
AcDbPolyline
 90
2
 70
0
 10
1346.856720
 20
0.400004
 30
0.0
 10
1346.856720
 20
57.092932
 30
0.0
  0
LWPOLYLINE
  5
178
100
AcDbEntity
  8
0
 62
7
100
AcDbPolyline
 90
2
 70
0
 10
1318.510240
 20
57.092932
 30
0.0
 10
1346.856720
 20
57.092932
 30
0.0
  0
LWPOLYLINE
  5
179
100
AcDbEntity
  8
0
 62
7
100
AcDbPolyline
 90
2
 70
0
 10
1318.510240
 20
57.092932
 30
0.0
 10
1318.510240
 20
113.785844
 30
0.0
  0
LWPOLYLINE
  5
17a
100
AcDbEntity
  8
0
 62
7
100
AcDbPolyline
 90
2
 70
0
 10
1346.856720
 20
113.785844
 30
0.0
 10
1346.856720
 20
170.478756
 30
0.0
  0
LWPOLYLINE
  5
17b
100
AcDbEntity
  8
0
 62
7
100
AcDbPolyline
 90
3
 70
0
 10
1318.510240
 20
170.478756
 30
0.0
 10
1318.510240
 20
227.171668
 30
0.0
 10
1346.856720
 20
227.171668
 30
0.0
  0
SPLINE
  5
17c
100
AcDbEntity
  8
0
 62
7
100
AcDbSpline
 70
8
 71
3
 72
8
 73
4
 74
0
 40
0
 40
0
 40
0
 40
0
 40
1
 40
1
 40
1
 40
1
 10
1482.919680
 20
28.746484
 30
0.0
 10
1482.925727
 20
31.788668
 30
0.0
 10
1481.306213
 20
34.602353
 30
0.0
 10
1478.672607
 20
36.125194
 30
0.0
  0
SPLINE
  5
17d
100
AcDbEntity
  8
0
 62
7
100
AcDbSpline
 70
8
 71
3
 72
8
 73
4
 74
0
 40
0
 40
0
 40
0
 40
0
 40
1
 40
1
 40
1
 40
1
 10
1478.672607
 20
36.125194
 30
0.0
 10
1476.039001
 20
37.648034
 30
0.0
 10
1472.792519
 20
37.648034
 30
0.0
 10
1470.158913
 20
36.125194
 30
0.0
  0
SPLINE
  5
17e
100
AcDbEntity
  8
0
 62
7
100
AcDbSpline
 70
8
 71
3
 72
8
 73
4
 74
0
 40
0
 40
0
 40
0
 40
0
 40
1
 40
1
 40
1
 40
1
 10
1470.158913
 20
36.125194
 30
0.0
 10
1467.525307
 20
34.602353
 30
0.0
 10
1465.905793
 20
31.788668
 30
0.0
 10
1465.911840
 20
28.746484
 30
0.0
  0
SPLINE
  5
17f
100
AcDbEntity
  8
0
 62
7
100
AcDbSpline
 70
8
 71
3
 72
8
 73
4
 74
0
 40
0
 40
0
 40
0
 40
0
 40
1
 40
1
 40
1
 40
1
 10
1465.911840
 20
28.746484
 30
0.0
 10
1465.905793
 20
25.704299
 30
0.0
 10
1467.525307
 20
22.890614
 30
0.0
 10
1470.158913
 20
21.367774
 30
0.0
  0
SPLINE
  5
180
100
AcDbEntity
  8
0
 62
7
100
AcDbSpline
 70
8
 71
3
 72
8
 73
4
 74
0
 40
0
 40
0
 40
0
 40
0
 40
1
 40
1
 40
1
 40
1
 10
1470.158913
 20
21.367774
 30
0.0
 10
1472.792519
 20
19.844933
 30
0.0
 10
1476.039001
 20
19.844933
 30
0.0
 10
1478.672607
 20
21.367774
 30
0.0
  0
SPLINE
  5
181
100
AcDbEntity
  8
0
 62
7
100
AcDbSpline
 70
8
 71
3
 72
8
 73
4
 74
0
 40
0
 40
0
 40
0
 40
0
 40
1
 40
1
 40
1
 40
1
 10
1478.672607
 20
21.367774
 30
0.0
 10
1481.306213
 20
22.890614
 30
0.0
 10
1482.925727
 20
25.704299
 30
0.0
 10
1482.919680
 20
28.746484
 30
0.0
  0
LWPOLYLINE
  5
182
100
AcDbEntity
  8
0
 62
7
100
AcDbPolyline
 90
2
 70
0
 10
1318.510240
 20
453.943324
 30
0.0
 10
1346.856720
 20
453.943324
 30
0.0
  0
SPLINE
  5
183
100
AcDbEntity
  8
0
 62
7
100
AcDbSpline
 70
8
 71
3
 72
8
 73
4
 74
0
 40
0
 40
0
 40
0
 40
0
 40
1
 40
1
 40
1
 40
1
 10
1993.155920
 20
28.746484
 30
0.0
 10
1993.155920
 20
31.784656
 30
0.0
 10
1991.535074
 20
34.592043
 30
0.0
 10
1988.903940
 20
36.111129
 30
0.0
  0
SPLINE
  5
184
100
AcDbEntity
  8
0
 62
7
100
AcDbSpline
 70
8
 71
3
 72
8
 73
4
 74
0
 40
0
 40
0
 40
0
 40
0
 40
1
 40
1
 40
1
 40
1
 10
1988.903940
 20
36.111129
 30
0.0
 10
1986.272806
 20
37.630215
 30
0.0
 10
1983.031114
 20
37.630215
 30
0.0
 10
1980.399980
 20
36.111129
 30
0.0
  0
SPLINE
  5
185
100
AcDbEntity
  8
0
 62
7
100
AcDbSpline
 70
8
 71
3
 72
8
 73
4
 74
0
 40
0
 40
0
 40
0
 40
0
 40
1
 40
1
 40
1
 40
1
 10
1980.399980
 20
36.111129
 30
0.0
 10
1977.768846
 20
34.592043
 30
0.0
 10
1976.148000
 20
31.784656
 30
0.0
 10
1976.148000
 20
28.746484
 30
0.0
  0
SPLINE
  5
186
100
AcDbEntity
  8
0
 62
7
100
AcDbSpline
 70
8
 71
3
 72
8
 73
4
 74
0
 40
0
 40
0
 40
0
 40
0
 40
1
 40
1
 40
1
 40
1
 10
1976.148000
 20
28.746484
 30
0.0
 10
1976.148000
 20
25.708311
 30
0.0
 10
1977.768846
 20
22.900925
 30
0.0
 10
1980.399980
 20
21.381838
 30
0.0
  0
SPLINE
  5
187
100
AcDbEntity
  8
0
 62
7
100
AcDbSpline
 70
8
 71
3
 72
8
 73
4
 74
0
 40
0
 40
0
 40
0
 40
0
 40
1
 40
1
 40
1
 40
1
 10
1980.399980
 20
21.381838
 30
0.0
 10
1983.031114
 20
19.862752
 30
0.0
 10
1986.272806
 20
19.862752
 30
0.0
 10
1988.903940
 20
21.381838
 30
0.0
  0
SPLINE
  5
188
100
AcDbEntity
  8
0
 62
7
100
AcDbSpline
 70
8
 71
3
 72
8
 73
4
 74
0
 40
0
 40
0
 40
0
 40
0
 40
1
 40
1
 40
1
 40
1
 10
1988.903940
 20
21.381838
 30
0.0
 10
1991.535074
 20
22.900925
 30
0.0
 10
1993.155920
 20
25.708311
 30
0.0
 10
1993.155920
 20
28.746484
 30
0.0
  0
LWPOLYLINE
  5
189
100
AcDbEntity
  8
0
 62
7
100
AcDbPolyline
 90
2
 70
0
 10
1482.919680
 20
28.746484
 30
0.0
 10
1482.919680
 20
28.746484
 30
0.0
  0
SPLINE
  5
18a
100
AcDbEntity
  8
0
 62
7
100
AcDbSpline
 70
8
 71
3
 72
8
 73
4
 74
0
 40
0
 40
0
 40
0
 40
0
 40
1
 40
1
 40
1
 40
1
 10
689.218896
 20
28.746484
 30
0.0
 10
689.220214
 20
31.785526
 30
0.0
 10
687.599662
 20
34.594281
 30
0.0
 10
684.967993
 20
36.114183
 30
0.0
  0
SPLINE
  5
18b
100
AcDbEntity
  8
0
 62
7
100
AcDbSpline
 70
8
 71
3
 72
8
 73
4
 74
0
 40
0
 40
0
 40
0
 40
0
 40
1
 40
1
 40
1
 40
1
 10
684.967993
 20
36.114183
 30
0.0
 10
682.336325
 20
37.634085
 30
0.0
 10
679.093595
 20
37.634085
 30
0.0
 10
676.461927
 20
36.114183
 30
0.0
  0
SPLINE
  5
18c
100
AcDbEntity
  8
0
 62
7
100
AcDbSpline
 70
8
 71
3
 72
8
 73
4
 74
0
 40
0
 40
0
 40
0
 40
0
 40
1
 40
1
 40
1
 40
1
 10
676.461927
 20
36.114183
 30
0.0
 10
673.830258
 20
34.594281
 30
0.0
 10
672.209706
 20
31.785526
 30
0.0
 10
672.211024
 20
28.746484
 30
0.0
  0
SPLINE
  5
18d
100
AcDbEntity
  8
0
 62
7
100
AcDbSpline
 70
8
 71
3
 72
8
 73
4
 74
0
 40
0
 40
0
 40
0
 40
0
 40
1
 40
1
 40
1
 40
1
 10
672.211024
 20
28.746484
 30
0.0
 10
672.213061
 20
24.051330
 30
0.0
 10
676.019806
 20
20.246236
 30
0.0
 10
680.714960
 20
20.246236
 30
0.0
  0
SPLINE
  5
18e
100
AcDbEntity
  8
0
 62
7
100
AcDbSpline
 70
8
 71
3
 72
8
 73
4
 74
0
 40
0
 40
0
 40
0
 40
0
 40
1
 40
1
 40
1
 40
1
 10
680.714960
 20
20.246236
 30
0.0
 10
685.410114
 20
20.246236
 30
0.0
 10
689.216859
 20
24.051330
 30
0.0
 10
689.218896
 20
28.746484
 30
0.0
  0
LWPOLYLINE
  5
18f
100
AcDbEntity
  8
0
 62
7
100
AcDbPolyline
 90
2
 70
0
 10
1993.155920
 20
28.746484
 30
0.0
 10
1993.155920
 20
28.746484
 30
0.0
  0
SPLINE
  5
190
100
AcDbEntity
  8
0
 62
7
100
AcDbSpline
 70
8
 71
3
 72
8
 73
4
 74
0
 40
0
 40
0
 40
0
 40
0
 40
1
 40
1
 40
1
 40
1
 10
150.636224
 20
567.329148
 30
0.0
 10
150.636224
 20
570.367313
 30
0.0
 10
149.015382
 20
573.174693
 30
0.0
 10
146.384254
 20
574.693776
 30
0.0
  0
SPLINE
  5
191
100
AcDbEntity
  8
0
 62
7
100
AcDbSpline
 70
8
 71
3
 72
8
 73
4
 74
0
 40
0
 40
0
 40
0
 40
0
 40
1
 40
1
 40
1
 40
1
 10
146.384254
 20
574.693776
 30
0.0
 10
143.753126
 20
576.212858
 30
0.0
 10
140.511442
 20
576.212858
 30
0.0
 10
137.880314
 20
574.693776
 30
0.0
  0
SPLINE
  5
192
100
AcDbEntity
  8
0
 62
7
100
AcDbSpline
 70
8
 71
3
 72
8
 73
4
 74
0
 40
0
 40
0
 40
0
 40
0
 40
1
 40
1
 40
1
 40
1
 10
137.880314
 20
574.693776
 30
0.0
 10
135.249186
 20
573.174693
 30
0.0
 10
133.628344
 20
570.367313
 30
0.0
 10
133.628344
 20
567.329148
 30
0.0
  0
SPLINE
  5
193
100
AcDbEntity
  8
0
 62
7
100
AcDbSpline
 70
8
 71
3
 72
8
 73
4
 74
0
 40
0
 40
0
 40
0
 40
0
 40
1
 40
1
 40
1
 40
1
 10
133.628344
 20
567.329148
 30
0.0
 10
133.628344
 20
564.290983
 30
0.0
 10
135.249186
 20
561.483602
 30
0.0
 10
137.880314
 20
559.964520
 30
0.0
  0
SPLINE
  5
194
100
AcDbEntity
  8
0
 62
7
100
AcDbSpline
 70
8
 71
3
 72
8
 73
4
 74
0
 40
0
 40
0
 40
0
 40
0
 40
1
 40
1
 40
1
 40
1
 10
137.880314
 20
559.964520
 30
0.0
 10
140.511442
 20
558.445437
 30
0.0
 10
143.753126
 20
558.445437
 30
0.0
 10
146.384254
 20
559.964520
 30
0.0
  0
SPLINE
  5
195
100
AcDbEntity
  8
0
 62
7
100
AcDbSpline
 70
8
 71
3
 72
8
 73
4
 74
0
 40
0
 40
0
 40
0
 40
0
 40
1
 40
1
 40
1
 40
1
 10
146.384254
 20
559.964520
 30
0.0
 10
149.015382
 20
561.483602
 30
0.0
 10
150.636224
 20
564.290983
 30
0.0
 10
150.636224
 20
567.329148
 30
0.0
  0
LWPOLYLINE
  5
196
100
AcDbEntity
  8
0
 62
7
100
AcDbPolyline
 90
2
 70
0
 10
689.218896
 20
28.746484
 30
0.0
 10
689.218896
 20
28.746484
 30
0.0
  0
SPLINE
  5
197
100
AcDbEntity
  8
0
 62
7
100
AcDbSpline
 70
8
 71
3
 72
8
 73
4
 74
0
 40
0
 40
0
 40
0
 40
0
 40
1
 40
1
 40
1
 40
1
 10
689.218896
 20
567.329148
 30
0.0
 10
689.220214
 20
570.368190
 30
0.0
 10
687.599662
 20
573.176945
 30
0.0
 10
684.967993
 20
574.696847
 30
0.0
  0
SPLINE
  5
198
100
AcDbEntity
  8
0
 62
7
100
AcDbSpline
 70
8
 71
3
 72
8
 73
4
 74
0
 40
0
 40
0
 40
0
 40
0
 40
1
 40
1
 40
1
 40
1
 10
684.967993
 20
574.696847
 30
0.0
 10
682.336325
 20
576.216749
 30
0.0
 10
679.093595
 20
576.216749
 30
0.0
 10
676.461927
 20
574.696847
 30
0.0
  0
SPLINE
  5
199
100
AcDbEntity
  8
0
 62
7
100
AcDbSpline
 70
8
 71
3
 72
8
 73
4
 74
0
 40
0
 40
0
 40
0
 40
0
 40
1
 40
1
 40
1
 40
1
 10
676.461927
 20
574.696847
 30
0.0
 10
673.830258
 20
573.176945
 30
0.0
 10
672.209706
 20
570.368190
 30
0.0
 10
672.211024
 20
567.329148
 30
0.0
  0
SPLINE
  5
19a
100
AcDbEntity
  8
0
 62
7
100
AcDbSpline
 70
8
 71
3
 72
8
 73
4
 74
0
 40
0
 40
0
 40
0
 40
0
 40
1
 40
1
 40
1
 40
1
 10
672.211024
 20
567.329148
 30
0.0
 10
672.213061
 20
562.633994
 30
0.0
 10
676.019806
 20
558.828900
 30
0.0
 10
680.714960
 20
558.828900
 30
0.0
  0
SPLINE
  5
19b
100
AcDbEntity
  8
0
 62
7
100
AcDbSpline
 70
8
 71
3
 72
8
 73
4
 74
0
 40
0
 40
0
 40
0
 40
0
 40
1
 40
1
 40
1
 40
1
 10
680.714960
 20
558.828900
 30
0.0
 10
685.410114
 20
558.828900
 30
0.0
 10
689.216859
 20
562.633994
 30
0.0
 10
689.218896
 20
567.329148
 30
0.0
  0
LWPOLYLINE
  5
19c
100
AcDbEntity
  8
0
 62
7
100
AcDbPolyline
 90
2
 70
0
 10
150.636224
 20
567.329148
 30
0.0
 10
150.636224
 20
567.329148
 30
0.0
  0
SPLINE
  5
19d
100
AcDbEntity
  8
0
 62
7
100
AcDbSpline
 70
8
 71
3
 72
8
 73
4
 74
0
 40
0
 40
0
 40
0
 40
0
 40
1
 40
1
 40
1
 40
1
 10
1227.801600
 20
567.329148
 30
0.0
 10
1227.801600
 20
570.367320
 30
0.0
 10
1226.180754
 20
573.174707
 30
0.0
 10
1223.549620
 20
574.693793
 30
0.0
  0
SPLINE
  5
19e
100
AcDbEntity
  8
0
 62
7
100
AcDbSpline
 70
8
 71
3
 72
8
 73
4
 74
0
 40
0
 40
0
 40
0
 40
0
 40
1
 40
1
 40
1
 40
1
 10
1223.549620
 20
574.693793
 30
0.0
 10
1220.918486
 20
576.212879
 30
0.0
 10
1217.676794
 20
576.212879
 30
0.0
 10
1215.045660
 20
574.693793
 30
0.0
  0
SPLINE
  5
19f
100
AcDbEntity
  8
0
 62
7
100
AcDbSpline
 70
8
 71
3
 72
8
 73
4
 74
0
 40
0
 40
0
 40
0
 40
0
 40
1
 40
1
 40
1
 40
1
 10
1215.045660
 20
574.693793
 30
0.0
 10
1212.414526
 20
573.174707
 30
0.0
 10
1210.793680
 20
570.367320
 30
0.0
 10
1210.793680
 20
567.329148
 30
0.0
  0
SPLINE
  5
1a0
100
AcDbEntity
  8
0
 62
7
100
AcDbSpline
 70
8
 71
3
 72
8
 73
4
 74
0
 40
0
 40
0
 40
0
 40
0
 40
1
 40
1
 40
1
 40
1
 10
1210.793680
 20
567.329148
 30
0.0
 10
1210.793680
 20
564.290975
 30
0.0
 10
1212.414526
 20
561.483589
 30
0.0
 10
1215.045660
 20
559.964502
 30
0.0
  0
SPLINE
  5
1a1
100
AcDbEntity
  8
0
 62
7
100
AcDbSpline
 70
8
 71
3
 72
8
 73
4
 74
0
 40
0
 40
0
 40
0
 40
0
 40
1
 40
1
 40
1
 40
1
 10
1215.045660
 20
559.964502
 30
0.0
 10
1217.676794
 20
558.445416
 30
0.0
 10
1220.918486
 20
558.445416
 30
0.0
 10
1223.549620
 20
559.964502
 30
0.0
  0
SPLINE
  5
1a2
100
AcDbEntity
  8
0
 62
7
100
AcDbSpline
 70
8
 71
3
 72
8
 73
4
 74
0
 40
0
 40
0
 40
0
 40
0
 40
1
 40
1
 40
1
 40
1
 10
1223.549620
 20
559.964502
 30
0.0
 10
1226.180754
 20
561.483589
 30
0.0
 10
1227.801600
 20
564.290975
 30
0.0
 10
1227.801600
 20
567.329148
 30
0.0
  0
LWPOLYLINE
  5
1a3
100
AcDbEntity
  8
0
 62
7
100
AcDbPolyline
 90
2
 70
0
 10
689.218896
 20
567.329148
 30
0.0
 10
689.218896
 20
567.329148
 30
0.0
  0
SPLINE
  5
1a4
100
AcDbEntity
  8
0
 62
7
100
AcDbSpline
 70
8
 71
3
 72
8
 73
4
 74
0
 40
0
 40
0
 40
0
 40
0
 40
1
 40
1
 40
1
 40
1
 10
1482.919680
 20
567.329148
 30
0.0
 10
1482.925727
 20
570.371332
 30
0.0
 10
1481.306213
 20
573.185017
 30
0.0
 10
1478.672607
 20
574.707858
 30
0.0
  0
SPLINE
  5
1a5
100
AcDbEntity
  8
0
 62
7
100
AcDbSpline
 70
8
 71
3
 72
8
 73
4
 74
0
 40
0
 40
0
 40
0
 40
0
 40
1
 40
1
 40
1
 40
1
 10
1478.672607
 20
574.707858
 30
0.0
 10
1476.039001
 20
576.230698
 30
0.0
 10
1472.792519
 20
576.230698
 30
0.0
 10
1470.158913
 20
574.707858
 30
0.0
  0
SPLINE
  5
1a6
100
AcDbEntity
  8
0
 62
7
100
AcDbSpline
 70
8
 71
3
 72
8
 73
4
 74
0
 40
0
 40
0
 40
0
 40
0
 40
1
 40
1
 40
1
 40
1
 10
1470.158913
 20
574.707858
 30
0.0
 10
1467.525307
 20
573.185017
 30
0.0
 10
1465.905793
 20
570.371332
 30
0.0
 10
1465.911840
 20
567.329148
 30
0.0
  0
SPLINE
  5
1a7
100
AcDbEntity
  8
0
 62
7
100
AcDbSpline
 70
8
 71
3
 72
8
 73
4
 74
0
 40
0
 40
0
 40
0
 40
0
 40
1
 40
1
 40
1
 40
1
 10
1465.911840
 20
567.329148
 30
0.0
 10
1465.905793
 20
564.286963
 30
0.0
 10
1467.525307
 20
561.473278
 30
0.0
 10
1470.158913
 20
559.950438
 30
0.0
  0
SPLINE
  5
1a8
100
AcDbEntity
  8
0
 62
7
100
AcDbSpline
 70
8
 71
3
 72
8
 73
4
 74
0
 40
0
 40
0
 40
0
 40
0
 40
1
 40
1
 40
1
 40
1
 10
1470.158913
 20
559.950438
 30
0.0
 10
1472.792519
 20
558.427597
 30
0.0
 10
1476.039001
 20
558.427597
 30
0.0
 10
1478.672607
 20
559.950438
 30
0.0
  0
SPLINE
  5
1a9
100
AcDbEntity
  8
0
 62
7
100
AcDbSpline
 70
8
 71
3
 72
8
 73
4
 74
0
 40
0
 40
0
 40
0
 40
0
 40
1
 40
1
 40
1
 40
1
 10
1478.672607
 20
559.950438
 30
0.0
 10
1481.306213
 20
561.473278
 30
0.0
 10
1482.925727
 20
564.286963
 30
0.0
 10
1482.919680
 20
567.329148
 30
0.0
  0
LWPOLYLINE
  5
1aa
100
AcDbEntity
  8
0
 62
7
100
AcDbPolyline
 90
2
 70
0
 10
1227.801600
 20
567.329148
 30
0.0
 10
1227.801600
 20
567.329148
 30
0.0
  0
SPLINE
  5
1ab
100
AcDbEntity
  8
0
 62
7
100
AcDbSpline
 70
8
 71
3
 72
8
 73
4
 74
0
 40
0
 40
0
 40
0
 40
0
 40
1
 40
1
 40
1
 40
1
 10
1993.155920
 20
567.329148
 30
0.0
 10
1993.155920
 20
570.367320
 30
0.0
 10
1991.535074
 20
573.174707
 30
0.0
 10
1988.903940
 20
574.693793
 30
0.0
  0
SPLINE
  5
1ac
100
AcDbEntity
  8
0
 62
7
100
AcDbSpline
 70
8
 71
3
 72
8
 73
4
 74
0
 40
0
 40
0
 40
0
 40
0
 40
1
 40
1
 40
1
 40
1
 10
1988.903940
 20
574.693793
 30
0.0
 10
1986.272806
 20
576.212879
 30
0.0
 10
1983.031114
 20
576.212879
 30
0.0
 10
1980.399980
 20
574.693793
 30
0.0
  0
SPLINE
  5
1ad
100
AcDbEntity
  8
0
 62
7
100
AcDbSpline
 70
8
 71
3
 72
8
 73
4
 74
0
 40
0
 40
0
 40
0
 40
0
 40
1
 40
1
 40
1
 40
1
 10
1980.399980
 20
574.693793
 30
0.0
 10
1977.768846
 20
573.174707
 30
0.0
 10
1976.148000
 20
570.367320
 30
0.0
 10
1976.148000
 20
567.329148
 30
0.0
  0
SPLINE
  5
1ae
100
AcDbEntity
  8
0
 62
7
100
AcDbSpline
 70
8
 71
3
 72
8
 73
4
 74
0
 40
0
 40
0
 40
0
 40
0
 40
1
 40
1
 40
1
 40
1
 10
1976.148000
 20
567.329148
 30
0.0
 10
1976.148000
 20
564.290975
 30
0.0
 10
1977.768846
 20
561.483589
 30
0.0
 10
1980.399980
 20
559.964502
 30
0.0
  0
SPLINE
  5
1af
100
AcDbEntity
  8
0
 62
7
100
AcDbSpline
 70
8
 71
3
 72
8
 73
4
 74
0
 40
0
 40
0
 40
0
 40
0
 40
1
 40
1
 40
1
 40
1
 10
1980.399980
 20
559.964502
 30
0.0
 10
1983.031114
 20
558.445416
 30
0.0
 10
1986.272806
 20
558.445416
 30
0.0
 10
1988.903940
 20
559.964502
 30
0.0
  0
SPLINE
  5
1b0
100
AcDbEntity
  8
0
 62
7
100
AcDbSpline
 70
8
 71
3
 72
8
 73
4
 74
0
 40
0
 40
0
 40
0
 40
0
 40
1
 40
1
 40
1
 40
1
 10
1988.903940
 20
559.964502
 30
0.0
 10
1991.535074
 20
561.483589
 30
0.0
 10
1993.155920
 20
564.290975
 30
0.0
 10
1993.155920
 20
567.329148
 30
0.0
  0
LWPOLYLINE
  5
1b1
100
AcDbEntity
  8
0
 62
7
100
AcDbPolyline
 90
2
 70
0
 10
1482.919680
 20
567.329148
 30
0.0
 10
1482.919680
 20
567.329148
 30
0.0
  0
SPLINE
  5
1b2
100
AcDbEntity
  8
0
 62
7
100
AcDbSpline
 70
8
 71
3
 72
8
 73
4
 74
0
 40
0
 40
0
 40
0
 40
0
 40
1
 40
1
 40
1
 40
1
 10
2503.392160
 20
567.329148
 30
0.0
 10
2503.392160
 20
570.367320
 30
0.0
 10
2501.771314
 20
573.174707
 30
0.0
 10
2499.140180
 20
574.693793
 30
0.0
  0
SPLINE
  5
1b3
100
AcDbEntity
  8
0
 62
7
100
AcDbSpline
 70
8
 71
3
 72
8
 73
4
 74
0
 40
0
 40
0
 40
0
 40
0
 40
1
 40
1
 40
1
 40
1
 10
2499.140180
 20
574.693793
 30
0.0
 10
2496.509046
 20
576.212879
 30
0.0
 10
2493.267354
 20
576.212879
 30
0.0
 10
2490.636220
 20
574.693793
 30
0.0
  0
SPLINE
  5
1b4
100
AcDbEntity
  8
0
 62
7
100
AcDbSpline
 70
8
 71
3
 72
8
 73
4
 74
0
 40
0
 40
0
 40
0
 40
0
 40
1
 40
1
 40
1
 40
1
 10
2490.636220
 20
574.693793
 30
0.0
 10
2488.005086
 20
573.174707
 30
0.0
 10
2486.384240
 20
570.367320
 30
0.0
 10
2486.384240
 20
567.329148
 30
0.0
  0
SPLINE
  5
1b5
100
AcDbEntity
  8
0
 62
7
100
AcDbSpline
 70
8
 71
3
 72
8
 73
4
 74
0
 40
0
 40
0
 40
0
 40
0
 40
1
 40
1
 40
1
 40
1
 10
2486.384240
 20
567.329148
 30
0.0
 10
2486.384240
 20
564.290975
 30
0.0
 10
2488.005086
 20
561.483589
 30
0.0
 10
2490.636220
 20
559.964502
 30
0.0
  0
SPLINE
  5
1b6
100
AcDbEntity
  8
0
 62
7
100
AcDbSpline
 70
8
 71
3
 72
8
 73
4
 74
0
 40
0
 40
0
 40
0
 40
0
 40
1
 40
1
 40
1
 40
1
 10
2490.636220
 20
559.964502
 30
0.0
 10
2493.267354
 20
558.445416
 30
0.0
 10
2496.509046
 20
558.445416
 30
0.0
 10
2499.140180
 20
559.964502
 30
0.0
  0
SPLINE
  5
1b7
100
AcDbEntity
  8
0
 62
7
100
AcDbSpline
 70
8
 71
3
 72
8
 73
4
 74
0
 40
0
 40
0
 40
0
 40
0
 40
1
 40
1
 40
1
 40
1
 10
2499.140180
 20
559.964502
 30
0.0
 10
2501.771314
 20
561.483589
 30
0.0
 10
2503.392160
 20
564.290975
 30
0.0
 10
2503.392160
 20
567.329148
 30
0.0
  0
LWPOLYLINE
  5
1b8
100
AcDbEntity
  8
0
 62
7
100
AcDbPolyline
 90
2
 70
0
 10
1993.155920
 20
567.329148
 30
0.0
 10
1993.155920
 20
567.329148
 30
0.0
  0
LWPOLYLINE
  5
1b9
100
AcDbEntity
  8
0
 62
7
100
AcDbPolyline
 90
2
 70
0
 10
2503.392160
 20
567.329148
 30
0.0
 10
2503.392160
 20
567.329148
 30
0.0
  0
LWPOLYLINE
  5
1ba
100
AcDbEntity
  8
0
 62
7
100
AcDbPolyline
 90
2
 70
0
 10
2767.599760
 20
936.254412
 30
0.0
 10
2767.599760
 20
992.947324
 30
0.0
  0
LWPOLYLINE
  5
1bb
100
AcDbEntity
  8
0
 62
7
100
AcDbPolyline
 90
2
 70
0
 10
2767.599760
 20
936.254412
 30
0.0
 10
2778.938320
 20
936.254412
 30
0.0
  0
LWPOLYLINE
  5
1bc
100
AcDbEntity
  8
0
 62
7
100
AcDbPolyline
 90
3
 70
0
 10
2767.599760
 20
992.947324
 30
0.0
 10
2778.938320
 20
992.947324
 30
0.0
 10
2778.938320
 20
1077.986692
 30
0.0
  0
LWPOLYLINE
  5
1bd
100
AcDbEntity
  8
0
 62
7
100
AcDbPolyline
 90
2
 70
0
 10
2767.599760
 20
1077.986692
 30
0.0
 10
2778.938320
 20
1077.986692
 30
0.0
  0
LWPOLYLINE
  5
1be
100
AcDbEntity
  8
0
 62
7
100
AcDbPolyline
 90
2
 70
0
 10
2767.599760
 20
1134.679604
 30
0.0
 10
2778.938320
 20
1134.679604
 30
0.0
  0
LWPOLYLINE
  5
1bf
100
AcDbEntity
  8
0
 62
7
100
AcDbPolyline
 90
2
 70
0
 10
2767.599760
 20
1077.986692
 30
0.0
 10
2767.599760
 20
1134.679604
 30
0.0
  0
LWPOLYLINE
  5
1c0
100
AcDbEntity
  8
0
 62
7
100
AcDbPolyline
 90
2
 70
0
 10
2767.599760
 20
1219.718980
 30
0.0
 10
2778.938320
 20
1219.718980
 30
0.0
  0
LWPOLYLINE
  5
1c1
100
AcDbEntity
  8
0
 62
7
100
AcDbPolyline
 90
2
 70
0
 10
2778.938320
 20
1134.679604
 30
0.0
 10
2778.938320
 20
1219.718980
 30
0.0
  0
LWPOLYLINE
  5
1c2
100
AcDbEntity
  8
0
 62
7
100
AcDbPolyline
 90
4
 70
0
 10
2767.599760
 20
1219.718980
 30
0.0
 10
2767.599760
 20
1276.411892
 30
0.0
 10
2778.938320
 20
1276.411892
 30
0.0
 10
2778.938320
 20
1361.451260
 30
0.0
  0
LWPOLYLINE
  5
1c3
100
AcDbEntity
  8
0
 62
7
100
AcDbPolyline
 90
2
 70
0
 10
2767.599760
 20
1361.451260
 30
0.0
 10
2778.938320
 20
1361.451260
 30
0.0
  0
LWPOLYLINE
  5
1c4
100
AcDbEntity
  8
0
 62
7
100
AcDbPolyline
 90
2
 70
0
 10
2608.274000
 20
538.982692
 30
0.0
 10
2608.274000
 20
595.675604
 30
0.0
  0
SPLINE
  5
1c5
100
AcDbEntity
  8
0
 62
7
100
AcDbSpline
 70
8
 71
3
 72
8
 73
4
 74
0
 40
0
 40
0
 40
0
 40
0
 40
1
 40
1
 40
1
 40
1
 10
689.218896
 20
1332.683484
 30
0.0
 10
689.220214
 20
1335.722526
 30
0.0
 10
687.599662
 20
1338.531281
 30
0.0
 10
684.967993
 20
1340.051183
 30
0.0
  0
SPLINE
  5
1c6
100
AcDbEntity
  8
0
 62
7
100
AcDbSpline
 70
8
 71
3
 72
8
 73
4
 74
0
 40
0
 40
0
 40
0
 40
0
 40
1
 40
1
 40
1
 40
1
 10
684.967993
 20
1340.051183
 30
0.0
 10
682.336325
 20
1341.571085
 30
0.0
 10
679.093595
 20
1341.571085
 30
0.0
 10
676.461927
 20
1340.051183
 30
0.0
  0
SPLINE
  5
1c7
100
AcDbEntity
  8
0
 62
7
100
AcDbSpline
 70
8
 71
3
 72
8
 73
4
 74
0
 40
0
 40
0
 40
0
 40
0
 40
1
 40
1
 40
1
 40
1
 10
676.461927
 20
1340.051183
 30
0.0
 10
673.830258
 20
1338.531281
 30
0.0
 10
672.209706
 20
1335.722526
 30
0.0
 10
672.211024
 20
1332.683484
 30
0.0
  0
SPLINE
  5
1c8
100
AcDbEntity
  8
0
 62
7
100
AcDbSpline
 70
8
 71
3
 72
8
 73
4
 74
0
 40
0
 40
0
 40
0
 40
0
 40
1
 40
1
 40
1
 40
1
 10
672.211024
 20
1332.683484
 30
0.0
 10
672.213061
 20
1327.988330
 30
0.0
 10
676.019806
 20
1324.183236
 30
0.0
 10
680.714960
 20
1324.183236
 30
0.0
  0
SPLINE
  5
1c9
100
AcDbEntity
  8
0
 62
7
100
AcDbSpline
 70
8
 71
3
 72
8
 73
4
 74
0
 40
0
 40
0
 40
0
 40
0
 40
1
 40
1
 40
1
 40
1
 10
680.714960
 20
1324.183236
 30
0.0
 10
685.410114
 20
1324.183236
 30
0.0
 10
689.216859
 20
1327.988330
 30
0.0
 10
689.218896
 20
1332.683484
 30
0.0
  0
LWPOLYLINE
  5
1ca
100
AcDbEntity
  8
0
 62
7
100
AcDbPolyline
 90
2
 70
0
 10
2353.155920
 20
1559.455132
 30
0.0
 10
2381.502400
 20
1559.455132
 30
0.0
  0
SPLINE
  5
1cb
100
AcDbEntity
  8
0
 62
7
100
AcDbSpline
 70
8
 71
3
 72
8
 73
4
 74
0
 40
0
 40
0
 40
0
 40
0
 40
1
 40
1
 40
1
 40
1
 10
1227.801600
 20
1332.683484
 30
0.0
 10
1227.801600
 20
1335.721656
 30
0.0
 10
1226.180754
 20
1338.529043
 30
0.0
 10
1223.549620
 20
1340.048129
 30
0.0
  0
SPLINE
  5
1cc
100
AcDbEntity
  8
0
 62
7
100
AcDbSpline
 70
8
 71
3
 72
8
 73
4
 74
0
 40
0
 40
0
 40
0
 40
0
 40
1
 40
1
 40
1
 40
1
 10
1223.549620
 20
1340.048129
 30
0.0
 10
1220.918486
 20
1341.567215
 30
0.0
 10
1217.676794
 20
1341.567215
 30
0.0
 10
1215.045660
 20
1340.048129
 30
0.0
  0
SPLINE
  5
1cd
100
AcDbEntity
  8
0
 62
7
100
AcDbSpline
 70
8
 71
3
 72
8
 73
4
 74
0
 40
0
 40
0
 40
0
 40
0
 40
1
 40
1
 40
1
 40
1
 10
1215.045660
 20
1340.048129
 30
0.0
 10
1212.414526
 20
1338.529043
 30
0.0
 10
1210.793680
 20
1335.721656
 30
0.0
 10
1210.793680
 20
1332.683484
 30
0.0
  0
SPLINE
  5
1ce
100
AcDbEntity
  8
0
 62
7
100
AcDbSpline
 70
8
 71
3
 72
8
 73
4
 74
0
 40
0
 40
0
 40
0
 40
0
 40
1
 40
1
 40
1
 40
1
 10
1210.793680
 20
1332.683484
 30
0.0
 10
1210.793680
 20
1329.645311
 30
0.0
 10
1212.414526
 20
1326.837925
 30
0.0
 10
1215.045660
 20
1325.318838
 30
0.0
  0
SPLINE
  5
1cf
100
AcDbEntity
  8
0
 62
7
100
AcDbSpline
 70
8
 71
3
 72
8
 73
4
 74
0
 40
0
 40
0
 40
0
 40
0
 40
1
 40
1
 40
1
 40
1
 10
1215.045660
 20
1325.318838
 30
0.0
 10
1217.676794
 20
1323.799752
 30
0.0
 10
1220.918486
 20
1323.799752
 30
0.0
 10
1223.549620
 20
1325.318838
 30
0.0
  0
SPLINE
  5
1d0
100
AcDbEntity
  8
0
 62
7
100
AcDbSpline
 70
8
 71
3
 72
8
 73
4
 74
0
 40
0
 40
0
 40
0
 40
0
 40
1
 40
1
 40
1
 40
1
 10
1223.549620
 20
1325.318838
 30
0.0
 10
1226.180754
 20
1326.837925
 30
0.0
 10
1227.801600
 20
1329.645311
 30
0.0
 10
1227.801600
 20
1332.683484
 30
0.0
  0
LWPOLYLINE
  5
1d1
100
AcDbEntity
  8
0
 62
7
100
AcDbPolyline
 90
2
 70
0
 10
689.218896
 20
1332.683484
 30
0.0
 10
689.218896
 20
1332.683484
 30
0.0
  0
SPLINE
  5
1d2
100
AcDbEntity
  8
0
 62
7
100
AcDbSpline
 70
8
 71
3
 72
8
 73
4
 74
0
 40
0
 40
0
 40
0
 40
0
 40
1
 40
1
 40
1
 40
1
 10
1468.746480
 20
1701.187364
 30
0.0
 10
1468.746480
 20
1704.225536
 30
0.0
 10
1467.125634
 20
1707.032923
 30
0.0
 10
1464.494500
 20
1708.552009
 30
0.0
  0
SPLINE
  5
1d3
100
AcDbEntity
  8
0
 62
7
100
AcDbSpline
 70
8
 71
3
 72
8
 73
4
 74
0
 40
0
 40
0
 40
0
 40
0
 40
1
 40
1
 40
1
 40
1
 10
1464.494500
 20
1708.552009
 30
0.0
 10
1461.863366
 20
1710.071095
 30
0.0
 10
1458.621674
 20
1710.071095
 30
0.0
 10
1455.990540
 20
1708.552009
 30
0.0
  0
SPLINE
  5
1d4
100
AcDbEntity
  8
0
 62
7
100
AcDbSpline
 70
8
 71
3
 72
8
 73
4
 74
0
 40
0
 40
0
 40
0
 40
0
 40
1
 40
1
 40
1
 40
1
 10
1455.990540
 20
1708.552009
 30
0.0
 10
1453.359406
 20
1707.032923
 30
0.0
 10
1451.738560
 20
1704.225536
 30
0.0
 10
1451.738560
 20
1701.187364
 30
0.0
  0
SPLINE
  5
1d5
100
AcDbEntity
  8
0
 62
7
100
AcDbSpline
 70
8
 71
3
 72
8
 73
4
 74
0
 40
0
 40
0
 40
0
 40
0
 40
1
 40
1
 40
1
 40
1
 10
1451.738560
 20
1701.187364
 30
0.0
 10
1451.738560
 20
1698.149191
 30
0.0
 10
1453.359406
 20
1695.341805
 30
0.0
 10
1455.990540
 20
1693.822718
 30
0.0
  0
SPLINE
  5
1d6
100
AcDbEntity
  8
0
 62
7
100
AcDbSpline
 70
8
 71
3
 72
8
 73
4
 74
0
 40
0
 40
0
 40
0
 40
0
 40
1
 40
1
 40
1
 40
1
 10
1455.990540
 20
1693.822718
 30
0.0
 10
1458.621674
 20
1692.303632
 30
0.0
 10
1461.863366
 20
1692.303632
 30
0.0
 10
1464.494500
 20
1693.822718
 30
0.0
  0
SPLINE
  5
1d7
100
AcDbEntity
  8
0
 62
7
100
AcDbSpline
 70
8
 71
3
 72
8
 73
4
 74
0
 40
0
 40
0
 40
0
 40
0
 40
1
 40
1
 40
1
 40
1
 10
1464.494500
 20
1693.822718
 30
0.0
 10
1467.125634
 20
1695.341805
 30
0.0
 10
1468.746480
 20
1698.149191
 30
0.0
 10
1468.746480
 20
1701.187364
 30
0.0
  0
LWPOLYLINE
  5
1d8
100
AcDbEntity
  8
0
 62
7
100
AcDbPolyline
 90
2
 70
0
 10
1227.801600
 20
1332.683484
 30
0.0
 10
1227.801600
 20
1332.683484
 30
0.0
  0
SPLINE
  5
1d9
100
AcDbEntity
  8
0
 62
7
100
AcDbSpline
 70
8
 71
3
 72
8
 73
4
 74
0
 40
0
 40
0
 40
0
 40
0
 40
1
 40
1
 40
1
 40
1
 10
1397.880320
 20
1332.683484
 30
0.0
 10
1397.886510
 20
1335.725763
 30
0.0
 10
1396.267027
 20
1338.539597
 30
0.0
 10
1393.633362
 20
1340.062526
 30
0.0
  0
SPLINE
  5
1da
100
AcDbEntity
  8
0
 62
7
100
AcDbSpline
 70
8
 71
3
 72
8
 73
4
 74
0
 40
0
 40
0
 40
0
 40
0
 40
1
 40
1
 40
1
 40
1
 10
1393.633362
 20
1340.062526
 30
0.0
 10
1390.999698
 20
1341.585455
 30
0.0
 10
1387.753102
 20
1341.585455
 30
0.0
 10
1385.119438
 20
1340.062526
 30
0.0
  0
SPLINE
  5
1db
100
AcDbEntity
  8
0
 62
7
100
AcDbSpline
 70
8
 71
3
 72
8
 73
4
 74
0
 40
0
 40
0
 40
0
 40
0
 40
1
 40
1
 40
1
 40
1
 10
1385.119438
 20
1340.062526
 30
0.0
 10
1382.485773
 20
1338.539597
 30
0.0
 10
1380.866290
 20
1335.725763
 30
0.0
 10
1380.872480
 20
1332.683484
 30
0.0
  0
SPLINE
  5
1dc
100
AcDbEntity
  8
0
 62
7
100
AcDbSpline
 70
8
 71
3
 72
8
 73
4
 74
0
 40
0
 40
0
 40
0
 40
0
 40
1
 40
1
 40
1
 40
1
 10
1380.872480
 20
1332.683484
 30
0.0
 10
1380.882022
 20
1327.993654
 30
0.0
 10
1384.686560
 20
1324.196848
 30
0.0
 10
1389.376400
 20
1324.196848
 30
0.0
  0
SPLINE
  5
1dd
100
AcDbEntity
  8
0
 62
7
100
AcDbSpline
 70
8
 71
3
 72
8
 73
4
 74
0
 40
0
 40
0
 40
0
 40
0
 40
1
 40
1
 40
1
 40
1
 10
1389.376400
 20
1324.196848
 30
0.0
 10
1394.066240
 20
1324.196848
 30
0.0
 10
1397.870778
 20
1327.993654
 30
0.0
 10
1397.880320
 20
1332.683484
 30
0.0
  0
LWPOLYLINE
  5
1de
100
AcDbEntity
  8
0
 62
7
100
AcDbPolyline
 90
2
 70
0
 10
1468.746480
 20
1701.187364
 30
0.0
 10
1468.746480
 20
1701.187364
 30
0.0
  0
SPLINE
  5
1df
100
AcDbEntity
  8
0
 62
7
100
AcDbSpline
 70
8
 71
3
 72
8
 73
4
 74
0
 40
0
 40
0
 40
0
 40
0
 40
1
 40
1
 40
1
 40
1
 10
2214.258240
 20
1701.187364
 30
0.0
 10
2214.264287
 20
1704.229548
 30
0.0
 10
2212.644773
 20
1707.043233
 30
0.0
 10
2210.011167
 20
1708.566074
 30
0.0
  0
SPLINE
  5
1e0
100
AcDbEntity
  8
0
 62
7
100
AcDbSpline
 70
8
 71
3
 72
8
 73
4
 74
0
 40
0
 40
0
 40
0
 40
0
 40
1
 40
1
 40
1
 40
1
 10
2210.011167
 20
1708.566074
 30
0.0
 10
2207.377561
 20
1710.088914
 30
0.0
 10
2204.131079
 20
1710.088914
 30
0.0
 10
2201.497473
 20
1708.566074
 30
0.0
  0
SPLINE
  5
1e1
100
AcDbEntity
  8
0
 62
7
100
AcDbSpline
 70
8
 71
3
 72
8
 73
4
 74
0
 40
0
 40
0
 40
0
 40
0
 40
1
 40
1
 40
1
 40
1
 10
2201.497473
 20
1708.566074
 30
0.0
 10
2198.863867
 20
1707.043233
 30
0.0
 10
2197.244353
 20
1704.229548
 30
0.0
 10
2197.250400
 20
1701.187364
 30
0.0
  0
SPLINE
  5
1e2
100
AcDbEntity
  8
0
 62
7
100
AcDbSpline
 70
8
 71
3
 72
8
 73
4
 74
0
 40
0
 40
0
 40
0
 40
0
 40
1
 40
1
 40
1
 40
1
 10
2197.250400
 20
1701.187364
 30
0.0
 10
2197.259722
 20
1696.497378
 30
0.0
 10
2201.064325
 20
1692.700331
 30
0.0
 10
2205.754320
 20
1692.700331
 30
0.0
  0
SPLINE
  5
1e3
100
AcDbEntity
  8
0
 62
7
100
AcDbSpline
 70
8
 71
3
 72
8
 73
4
 74
0
 40
0
 40
0
 40
0
 40
0
 40
1
 40
1
 40
1
 40
1
 10
2205.754320
 20
1692.700331
 30
0.0
 10
2210.444315
 20
1692.700331
 30
0.0
 10
2214.248918
 20
1696.497378
 30
0.0
 10
2214.258240
 20
1701.187364
 30
0.0
  0
LWPOLYLINE
  5
1e4
100
AcDbEntity
  8
0
 62
7
100
AcDbPolyline
 90
2
 70
0
 10
1397.880320
 20
1332.683484
 30
0.0
 10
1397.880320
 20
1332.683484
 30
0.0
  0
SPLINE
  5
1e5
100
AcDbEntity
  8
0
 62
7
100
AcDbSpline
 70
8
 71
3
 72
8
 73
4
 74
0
 40
0
 40
0
 40
0
 40
0
 40
1
 40
1
 40
1
 40
1
 10
1468.746480
 20
1056.588996
 30
0.0
 10
1468.746480
 20
1059.627168
 30
0.0
 10
1467.125634
 20
1062.434555
 30
0.0
 10
1464.494500
 20
1063.953641
 30
0.0
  0
SPLINE
  5
1e6
100
AcDbEntity
  8
0
 62
7
100
AcDbSpline
 70
8
 71
3
 72
8
 73
4
 74
0
 40
0
 40
0
 40
0
 40
0
 40
1
 40
1
 40
1
 40
1
 10
1464.494500
 20
1063.953641
 30
0.0
 10
1461.863366
 20
1065.472727
 30
0.0
 10
1458.621674
 20
1065.472727
 30
0.0
 10
1455.990540
 20
1063.953641
 30
0.0
  0
SPLINE
  5
1e7
100
AcDbEntity
  8
0
 62
7
100
AcDbSpline
 70
8
 71
3
 72
8
 73
4
 74
0
 40
0
 40
0
 40
0
 40
0
 40
1
 40
1
 40
1
 40
1
 10
1455.990540
 20
1063.953641
 30
0.0
 10
1453.359406
 20
1062.434555
 30
0.0
 10
1451.738560
 20
1059.627168
 30
0.0
 10
1451.738560
 20
1056.588996
 30
0.0
  0
SPLINE
  5
1e8
100
AcDbEntity
  8
0
 62
7
100
AcDbSpline
 70
8
 71
3
 72
8
 73
4
 74
0
 40
0
 40
0
 40
0
 40
0
 40
1
 40
1
 40
1
 40
1
 10
1451.738560
 20
1056.588996
 30
0.0
 10
1451.738560
 20
1053.550823
 30
0.0
 10
1453.359406
 20
1050.743437
 30
0.0
 10
1455.990540
 20
1049.224350
 30
0.0
  0
SPLINE
  5
1e9
100
AcDbEntity
  8
0
 62
7
100
AcDbSpline
 70
8
 71
3
 72
8
 73
4
 74
0
 40
0
 40
0
 40
0
 40
0
 40
1
 40
1
 40
1
 40
1
 10
1455.990540
 20
1049.224350
 30
0.0
 10
1458.621674
 20
1047.705264
 30
0.0
 10
1461.863366
 20
1047.705264
 30
0.0
 10
1464.494500
 20
1049.224350
 30
0.0
  0
SPLINE
  5
1ea
100
AcDbEntity
  8
0
 62
7
100
AcDbSpline
 70
8
 71
3
 72
8
 73
4
 74
0
 40
0
 40
0
 40
0
 40
0
 40
1
 40
1
 40
1
 40
1
 10
1464.494500
 20
1049.224350
 30
0.0
 10
1467.125634
 20
1050.743437
 30
0.0
 10
1468.746480
 20
1053.550823
 30
0.0
 10
1468.746480
 20
1056.588996
 30
0.0
  0
LWPOLYLINE
  5
1eb
100
AcDbEntity
  8
0
 62
7
100
AcDbPolyline
 90
2
 70
0
 10
2214.258240
 20
1701.187364
 30
0.0
 10
2214.258240
 20
1701.187364
 30
0.0
  0
SPLINE
  5
1ec
100
AcDbEntity
  8
0
 62
7
100
AcDbSpline
 70
8
 71
3
 72
8
 73
4
 74
0
 40
0
 40
0
 40
0
 40
0
 40
1
 40
1
 40
1
 40
1
 10
2214.258240
 20
1056.588996
 30
0.0
 10
2214.264287
 20
1059.631180
 30
0.0
 10
2212.644773
 20
1062.444865
 30
0.0
 10
2210.011167
 20
1063.967706
 30
0.0
  0
SPLINE
  5
1ed
100
AcDbEntity
  8
0
 62
7
100
AcDbSpline
 70
8
 71
3
 72
8
 73
4
 74
0
 40
0
 40
0
 40
0
 40
0
 40
1
 40
1
 40
1
 40
1
 10
2210.011167
 20
1063.967706
 30
0.0
 10
2207.377561
 20
1065.490546
 30
0.0
 10
2204.131079
 20
1065.490546
 30
0.0
 10
2201.497473
 20
1063.967706
 30
0.0
  0
SPLINE
  5
1ee
100
AcDbEntity
  8
0
 62
7
100
AcDbSpline
 70
8
 71
3
 72
8
 73
4
 74
0
 40
0
 40
0
 40
0
 40
0
 40
1
 40
1
 40
1
 40
1
 10
2201.497473
 20
1063.967706
 30
0.0
 10
2198.863867
 20
1062.444865
 30
0.0
 10
2197.244353
 20
1059.631180
 30
0.0
 10
2197.250400
 20
1056.588996
 30
0.0
  0
SPLINE
  5
1ef
100
AcDbEntity
  8
0
 62
7
100
AcDbSpline
 70
8
 71
3
 72
8
 73
4
 74
0
 40
0
 40
0
 40
0
 40
0
 40
1
 40
1
 40
1
 40
1
 10
2197.250400
 20
1056.588996
 30
0.0
 10
2197.259722
 20
1051.899010
 30
0.0
 10
2201.064325
 20
1048.101963
 30
0.0
 10
2205.754320
 20
1048.101963
 30
0.0
  0
SPLINE
  5
1f0
100
AcDbEntity
  8
0
 62
7
100
AcDbSpline
 70
8
 71
3
 72
8
 73
4
 74
0
 40
0
 40
0
 40
0
 40
0
 40
1
 40
1
 40
1
 40
1
 10
2205.754320
 20
1048.101963
 30
0.0
 10
2210.444315
 20
1048.101963
 30
0.0
 10
2214.248918
 20
1051.899010
 30
0.0
 10
2214.258240
 20
1056.588996
 30
0.0
  0
LWPOLYLINE
  5
1f1
100
AcDbEntity
  8
0
 62
7
100
AcDbPolyline
 90
2
 70
0
 10
1468.746480
 20
1056.588996
 30
0.0
 10
1468.746480
 20
1056.588996
 30
0.0
  0
LWPOLYLINE
  5
1f2
100
AcDbEntity
  8
0
 62
7
100
AcDbPolyline
 90
2
 70
0
 10
2214.258240
 20
1056.588996
 30
0.0
 10
2214.258240
 20
1056.588996
 30
0.0
  0
LWPOLYLINE
  5
1f3
100
AcDbEntity
  8
0
 62
7
100
AcDbPolyline
 90
2
 70
0
 10
1361.029920
 20
862.132297
 30
0.0
 10
1389.376400
 20
862.132297
 30
0.0
  0
LWPOLYLINE
  5
1f4
100
AcDbEntity
  8
0
 62
7
100
AcDbPolyline
 90
2
 70
0
 10
1318.510240
 20
918.825210
 30
0.0
 10
1318.510240
 20
964.179540
 30
0.0
  0
LWPOLYLINE
  5
1f5
100
AcDbEntity
  8
0
 62
7
100
AcDbPolyline
 90
2
 70
0
 10
1304.337040
 20
862.132297
 30
0.0
 10
1304.337040
 20
918.825210
 30
0.0
  0
LWPOLYLINE
  5
1f6
100
AcDbEntity
  8
0
 62
7
100
AcDbPolyline
 90
2
 70
0
 10
1361.029920
 20
862.132297
 30
0.0
 10
1361.029920
 20
918.825210
 30
0.0
  0
LWPOLYLINE
  5
1f7
100
AcDbEntity
  8
0
 62
7
100
AcDbPolyline
 90
2
 70
0
 10
1304.337040
 20
918.825210
 30
0.0
 10
1361.029920
 20
918.825210
 30
0.0
  0
LWPOLYLINE
  5
1f8
100
AcDbEntity
  8
0
 62
7
100
AcDbPolyline
 90
2
 70
0
 10
2319.140160
 20
1417.722852
 30
0.0
 10
2319.140160
 20
1460.242540
 30
0.0
  0
LWPOLYLINE
  5
1f9
100
AcDbEntity
  8
0
 62
7
100
AcDbPolyline
 90
2
 70
0
 10
2319.140160
 20
1516.935452
 30
0.0
 10
2319.140160
 20
1559.455132
 30
0.0
  0
LWPOLYLINE
  5
1fa
100
AcDbEntity
  8
0
 62
7
100
AcDbPolyline
 90
2
 70
0
 10
2319.140160
 20
1601.974820
 30
0.0
 10
2319.140160
 20
1644.494484
 30
0.0
  0
LWPOLYLINE
  5
1fb
100
AcDbEntity
  8
0
 62
7
100
AcDbPolyline
 90
2
 70
0
 10
2307.801600
 20
1417.722852
 30
0.0
 10
2307.801600
 20
1460.242540
 30
0.0
  0
LWPOLYLINE
  5
1fc
100
AcDbEntity
  8
0
 62
7
100
AcDbPolyline
 90
2
 70
0
 10
2307.801600
 20
1516.935452
 30
0.0
 10
2307.801600
 20
1559.455132
 30
0.0
  0
LWPOLYLINE
  5
1fd
100
AcDbEntity
  8
0
 62
7
100
AcDbPolyline
 90
2
 70
0
 10
2307.801600
 20
1601.974820
 30
0.0
 10
2307.801600
 20
1644.494484
 30
0.0
  0
LWPOLYLINE
  5
1fe
100
AcDbEntity
  8
0
 62
7
100
AcDbPolyline
 90
2
 70
0
 10
2307.801600
 20
1417.722852
 30
0.0
 10
2319.140160
 20
1417.722852
 30
0.0
  0
LWPOLYLINE
  5
1ff
100
AcDbEntity
  8
0
 62
7
100
AcDbPolyline
 90
2
 70
0
 10
2307.801600
 20
1460.242540
 30
0.0
 10
2319.140160
 20
1460.242540
 30
0.0
  0
LWPOLYLINE
  5
200
100
AcDbEntity
  8
0
 62
7
100
AcDbPolyline
 90
2
 70
0
 10
2307.801600
 20
1516.935452
 30
0.0
 10
2319.140160
 20
1516.935452
 30
0.0
  0
LWPOLYLINE
  5
201
100
AcDbEntity
  8
0
 62
7
100
AcDbPolyline
 90
2
 70
0
 10
2307.801600
 20
1559.455132
 30
0.0
 10
2319.140160
 20
1559.455132
 30
0.0
  0
LWPOLYLINE
  5
202
100
AcDbEntity
  8
0
 62
7
100
AcDbPolyline
 90
2
 70
0
 10
2307.801600
 20
1601.974820
 30
0.0
 10
2319.140160
 20
1601.974820
 30
0.0
  0
LWPOLYLINE
  5
203
100
AcDbEntity
  8
0
 62
7
100
AcDbPolyline
 90
2
 70
0
 10
2307.801600
 20
1644.494484
 30
0.0
 10
2319.140160
 20
1644.494484
 30
0.0
  0
LWPOLYLINE
  5
204
100
AcDbEntity
  8
0
 62
7
100
AcDbPolyline
 90
2
 70
0
 10
2319.140160
 20
1035.045684
 30
0.0
 10
2319.140160
 20
1077.565372
 30
0.0
  0
LWPOLYLINE
  5
205
100
AcDbEntity
  8
0
 62
7
100
AcDbPolyline
 90
2
 70
0
 10
2307.801600
 20
1035.045684
 30
0.0
 10
2307.801600
 20
1077.565372
 30
0.0
  0
LWPOLYLINE
  5
206
100
AcDbEntity
  8
0
 62
7
100
AcDbPolyline
 90
2
 70
0
 10
2307.801600
 20
1035.045684
 30
0.0
 10
2319.140160
 20
1035.045684
 30
0.0
  0
LWPOLYLINE
  5
207
100
AcDbEntity
  8
0
 62
7
100
AcDbPolyline
 90
2
 70
0
 10
2307.801600
 20
1077.565372
 30
0.0
 10
2319.140160
 20
1077.565372
 30
0.0
  0
LWPOLYLINE
  5
208
100
AcDbEntity
  8
0
 62
7
100
AcDbPolyline
 90
2
 70
0
 10
2319.140160
 20
1148.431508
 30
0.0
 10
2319.140160
 20
1190.951196
 30
0.0
  0
LWPOLYLINE
  5
209
100
AcDbEntity
  8
0
 62
7
100
AcDbPolyline
 90
2
 70
0
 10
2307.801600
 20
1148.431508
 30
0.0
 10
2307.801600
 20
1190.951196
 30
0.0
  0
LWPOLYLINE
  5
20a
100
AcDbEntity
  8
0
 62
7
100
AcDbPolyline
 90
2
 70
0
 10
2307.801600
 20
1148.431508
 30
0.0
 10
2319.140160
 20
1148.431508
 30
0.0
  0
LWPOLYLINE
  5
20b
100
AcDbEntity
  8
0
 62
7
100
AcDbPolyline
 90
2
 70
0
 10
2307.801600
 20
1190.951196
 30
0.0
 10
2319.140160
 20
1190.951196
 30
0.0
  0
LWPOLYLINE
  5
20c
100
AcDbEntity
  8
0
 62
7
100
AcDbPolyline
 90
2
 70
0
 10
2319.140160
 20
921.659856
 30
0.0
 10
2319.140160
 20
964.179540
 30
0.0
  0
LWPOLYLINE
  5
20d
100
AcDbEntity
  8
0
 62
7
100
AcDbPolyline
 90
2
 70
0
 10
2307.801600
 20
921.659856
 30
0.0
 10
2307.801600
 20
964.179540
 30
0.0
  0
LWPOLYLINE
  5
20e
100
AcDbEntity
  8
0
 62
7
100
AcDbPolyline
 90
2
 70
0
 10
2307.801600
 20
921.659856
 30
0.0
 10
2319.140160
 20
921.659856
 30
0.0
  0
LWPOLYLINE
  5
20f
100
AcDbEntity
  8
0
 62
7
100
AcDbPolyline
 90
2
 70
0
 10
2307.801600
 20
964.179540
 30
0.0
 10
2319.140160
 20
964.179540
 30
0.0
  0
LWPOLYLINE
  5
210
100
AcDbEntity
  8
0
 62
7
100
AcDbPolyline
 90
2
 70
0
 10
57.092914
 20
57.092932
 30
0.0
 10
170.478736
 20
57.092932
 30
0.0
  0
LWPOLYLINE
  5
211
100
AcDbEntity
  8
0
 62
7
100
AcDbPolyline
 90
2
 70
0
 10
57.092914
 20
57.092932
 30
0.0
 10
57.092914
 20
170.478756
 30
0.0
  0
LWPOLYLINE
  5
212
100
AcDbEntity
  8
0
 62
7
100
AcDbPolyline
 90
2
 70
0
 10
0.400000
 20
170.478756
 30
0.0
 10
57.092914
 20
170.478756
 30
0.0
  0
SPLINE
  5
213
100
AcDbEntity
  8
0
 62
7
100
AcDbSpline
 70
8
 71
3
 72
8
 73
4
 74
0
 40
0
 40
0
 40
0
 40
0
 40
1
 40
1
 40
1
 40
1
 10
207.329136
 20
28.746484
 30
0.0
 10
207.329136
 20
31.784649
 30
0.0
 10
205.708294
 20
34.592029
 30
0.0
 10
203.077166
 20
36.111112
 30
0.0
  0
SPLINE
  5
214
100
AcDbEntity
  8
0
 62
7
100
AcDbSpline
 70
8
 71
3
 72
8
 73
4
 74
0
 40
0
 40
0
 40
0
 40
0
 40
1
 40
1
 40
1
 40
1
 10
203.077166
 20
36.111112
 30
0.0
 10
200.446038
 20
37.630194
 30
0.0
 10
197.204354
 20
37.630194
 30
0.0
 10
194.573226
 20
36.111112
 30
0.0
  0
SPLINE
  5
215
100
AcDbEntity
  8
0
 62
7
100
AcDbSpline
 70
8
 71
3
 72
8
 73
4
 74
0
 40
0
 40
0
 40
0
 40
0
 40
1
 40
1
 40
1
 40
1
 10
194.573226
 20
36.111112
 30
0.0
 10
191.942098
 20
34.592029
 30
0.0
 10
190.321256
 20
31.784649
 30
0.0
 10
190.321256
 20
28.746484
 30
0.0
  0
SPLINE
  5
216
100
AcDbEntity
  8
0
 62
7
100
AcDbSpline
 70
8
 71
3
 72
8
 73
4
 74
0
 40
0
 40
0
 40
0
 40
0
 40
1
 40
1
 40
1
 40
1
 10
190.321256
 20
28.746484
 30
0.0
 10
190.321256
 20
25.708319
 30
0.0
 10
191.942098
 20
22.900938
 30
0.0
 10
194.573226
 20
21.381856
 30
0.0
  0
SPLINE
  5
217
100
AcDbEntity
  8
0
 62
7
100
AcDbSpline
 70
8
 71
3
 72
8
 73
4
 74
0
 40
0
 40
0
 40
0
 40
0
 40
1
 40
1
 40
1
 40
1
 10
194.573226
 20
21.381856
 30
0.0
 10
197.204354
 20
19.862773
 30
0.0
 10
200.446038
 20
19.862773
 30
0.0
 10
203.077166
 20
21.381856
 30
0.0
  0
SPLINE
  5
218
100
AcDbEntity
  8
0
 62
7
100
AcDbSpline
 70
8
 71
3
 72
8
 73
4
 74
0
 40
0
 40
0
 40
0
 40
0
 40
1
 40
1
 40
1
 40
1
 10
203.077166
 20
21.381856
 30
0.0
 10
205.708294
 20
22.900938
 30
0.0
 10
207.329136
 20
25.708319
 30
0.0
 10
207.329136
 20
28.746484
 30
0.0
  0
LWPOLYLINE
  5
219
100
AcDbEntity
  8
0
 62
7
100
AcDbPolyline
 90
3
 70
0
 10
170.478736
 20
57.092932
 30
0.0
 10
170.478736
 20
0.400004
 30
0.0
 10
1346.856720
 20
0.400004
 30
0.0
  0
LWPOLYLINE
  5
21a
100
AcDbEntity
  8
0
 62
7
100
AcDbPolyline
 90
2
 70
0
 10
207.329136
 20
28.746484
 30
0.0
 10
207.329136
 20
28.746484
 30
0.0
  0
LWPOLYLINE
  5
21b
100
AcDbEntity
  8
0
 62
7
100
AcDbPolyline
 90
2
 70
0
 10
0.400000
 20
595.675604
 30
0.0
 10
1318.510240
 20
595.675604
 30
0.0
  0
LWPOLYLINE
  5
21c
100
AcDbEntity
  8
0
 62
7
100
AcDbPolyline
 90
2
 70
0
 10
0.400000
 20
170.478756
 30
0.0
 10
0.400000
 20
595.675604
 30
0.0
  0
SPLINE
  5
21d
100
AcDbEntity
  8
0
 62
7
100
AcDbSpline
 70
8
 71
3
 72
8
 73
4
 74
0
 40
0
 40
0
 40
0
 40
0
 40
1
 40
1
 40
1
 40
1
 10
207.329136
 20
1701.187364
 30
0.0
 10
207.329136
 20
1704.225529
 30
0.0
 10
205.708294
 20
1707.032909
 30
0.0
 10
203.077166
 20
1708.551992
 30
0.0
  0
SPLINE
  5
21e
100
AcDbEntity
  8
0
 62
7
100
AcDbSpline
 70
8
 71
3
 72
8
 73
4
 74
0
 40
0
 40
0
 40
0
 40
0
 40
1
 40
1
 40
1
 40
1
 10
203.077166
 20
1708.551992
 30
0.0
 10
200.446038
 20
1710.071074
 30
0.0
 10
197.204354
 20
1710.071074
 30
0.0
 10
194.573226
 20
1708.551992
 30
0.0
  0
SPLINE
  5
21f
100
AcDbEntity
  8
0
 62
7
100
AcDbSpline
 70
8
 71
3
 72
8
 73
4
 74
0
 40
0
 40
0
 40
0
 40
0
 40
1
 40
1
 40
1
 40
1
 10
194.573226
 20
1708.551992
 30
0.0
 10
191.942098
 20
1707.032909
 30
0.0
 10
190.321256
 20
1704.225529
 30
0.0
 10
190.321256
 20
1701.187364
 30
0.0
  0
SPLINE
  5
220
100
AcDbEntity
  8
0
 62
7
100
AcDbSpline
 70
8
 71
3
 72
8
 73
4
 74
0
 40
0
 40
0
 40
0
 40
0
 40
1
 40
1
 40
1
 40
1
 10
190.321256
 20
1701.187364
 30
0.0
 10
190.321256
 20
1698.149199
 30
0.0
 10
191.942098
 20
1695.341818
 30
0.0
 10
194.573226
 20
1693.822736
 30
0.0
  0
SPLINE
  5
221
100
AcDbEntity
  8
0
 62
7
100
AcDbSpline
 70
8
 71
3
 72
8
 73
4
 74
0
 40
0
 40
0
 40
0
 40
0
 40
1
 40
1
 40
1
 40
1
 10
194.573226
 20
1693.822736
 30
0.0
 10
197.204354
 20
1692.303653
 30
0.0
 10
200.446038
 20
1692.303653
 30
0.0
 10
203.077166
 20
1693.822736
 30
0.0
  0
SPLINE
  5
222
100
AcDbEntity
  8
0
 62
7
100
AcDbSpline
 70
8
 71
3
 72
8
 73
4
 74
0
 40
0
 40
0
 40
0
 40
0
 40
1
 40
1
 40
1
 40
1
 10
203.077166
 20
1693.822736
 30
0.0
 10
205.708294
 20
1695.341818
 30
0.0
 10
207.329136
 20
1698.149199
 30
0.0
 10
207.329136
 20
1701.187364
 30
0.0
  0
LWPOLYLINE
  5
223
100
AcDbEntity
  8
0
 62
7
100
AcDbPolyline
 90
2
 70
0
 10
170.478736
 20
1672.840964
 30
0.0
 10
170.478736
 20
1729.533844
 30
0.0
  0
LWPOLYLINE
  5
224
100
AcDbEntity
  8
0
 62
7
100
AcDbPolyline
 90
2
 70
0
 10
207.329136
 20
1701.187364
 30
0.0
 10
207.329136
 20
1701.187364
 30
0.0
  0
SPLINE
  5
225
100
AcDbEntity
  8
0
 62
7
100
AcDbSpline
 70
8
 71
3
 72
8
 73
4
 74
0
 40
0
 40
0
 40
0
 40
0
 40
1
 40
1
 40
1
 40
1
 10
207.329136
 20
1332.683484
 30
0.0
 10
207.329136
 20
1335.721649
 30
0.0
 10
205.708294
 20
1338.529029
 30
0.0
 10
203.077166
 20
1340.048112
 30
0.0
  0
SPLINE
  5
226
100
AcDbEntity
  8
0
 62
7
100
AcDbSpline
 70
8
 71
3
 72
8
 73
4
 74
0
 40
0
 40
0
 40
0
 40
0
 40
1
 40
1
 40
1
 40
1
 10
203.077166
 20
1340.048112
 30
0.0
 10
200.446038
 20
1341.567194
 30
0.0
 10
197.204354
 20
1341.567194
 30
0.0
 10
194.573226
 20
1340.048112
 30
0.0
  0
SPLINE
  5
227
100
AcDbEntity
  8
0
 62
7
100
AcDbSpline
 70
8
 71
3
 72
8
 73
4
 74
0
 40
0
 40
0
 40
0
 40
0
 40
1
 40
1
 40
1
 40
1
 10
194.573226
 20
1340.048112
 30
0.0
 10
191.942098
 20
1338.529029
 30
0.0
 10
190.321256
 20
1335.721649
 30
0.0
 10
190.321256
 20
1332.683484
 30
0.0
  0
SPLINE
  5
228
100
AcDbEntity
  8
0
 62
7
100
AcDbSpline
 70
8
 71
3
 72
8
 73
4
 74
0
 40
0
 40
0
 40
0
 40
0
 40
1
 40
1
 40
1
 40
1
 10
190.321256
 20
1332.683484
 30
0.0
 10
190.321256
 20
1329.645319
 30
0.0
 10
191.942098
 20
1326.837938
 30
0.0
 10
194.573226
 20
1325.318856
 30
0.0
  0
SPLINE
  5
229
100
AcDbEntity
  8
0
 62
7
100
AcDbSpline
 70
8
 71
3
 72
8
 73
4
 74
0
 40
0
 40
0
 40
0
 40
0
 40
1
 40
1
 40
1
 40
1
 10
194.573226
 20
1325.318856
 30
0.0
 10
197.204354
 20
1323.799773
 30
0.0
 10
200.446038
 20
1323.799773
 30
0.0
 10
203.077166
 20
1325.318856
 30
0.0
  0
SPLINE
  5
22a
100
AcDbEntity
  8
0
 62
7
100
AcDbSpline
 70
8
 71
3
 72
8
 73
4
 74
0
 40
0
 40
0
 40
0
 40
0
 40
1
 40
1
 40
1
 40
1
 10
203.077166
 20
1325.318856
 30
0.0
 10
205.708294
 20
1326.837938
 30
0.0
 10
207.329136
 20
1329.645319
 30
0.0
 10
207.329136
 20
1332.683484
 30
0.0
  0
LWPOLYLINE
  5
22b
100
AcDbEntity
  8
0
 62
7
100
AcDbPolyline
 90
2
 70
0
 10
170.478736
 20
1729.533844
 30
0.0
 10
1332.683440
 20
1729.533844
 30
0.0
  0
LWPOLYLINE
  5
22c
100
AcDbEntity
  8
0
 62
7
100
AcDbPolyline
 90
2
 70
0
 10
207.329136
 20
1332.683484
 30
0.0
 10
207.329136
 20
1332.683484
 30
0.0
  0
LWPOLYLINE
  5
22d
100
AcDbEntity
  8
0
 62
7
100
AcDbPolyline
 90
2
 70
0
 10
170.478736
 20
1304.337020
 30
0.0
 10
170.478736
 20
1361.029940
 30
0.0
  0
LWPOLYLINE
  5
22e
100
AcDbEntity
  8
0
 62
7
100
AcDbPolyline
 90
2
 70
0
 10
85.439368
 20
1361.029940
 30
0.0
 10
170.478736
 20
1361.029940
 30
0.0
  0
LWPOLYLINE
  5
22f
100
AcDbEntity
  8
0
 62
7
100
AcDbPolyline
 90
2
 70
0
 10
85.439368
 20
1361.029940
 30
0.0
 10
85.439368
 20
1389.376396
 30
0.0
  0
LWPOLYLINE
  5
230
100
AcDbEntity
  8
0
 62
7
100
AcDbPolyline
 90
2
 70
0
 10
57.092914
 20
1389.376396
 30
0.0
 10
85.439368
 20
1389.376396
 30
0.0
  0
LWPOLYLINE
  5
231
100
AcDbEntity
  8
0
 62
7
100
AcDbPolyline
 90
2
 70
0
 10
0.400000
 20
1672.840964
 30
0.0
 10
170.478736
 20
1672.840964
 30
0.0
  0
LWPOLYLINE
  5
232
100
AcDbEntity
  8
0
 62
7
100
AcDbPolyline
 90
2
 70
0
 10
0.400000
 20
1361.029940
 30
0.0
 10
0.400000
 20
1672.840964
 30
0.0
  0
LWPOLYLINE
  5
233
100
AcDbEntity
  8
0
 62
7
100
AcDbPolyline
 90
3
 70
0
 10
0.400000
 20
1361.029940
 30
0.0
 10
57.092914
 20
1361.029940
 30
0.0
 10
57.092914
 20
1389.376396
 30
0.0
  0
LWPOLYLINE
  5
234
100
AcDbEntity
  8
0
 62
7
100
AcDbPolyline
 90
2
 70
0
 10
0.400000
 20
1304.337020
 30
0.0
 10
170.478736
 20
1304.337020
 30
0.0
  0
LWPOLYLINE
  5
235
100
AcDbEntity
  8
0
 62
7
100
AcDbPolyline
 90
2
 70
0
 10
0.400000
 20
862.132297
 30
0.0
 10
113.785824
 20
862.132297
 30
0.0
  0
SPLINE
  5
236
100
AcDbEntity
  8
0
 62
7
100
AcDbSpline
 70
8
 71
3
 72
8
 73
4
 74
0
 40
0
 40
0
 40
0
 40
0
 40
1
 40
1
 40
1
 40
1
 10
462.447240
 20
1701.187364
 30
0.0
 10
462.448558
 20
1704.226406
 30
0.0
 10
460.828006
 20
1707.035161
 30
0.0
 10
458.196337
 20
1708.555063
 30
0.0
  0
SPLINE
  5
237
100
AcDbEntity
  8
0
 62
7
100
AcDbSpline
 70
8
 71
3
 72
8
 73
4
 74
0
 40
0
 40
0
 40
0
 40
0
 40
1
 40
1
 40
1
 40
1
 10
458.196337
 20
1708.555063
 30
0.0
 10
455.564669
 20
1710.074965
 30
0.0
 10
452.321939
 20
1710.074965
 30
0.0
 10
449.690271
 20
1708.555063
 30
0.0
  0
SPLINE
  5
238
100
AcDbEntity
  8
0
 62
7
100
AcDbSpline
 70
8
 71
3
 72
8
 73
4
 74
0
 40
0
 40
0
 40
0
 40
0
 40
1
 40
1
 40
1
 40
1
 10
449.690271
 20
1708.555063
 30
0.0
 10
447.058602
 20
1707.035161
 30
0.0
 10
445.438050
 20
1704.226406
 30
0.0
 10
445.439368
 20
1701.187364
 30
0.0
  0
SPLINE
  5
239
100
AcDbEntity
  8
0
 62
7
100
AcDbSpline
 70
8
 71
3
 72
8
 73
4
 74
0
 40
0
 40
0
 40
0
 40
0
 40
1
 40
1
 40
1
 40
1
 10
445.439368
 20
1701.187364
 30
0.0
 10
445.438050
 20
1698.148321
 30
0.0
 10
447.058602
 20
1695.339566
 30
0.0
 10
449.690271
 20
1693.819665
 30
0.0
  0
SPLINE
  5
23a
100
AcDbEntity
  8
0
 62
7
100
AcDbSpline
 70
8
 71
3
 72
8
 73
4
 74
0
 40
0
 40
0
 40
0
 40
0
 40
1
 40
1
 40
1
 40
1
 10
449.690271
 20
1693.819665
 30
0.0
 10
452.321939
 20
1692.299763
 30
0.0
 10
455.564669
 20
1692.299763
 30
0.0
 10
458.196337
 20
1693.819665
 30
0.0
  0
SPLINE
  5
23b
100
AcDbEntity
  8
0
 62
7
100
AcDbSpline
 70
8
 71
3
 72
8
 73
4
 74
0
 40
0
 40
0
 40
0
 40
0
 40
1
 40
1
 40
1
 40
1
 10
458.196337
 20
1693.819665
 30
0.0
 10
460.828006
 20
1695.339566
 30
0.0
 10
462.448558
 20
1698.148321
 30
0.0
 10
462.447240
 20
1701.187364
 30
0.0
  0
LWPOLYLINE
  5
23c
100
AcDbEntity
  8
0
 62
7
100
AcDbPolyline
 90
2
 70
0
 10
0.400000
 20
862.132297
 30
0.0
 10
0.400000
 20
1304.337020
 30
0.0
  0
SPLINE
  5
23d
100
AcDbEntity
  8
0
 62
7
100
AcDbSpline
 70
8
 71
3
 72
8
 73
4
 74
0
 40
0
 40
0
 40
0
 40
0
 40
1
 40
1
 40
1
 40
1
 10
1199.455120
 20
1701.187364
 30
0.0
 10
1199.461310
 20
1704.229643
 30
0.0
 10
1197.841827
 20
1707.043477
 30
0.0
 10
1195.208162
 20
1708.566406
 30
0.0
  0
SPLINE
  5
23e
100
AcDbEntity
  8
0
 62
7
100
AcDbSpline
 70
8
 71
3
 72
8
 73
4
 74
0
 40
0
 40
0
 40
0
 40
0
 40
1
 40
1
 40
1
 40
1
 10
1195.208162
 20
1708.566406
 30
0.0
 10
1192.574498
 20
1710.089335
 30
0.0
 10
1189.327902
 20
1710.089335
 30
0.0
 10
1186.694238
 20
1708.566406
 30
0.0
  0
SPLINE
  5
23f
100
AcDbEntity
  8
0
 62
7
100
AcDbSpline
 70
8
 71
3
 72
8
 73
4
 74
0
 40
0
 40
0
 40
0
 40
0
 40
1
 40
1
 40
1
 40
1
 10
1186.694238
 20
1708.566406
 30
0.0
 10
1184.060573
 20
1707.043477
 30
0.0
 10
1182.441090
 20
1704.229643
 30
0.0
 10
1182.447280
 20
1701.187364
 30
0.0
  0
SPLINE
  5
240
100
AcDbEntity
  8
0
 62
7
100
AcDbSpline
 70
8
 71
3
 72
8
 73
4
 74
0
 40
0
 40
0
 40
0
 40
0
 40
1
 40
1
 40
1
 40
1
 10
1182.447280
 20
1701.187364
 30
0.0
 10
1182.456822
 20
1696.497534
 30
0.0
 10
1186.261360
 20
1692.700728
 30
0.0
 10
1190.951200
 20
1692.700728
 30
0.0
  0
SPLINE
  5
241
100
AcDbEntity
  8
0
 62
7
100
AcDbSpline
 70
8
 71
3
 72
8
 73
4
 74
0
 40
0
 40
0
 40
0
 40
0
 40
1
 40
1
 40
1
 40
1
 10
1190.951200
 20
1692.700728
 30
0.0
 10
1195.641040
 20
1692.700728
 30
0.0
 10
1199.445578
 20
1696.497534
 30
0.0
 10
1199.455120
 20
1701.187364
 30
0.0
  0
LWPOLYLINE
  5
242
100
AcDbEntity
  8
0
 62
7
100
AcDbPolyline
 90
2
 70
0
 10
462.447240
 20
1701.187364
 30
0.0
 10
462.447240
 20
1701.187364
 30
0.0
  0
LWPOLYLINE
  5
243
100
AcDbEntity
  8
0
 62
7
100
AcDbPolyline
 90
2
 70
0
 10
1199.455120
 20
1701.187364
 30
0.0
 10
1199.455120
 20
1701.187364
 30
0.0
  0
LWPOLYLINE
  5
244
100
AcDbEntity
  8
0
 62
7
100
AcDbPolyline
 90
3
 70
0
 10
2781.187440
 20
853.628360
 30
0.0
 10
3198.475600
 20
853.628360
 30
0.0
 10
3198.475600
 20
907.908990
 30
0.0
  0
LWPOLYLINE
  5
245
100
AcDbEntity
  8
0
 62
7
100
AcDbPolyline
 90
2
 70
0
 10
2778.939520
 20
936.255452
 30
0.0
 10
2778.939520
 20
853.628360
 30
0.0
  0
LWPOLYLINE
  5
246
100
AcDbEntity
  8
0
 62
7
100
AcDbPolyline
 90
3
 70
0
 10
3266.497360
 20
936.254412
 30
0.0
 10
3277.835920
 20
936.254412
 30
0.0
 10
3277.835920
 20
992.947324
 30
0.0
  0
LWPOLYLINE
  5
247
100
AcDbEntity
  8
0
 62
7
100
AcDbPolyline
 90
2
 70
0
 10
3266.497360
 20
992.947324
 30
0.0
 10
3277.835920
 20
992.947324
 30
0.0
  0
LWPOLYLINE
  5
248
100
AcDbEntity
  8
0
 62
7
100
AcDbPolyline
 90
4
 70
0
 10
3266.497360
 20
992.947324
 30
0.0
 10
3266.497360
 20
1077.986692
 30
0.0
 10
3277.835920
 20
1077.986692
 30
0.0
 10
3277.835920
 20
1134.679604
 30
0.0
  0
LWPOLYLINE
  5
249
100
AcDbEntity
  8
0
 62
7
100
AcDbPolyline
 90
2
 70
0
 10
3266.497360
 20
1134.679604
 30
0.0
 10
3277.835920
 20
1134.679604
 30
0.0
  0
LWPOLYLINE
  5
24a
100
AcDbEntity
  8
0
 62
7
100
AcDbPolyline
 90
2
 70
0
 10
3266.497360
 20
1276.411892
 30
0.0
 10
3277.835920
 20
1276.411892
 30
0.0
  0
LWPOLYLINE
  5
24b
100
AcDbEntity
  8
0
 62
7
100
AcDbPolyline
 90
4
 70
0
 10
3266.497360
 20
1134.679604
 30
0.0
 10
3266.497360
 20
1219.718980
 30
0.0
 10
3277.835920
 20
1219.718980
 30
0.0
 10
3277.835920
 20
1276.411892
 30
0.0
  0
LWPOLYLINE
  5
24c
100
AcDbEntity
  8
0
 62
7
100
AcDbPolyline
 90
3
 70
0
 10
3266.497360
 20
1276.411892
 30
0.0
 10
3266.497360
 20
1361.451260
 30
0.0
 10
3277.835920
 20
1361.451260
 30
0.0
  0
LWPOLYLINE
  5
24d
100
AcDbEntity
  8
0
 62
7
100
AcDbPolyline
 90
3
 70
0
 10
3198.475600
 20
907.908990
 30
0.0
 10
3266.507120
 20
907.908990
 30
0.0
 10
3266.507120
 20
936.255452
 30
0.0
  0
LWPOLYLINE
  5
24e
100
AcDbEntity
  8
0
 62
7
100
AcDbPolyline
 90
2
 70
0
 10
2767.600960
 20
1361.452300
 30
0.0
 10
2767.600960
 20
1394.050724
 30
0.0
  0
LWPOLYLINE
  5
24f
100
AcDbEntity
  8
0
 62
7
100
AcDbPolyline
 90
2
 70
0
 10
3277.845680
 20
1361.452300
 30
0.0
 10
3277.845680
 20
1394.050724
 30
0.0
  0
LWPOLYLINE
  5
250
100
AcDbEntity
  8
0
 62
7
100
AcDbPolyline
 90
2
 70
0
 10
2767.600960
 20
1394.050724
 30
0.0
 10
3277.845680
 20
1394.050724
 30
0.0
  0
LWPOLYLINE
  5
251
100
AcDbEntity
  8
0
 62
7
100
AcDbPolyline
 90
2
 70
0
 10
2744.751520
 20
138.504612
 30
0.0
 10
2755.650880
 20
135.379276
 30
0.0
  0
LWPOLYLINE
  5
252
100
AcDbEntity
  8
0
 62
7
100
AcDbPolyline
 90
2
 70
0
 10
2744.751520
 20
138.504612
 30
0.0
 10
2760.378160
 20
193.001340
 30
0.0
  0
LWPOLYLINE
  5
253
100
AcDbEntity
  8
0
 62
7
100
AcDbPolyline
 90
2
 70
0
 10
2755.650880
 20
135.379276
 30
0.0
 10
2771.277520
 20
189.876004
 30
0.0
  0
LWPOLYLINE
  5
254
100
AcDbEntity
  8
0
 62
7
100
AcDbPolyline
 90
2
 70
0
 10
2760.378160
 20
193.001340
 30
0.0
 10
2771.277520
 20
189.876004
 30
0.0
  0
LWPOLYLINE
  5
255
100
AcDbEntity
  8
0
 62
7
100
AcDbPolyline
 90
2
 70
0
 10
2783.818240
 20
274.746428
 30
0.0
 10
2794.717520
 20
271.621092
 30
0.0
  0
LWPOLYLINE
  5
256
100
AcDbEntity
  8
0
 62
7
100
AcDbPolyline
 90
2
 70
0
 10
2783.818240
 20
274.746428
 30
0.0
 10
2799.444880
 20
329.243156
 30
0.0
  0
LWPOLYLINE
  5
257
100
AcDbEntity
  8
0
 62
7
100
AcDbPolyline
 90
2
 70
0
 10
2794.717520
 20
271.621092
 30
0.0
 10
2810.344240
 20
326.117812
 30
0.0
  0
LWPOLYLINE
  5
258
100
AcDbEntity
  8
0
 62
7
100
AcDbPolyline
 90
2
 70
0
 10
2799.444880
 20
329.243156
 30
0.0
 10
2810.344240
 20
326.117812
 30
0.0
  0
LWPOLYLINE
  5
259
100
AcDbEntity
  8
0
 62
7
100
AcDbPolyline
 90
2
 70
0
 10
2822.884960
 20
410.988244
 30
0.0
 10
2833.784240
 20
407.862908
 30
0.0
  0
LWPOLYLINE
  5
25a
100
AcDbEntity
  8
0
 62
7
100
AcDbPolyline
 90
2
 70
0
 10
2822.884960
 20
410.988244
 30
0.0
 10
2838.511600
 20
465.484972
 30
0.0
  0
LWPOLYLINE
  5
25b
100
AcDbEntity
  8
0
 62
7
100
AcDbPolyline
 90
2
 70
0
 10
2833.784240
 20
407.862908
 30
0.0
 10
2849.410960
 20
462.359628
 30
0.0
  0
LWPOLYLINE
  5
25c
100
AcDbEntity
  8
0
 62
7
100
AcDbPolyline
 90
2
 70
0
 10
2838.511600
 20
465.484972
 30
0.0
 10
2849.410960
 20
462.359628
 30
0.0
  0
LWPOLYLINE
  5
25d
100
AcDbEntity
  8
0
 62
7
100
AcDbPolyline
 90
2
 70
0
 10
2861.951600
 20
547.230060
 30
0.0
 10
2872.850960
 20
544.104716
 30
0.0
  0
LWPOLYLINE
  5
25e
100
AcDbEntity
  8
0
 62
7
100
AcDbPolyline
 90
2
 70
0
 10
2871.329120
 20
578.667732
 30
0.0
 10
2882.667680
 20
575.833084
 30
0.0
  0
LWPOLYLINE
  5
25f
100
AcDbEntity
  8
0
 62
7
100
AcDbPolyline
 90
2
 70
0
 10
2872.859840
 20
544.651988
 30
0.0
 10
2882.667680
 20
575.833084
 30
0.0
  0
SPLINE
  5
260
100
AcDbEntity
  8
0
 62
7
100
AcDbSpline
 70
8
 71
3
 72
8
 73
4
 74
0
 40
0
 40
0
 40
0
 40
0
 40
1
 40
1
 40
1
 40
1
 10
3212.053520
 20
399.484108
 30
0.0
 10
3212.059567
 20
402.526292
 30
0.0
 10
3210.440053
 20
405.339977
 30
0.0
 10
3207.806447
 20
406.862818
 30
0.0
  0
SPLINE
  5
261
100
AcDbEntity
  8
0
 62
7
100
AcDbSpline
 70
8
 71
3
 72
8
 73
4
 74
0
 40
0
 40
0
 40
0
 40
0
 40
1
 40
1
 40
1
 40
1
 10
3207.806447
 20
406.862818
 30
0.0
 10
3205.172841
 20
408.385658
 30
0.0
 10
3201.926359
 20
408.385658
 30
0.0
 10
3199.292753
 20
406.862818
 30
0.0
  0
SPLINE
  5
262
100
AcDbEntity
  8
0
 62
7
100
AcDbSpline
 70
8
 71
3
 72
8
 73
4
 74
0
 40
0
 40
0
 40
0
 40
0
 40
1
 40
1
 40
1
 40
1
 10
3199.292753
 20
406.862818
 30
0.0
 10
3196.659147
 20
405.339977
 30
0.0
 10
3195.039633
 20
402.526292
 30
0.0
 10
3195.045680
 20
399.484108
 30
0.0
  0
SPLINE
  5
263
100
AcDbEntity
  8
0
 62
7
100
AcDbSpline
 70
8
 71
3
 72
8
 73
4
 74
0
 40
0
 40
0
 40
0
 40
0
 40
1
 40
1
 40
1
 40
1
 10
3195.045680
 20
399.484108
 30
0.0
 10
3195.039633
 20
396.441923
 30
0.0
 10
3196.659147
 20
393.628238
 30
0.0
 10
3199.292753
 20
392.105398
 30
0.0
  0
SPLINE
  5
264
100
AcDbEntity
  8
0
 62
7
100
AcDbSpline
 70
8
 71
3
 72
8
 73
4
 74
0
 40
0
 40
0
 40
0
 40
0
 40
1
 40
1
 40
1
 40
1
 10
3199.292753
 20
392.105398
 30
0.0
 10
3201.926359
 20
390.582557
 30
0.0
 10
3205.172841
 20
390.582557
 30
0.0
 10
3207.806447
 20
392.105398
 30
0.0
  0
SPLINE
  5
265
100
AcDbEntity
  8
0
 62
7
100
AcDbSpline
 70
8
 71
3
 72
8
 73
4
 74
0
 40
0
 40
0
 40
0
 40
0
 40
1
 40
1
 40
1
 40
1
 10
3207.806447
 20
392.105398
 30
0.0
 10
3210.440053
 20
393.628238
 30
0.0
 10
3212.059567
 20
396.441923
 30
0.0
 10
3212.053520
 20
399.484108
 30
0.0
  0
LWPOLYLINE
  5
266
100
AcDbEntity
  8
0
 62
7
100
AcDbPolyline
 90
2
 70
0
 10
2861.946480
 20
547.228676
 30
0.0
 10
2871.329120
 20
578.667732
 30
0.0
  0
SPLINE
  5
267
100
AcDbEntity
  8
0
 62
7
100
AcDbSpline
 70
8
 71
3
 72
8
 73
4
 74
0
 40
0
 40
0
 40
0
 40
0
 40
1
 40
1
 40
1
 40
1
 10
3041.974800
 20
624.022060
 30
0.0
 10
3041.980847
 20
627.064244
 30
0.0
 10
3040.361333
 20
629.877929
 30
0.0
 10
3037.727727
 20
631.400770
 30
0.0
  0
SPLINE
  5
268
100
AcDbEntity
  8
0
 62
7
100
AcDbSpline
 70
8
 71
3
 72
8
 73
4
 74
0
 40
0
 40
0
 40
0
 40
0
 40
1
 40
1
 40
1
 40
1
 10
3037.727727
 20
631.400770
 30
0.0
 10
3035.094121
 20
632.923610
 30
0.0
 10
3031.847639
 20
632.923610
 30
0.0
 10
3029.214033
 20
631.400770
 30
0.0
  0
SPLINE
  5
269
100
AcDbEntity
  8
0
 62
7
100
AcDbSpline
 70
8
 71
3
 72
8
 73
4
 74
0
 40
0
 40
0
 40
0
 40
0
 40
1
 40
1
 40
1
 40
1
 10
3029.214033
 20
631.400770
 30
0.0
 10
3026.580427
 20
629.877929
 30
0.0
 10
3024.960913
 20
627.064244
 30
0.0
 10
3024.966960
 20
624.022060
 30
0.0
  0
SPLINE
  5
26a
100
AcDbEntity
  8
0
 62
7
100
AcDbSpline
 70
8
 71
3
 72
8
 73
4
 74
0
 40
0
 40
0
 40
0
 40
0
 40
1
 40
1
 40
1
 40
1
 10
3024.966960
 20
624.022060
 30
0.0
 10
3024.976282
 20
619.332074
 30
0.0
 10
3028.780885
 20
615.535027
 30
0.0
 10
3033.470880
 20
615.535027
 30
0.0
  0
SPLINE
  5
26b
100
AcDbEntity
  8
0
 62
7
100
AcDbSpline
 70
8
 71
3
 72
8
 73
4
 74
0
 40
0
 40
0
 40
0
 40
0
 40
1
 40
1
 40
1
 40
1
 10
3033.470880
 20
615.535027
 30
0.0
 10
3038.160875
 20
615.535027
 30
0.0
 10
3041.965478
 20
619.332074
 30
0.0
 10
3041.974800
 20
624.022060
 30
0.0
  0
LWPOLYLINE
  5
26c
100
AcDbEntity
  8
0
 62
7
100
AcDbPolyline
 90
2
 70
0
 10
3212.053520
 20
399.484108
 30
0.0
 10
3212.053520
 20
399.484108
 30
0.0
  0
SPLINE
  5
26d
100
AcDbEntity
  8
0
 62
7
100
AcDbSpline
 70
8
 71
3
 72
8
 73
4
 74
0
 40
0
 40
0
 40
0
 40
0
 40
1
 40
1
 40
1
 40
1
 10
3041.974800
 20
85.439388
 30
0.0
 10
3041.980847
 20
88.481572
 30
0.0
 10
3040.361333
 20
91.295257
 30
0.0
 10
3037.727727
 20
92.818098
 30
0.0
  0
SPLINE
  5
26e
100
AcDbEntity
  8
0
 62
7
100
AcDbSpline
 70
8
 71
3
 72
8
 73
4
 74
0
 40
0
 40
0
 40
0
 40
0
 40
1
 40
1
 40
1
 40
1
 10
3037.727727
 20
92.818098
 30
0.0
 10
3035.094121
 20
94.340938
 30
0.0
 10
3031.847639
 20
94.340938
 30
0.0
 10
3029.214033
 20
92.818098
 30
0.0
  0
SPLINE
  5
26f
100
AcDbEntity
  8
0
 62
7
100
AcDbSpline
 70
8
 71
3
 72
8
 73
4
 74
0
 40
0
 40
0
 40
0
 40
0
 40
1
 40
1
 40
1
 40
1
 10
3029.214033
 20
92.818098
 30
0.0
 10
3026.580427
 20
91.295257
 30
0.0
 10
3024.960913
 20
88.481572
 30
0.0
 10
3024.966960
 20
85.439388
 30
0.0
  0
SPLINE
  5
270
100
AcDbEntity
  8
0
 62
7
100
AcDbSpline
 70
8
 71
3
 72
8
 73
4
 74
0
 40
0
 40
0
 40
0
 40
0
 40
1
 40
1
 40
1
 40
1
 10
3024.966960
 20
85.439388
 30
0.0
 10
3024.976282
 20
80.749402
 30
0.0
 10
3028.780885
 20
76.952355
 30
0.0
 10
3033.470880
 20
76.952355
 30
0.0
  0
SPLINE
  5
271
100
AcDbEntity
  8
0
 62
7
100
AcDbSpline
 70
8
 71
3
 72
8
 73
4
 74
0
 40
0
 40
0
 40
0
 40
0
 40
1
 40
1
 40
1
 40
1
 10
3033.470880
 20
76.952355
 30
0.0
 10
3038.160875
 20
76.952355
 30
0.0
 10
3041.965478
 20
80.749402
 30
0.0
 10
3041.974800
 20
85.439388
 30
0.0
  0
LWPOLYLINE
  5
272
100
AcDbEntity
  8
0
 62
7
100
AcDbPolyline
 90
2
 70
0
 10
3041.974800
 20
624.022060
 30
0.0
 10
3041.974800
 20
624.022060
 30
0.0
  0
LWPOLYLINE
  5
273
100
AcDbEntity
  8
0
 62
7
100
AcDbPolyline
 90
2
 70
0
 10
3041.974800
 20
85.439388
 30
0.0
 10
3041.974800
 20
85.439388
 30
0.0
  0
LWPOLYLINE
  5
274
100
AcDbEntity
  8
0
 62
7
100
AcDbPolyline
 90
2
 70
0
 10
2701.817360
 20
57.092932
 30
0.0
 10
3175.203120
 20
57.092932
 30
0.0
  0
LWPOLYLINE
  5
275
100
AcDbEntity
  8
0
 62
7
100
AcDbPolyline
 90
2
 70
0
 10
2871.896080
 20
652.368524
 30
0.0
 10
3231.896080
 20
652.368524
 30
0.0
  0
LWPOLYLINE
  5
276
100
AcDbEntity
  8
0
 62
7
100
AcDbPolyline
 90
2
 70
0
 10
2701.817360
 20
57.092932
 30
0.0
 10
2871.896080
 20
652.368524
 30
0.0
  0
LWPOLYLINE
  5
277
100
AcDbEntity
  8
0
 62
7
100
AcDbPolyline
 90
2
 70
0
 10
2262.447280
 20
1349.691356
 30
0.0
 10
2324.809440
 20
1349.691356
 30
0.0
  0
SPLINE
  5
278
100
AcDbEntity
  8
0
 62
7
100
AcDbSpline
 70
8
 71
3
 72
8
 73
4
 74
0
 40
0
 40
0
 40
0
 40
0
 40
1
 40
1
 40
1
 40
1
 10
2248.274000
 20
1332.683484
 30
0.0
 10
2248.280190
 20
1335.725763
 30
0.0
 10
2246.660707
 20
1338.539597
 30
0.0
 10
2244.027042
 20
1340.062526
 30
0.0
  0
SPLINE
  5
279
100
AcDbEntity
  8
0
 62
7
100
AcDbSpline
 70
8
 71
3
 72
8
 73
4
 74
0
 40
0
 40
0
 40
0
 40
0
 40
1
 40
1
 40
1
 40
1
 10
2244.027042
 20
1340.062526
 30
0.0
 10
2241.393378
 20
1341.585455
 30
0.0
 10
2238.146782
 20
1341.585455
 30
0.0
 10
2235.513118
 20
1340.062526
 30
0.0
  0
SPLINE
  5
27a
100
AcDbEntity
  8
0
 62
7
100
AcDbSpline
 70
8
 71
3
 72
8
 73
4
 74
0
 40
0
 40
0
 40
0
 40
0
 40
1
 40
1
 40
1
 40
1
 10
2235.513118
 20
1340.062526
 30
0.0
 10
2232.879453
 20
1338.539597
 30
0.0
 10
2231.259970
 20
1335.725763
 30
0.0
 10
2231.266160
 20
1332.683484
 30
0.0
  0
SPLINE
  5
27b
100
AcDbEntity
  8
0
 62
7
100
AcDbSpline
 70
8
 71
3
 72
8
 73
4
 74
0
 40
0
 40
0
 40
0
 40
0
 40
1
 40
1
 40
1
 40
1
 10
2231.266160
 20
1332.683484
 30
0.0
 10
2231.275702
 20
1327.993654
 30
0.0
 10
2235.080240
 20
1324.196848
 30
0.0
 10
2239.770080
 20
1324.196848
 30
0.0
  0
SPLINE
  5
27c
100
AcDbEntity
  8
0
 62
7
100
AcDbSpline
 70
8
 71
3
 72
8
 73
4
 74
0
 40
0
 40
0
 40
0
 40
0
 40
1
 40
1
 40
1
 40
1
 10
2239.770080
 20
1324.196848
 30
0.0
 10
2244.459920
 20
1324.196848
 30
0.0
 10
2248.264458
 20
1327.993654
 30
0.0
 10
2248.274000
 20
1332.683484
 30
0.0
  0
LWPOLYLINE
  5
27d
100
AcDbEntity
  8
0
 62
7
100
AcDbPolyline
 90
2
 70
0
 10
2324.809440
 20
862.132297
 30
0.0
 10
2324.809440
 20
1349.691356
 30
0.0
  0
LWPOLYLINE
  5
27e
100
AcDbEntity
  8
0
 62
7
100
AcDbPolyline
 90
2
 70
0
 10
2248.274000
 20
1332.683484
 30
0.0
 10
2248.274000
 20
1332.683484
 30
0.0
  0
LWPOLYLINE
  5
27f
100
AcDbEntity
  8
0
 62
7
100
AcDbPolyline
 90
4
 70
0
 10
2262.447280
 20
1349.691356
 30
0.0
 10
2262.447280
 20
1361.029940
 30
0.0
 10
2353.155920
 20
1361.029940
 30
0.0
 10
2353.155920
 20
1559.455132
 30
0.0
  0
LWPOLYLINE
  5
280
100
AcDbEntity
  8
0
 62
7
100
AcDbPolyline
 90
2
 70
0
 10
1549.790080
 20
1531.194148
 30
0.0
 10
1549.790080
 20
1519.855564
 30
0.0
  0
LWPOLYLINE
  5
281
100
AcDbEntity
  8
0
 62
7
100
AcDbPolyline
 90
2
 70
0
 10
1549.790080
 20
1531.194148
 30
0.0
 10
1606.483040
 20
1531.194148
 30
0.0
  0
LWPOLYLINE
  5
282
100
AcDbEntity
  8
0
 62
7
100
AcDbPolyline
 90
2
 70
0
 10
1549.790080
 20
1519.855564
 30
0.0
 10
1606.483040
 20
1519.855564
 30
0.0
  0
LWPOLYLINE
  5
283
100
AcDbEntity
  8
0
 62
7
100
AcDbPolyline
 90
2
 70
0
 10
1606.483040
 20
1531.194148
 30
0.0
 10
1606.483040
 20
1519.855564
 30
0.0
  0
LWPOLYLINE
  5
284
100
AcDbEntity
  8
0
 62
7
100
AcDbPolyline
 90
2
 70
0
 10
1691.522400
 20
1531.194148
 30
0.0
 10
1691.522400
 20
1519.855564
 30
0.0
  0
LWPOLYLINE
  5
285
100
AcDbEntity
  8
0
 62
7
100
AcDbPolyline
 90
2
 70
0
 10
1691.522400
 20
1531.194148
 30
0.0
 10
1748.215280
 20
1531.194148
 30
0.0
  0
LWPOLYLINE
  5
286
100
AcDbEntity
  8
0
 62
7
100
AcDbPolyline
 90
2
 70
0
 10
1691.522400
 20
1519.855564
 30
0.0
 10
1748.215280
 20
1519.855564
 30
0.0
  0
LWPOLYLINE
  5
287
100
AcDbEntity
  8
0
 62
7
100
AcDbPolyline
 90
2
 70
0
 10
1748.215280
 20
1531.194148
 30
0.0
 10
1748.215280
 20
1519.855564
 30
0.0
  0
LWPOLYLINE
  5
288
100
AcDbEntity
  8
0
 62
7
100
AcDbPolyline
 90
2
 70
0
 10
1833.254640
 20
1531.194148
 30
0.0
 10
1833.254640
 20
1519.855564
 30
0.0
  0
LWPOLYLINE
  5
289
100
AcDbEntity
  8
0
 62
7
100
AcDbPolyline
 90
2
 70
0
 10
1833.254640
 20
1531.194148
 30
0.0
 10
1889.947600
 20
1531.194148
 30
0.0
  0
LWPOLYLINE
  5
28a
100
AcDbEntity
  8
0
 62
7
100
AcDbPolyline
 90
2
 70
0
 10
1833.254640
 20
1519.855564
 30
0.0
 10
1889.947600
 20
1519.855564
 30
0.0
  0
LWPOLYLINE
  5
28b
100
AcDbEntity
  8
0
 62
7
100
AcDbPolyline
 90
2
 70
0
 10
1889.947600
 20
1531.194148
 30
0.0
 10
1889.947600
 20
1519.855564
 30
0.0
  0
LWPOLYLINE
  5
28c
100
AcDbEntity
  8
0
 62
7
100
AcDbPolyline
 90
2
 70
0
 10
1974.986960
 20
1531.194148
 30
0.0
 10
1974.986960
 20
1519.855564
 30
0.0
  0
LWPOLYLINE
  5
28d
100
AcDbEntity
  8
0
 62
7
100
AcDbPolyline
 90
2
 70
0
 10
1974.986960
 20
1531.194148
 30
0.0
 10
2031.679840
 20
1531.194148
 30
0.0
  0
LWPOLYLINE
  5
28e
100
AcDbEntity
  8
0
 62
7
100
AcDbPolyline
 90
2
 70
0
 10
1974.986960
 20
1519.855564
 30
0.0
 10
2031.679840
 20
1519.855564
 30
0.0
  0
LWPOLYLINE
  5
28f
100
AcDbEntity
  8
0
 62
7
100
AcDbPolyline
 90
2
 70
0
 10
2031.679840
 20
1531.194148
 30
0.0
 10
2031.679840
 20
1519.855564
 30
0.0
  0
LWPOLYLINE
  5
290
100
AcDbEntity
  8
0
 62
7
100
AcDbPolyline
 90
4
 70
0
 10
0.400000
 20
2452.368484
 30
0.0
 10
113.785824
 20
2452.368484
 30
0.0
 10
113.785824
 20
2463.707124
 30
0.0
 10
170.478736
 20
2463.707124
 30
0.0
  0
LWPOLYLINE
  5
291
100
AcDbEntity
  8
0
 62
7
100
AcDbPolyline
 90
2
 70
0
 10
170.478736
 20
2452.368484
 30
0.0
 10
255.518112
 20
2452.368484
 30
0.0
  0
LWPOLYLINE
  5
292
100
AcDbEntity
  8
0
 62
7
100
AcDbPolyline
 90
2
 70
0
 10
170.478736
 20
2452.368484
 30
0.0
 10
170.478736
 20
2463.707124
 30
0.0
  0
LWPOLYLINE
  5
293
100
AcDbEntity
  8
0
 62
7
100
AcDbPolyline
 90
2
 70
0
 10
255.518112
 20
2452.368484
 30
0.0
 10
255.518112
 20
2463.707124
 30
0.0
  0
LWPOLYLINE
  5
294
100
AcDbEntity
  8
0
 62
7
100
AcDbPolyline
 90
2
 70
0
 10
312.211024
 20
2452.368484
 30
0.0
 10
397.250392
 20
2452.368484
 30
0.0
  0
LWPOLYLINE
  5
295
100
AcDbEntity
  8
0
 62
7
100
AcDbPolyline
 90
2
 70
0
 10
312.211024
 20
2452.368484
 30
0.0
 10
312.211024
 20
2463.707124
 30
0.0
  0
LWPOLYLINE
  5
296
100
AcDbEntity
  8
0
 62
7
100
AcDbPolyline
 90
2
 70
0
 10
255.518112
 20
2463.707124
 30
0.0
 10
312.211024
 20
2463.707124
 30
0.0
  0
LWPOLYLINE
  5
297
100
AcDbEntity
  8
0
 62
7
100
AcDbPolyline
 90
3
 70
0
 10
397.250392
 20
2452.368484
 30
0.0
 10
397.250392
 20
2463.707124
 30
0.0
 10
453.943304
 20
2463.707124
 30
0.0
  0
LWPOLYLINE
  5
298
100
AcDbEntity
  8
0
 62
7
100
AcDbPolyline
 90
2
 70
0
 10
453.943304
 20
2452.368484
 30
0.0
 10
453.943304
 20
2463.707124
 30
0.0
  0
LWPOLYLINE
  5
299
100
AcDbEntity
  8
0
 62
7
100
AcDbPolyline
 90
4
 70
0
 10
453.943304
 20
2452.368484
 30
0.0
 10
538.982680
 20
2452.368484
 30
0.0
 10
538.982680
 20
2463.707124
 30
0.0
 10
595.675592
 20
2463.707124
 30
0.0
  0
LWPOLYLINE
  5
29a
100
AcDbEntity
  8
0
 62
7
100
AcDbPolyline
 90
2
 70
0
 10
595.675592
 20
2452.368484
 30
0.0
 10
595.675592
 20
2463.707124
 30
0.0
  0
LWPOLYLINE
  5
29b
100
AcDbEntity
  8
0
 62
7
100
AcDbPolyline
 90
4
 70
0
 10
595.675592
 20
2452.368484
 30
0.0
 10
680.714960
 20
2452.368484
 30
0.0
 10
680.714960
 20
2463.707124
 30
0.0
 10
737.407872
 20
2463.707124
 30
0.0
  0
LWPOLYLINE
  5
29c
100
AcDbEntity
  8
0
 62
7
100
AcDbPolyline
 90
2
 70
0
 10
737.407872
 20
2452.368484
 30
0.0
 10
737.407872
 20
2463.707124
 30
0.0
  0
SPLINE
  5
29d
100
AcDbEntity
  8
0
 62
7
100
AcDbSpline
 70
8
 71
3
 72
8
 73
4
 74
0
 40
0
 40
0
 40
0
 40
0
 40
1
 40
1
 40
1
 40
1
 10
2265.281920
 20
1644.494484
 30
0.0
 10
2265.281920
 20
1648.545375
 30
0.0
 10
2263.120795
 20
1652.288554
 30
0.0
 10
2259.612620
 20
1654.313999
 30
0.0
  0
SPLINE
  5
29e
100
AcDbEntity
  8
0
 62
7
100
AcDbSpline
 70
8
 71
3
 72
8
 73
4
 74
0
 40
0
 40
0
 40
0
 40
0
 40
1
 40
1
 40
1
 40
1
 10
2259.612620
 20
1654.313999
 30
0.0
 10
2256.104445
 20
1656.339445
 30
0.0
 10
2251.782195
 20
1656.339445
 30
0.0
 10
2248.274020
 20
1654.313999
 30
0.0
  0
SPLINE
  5
29f
100
AcDbEntity
  8
0
 62
7
100
AcDbSpline
 70
8
 71
3
 72
8
 73
4
 74
0
 40
0
 40
0
 40
0
 40
0
 40
1
 40
1
 40
1
 40
1
 10
2248.274020
 20
1654.313999
 30
0.0
 10
2244.765845
 20
1652.288554
 30
0.0
 10
2242.604720
 20
1648.545375
 30
0.0
 10
2242.604720
 20
1644.494484
 30
0.0
  0
SPLINE
  5
2a0
100
AcDbEntity
  8
0
 62
7
100
AcDbSpline
 70
8
 71
3
 72
8
 73
4
 74
0
 40
0
 40
0
 40
0
 40
0
 40
1
 40
1
 40
1
 40
1
 10
2242.604720
 20
1644.494484
 30
0.0
 10
2242.604720
 20
1640.443592
 30
0.0
 10
2244.765845
 20
1636.700414
 30
0.0
 10
2248.274020
 20
1634.674968
 30
0.0
  0
SPLINE
  5
2a1
100
AcDbEntity
  8
0
 62
7
100
AcDbSpline
 70
8
 71
3
 72
8
 73
4
 74
0
 40
0
 40
0
 40
0
 40
0
 40
1
 40
1
 40
1
 40
1
 10
2248.274020
 20
1634.674968
 30
0.0
 10
2251.782195
 20
1632.649522
 30
0.0
 10
2256.104445
 20
1632.649522
 30
0.0
 10
2259.612620
 20
1634.674968
 30
0.0
  0
SPLINE
  5
2a2
100
AcDbEntity
  8
0
 62
7
100
AcDbSpline
 70
8
 71
3
 72
8
 73
4
 74
0
 40
0
 40
0
 40
0
 40
0
 40
1
 40
1
 40
1
 40
1
 10
2259.612620
 20
1634.674968
 30
0.0
 10
2263.120795
 20
1636.700414
 30
0.0
 10
2265.281920
 20
1640.443592
 30
0.0
 10
2265.281920
 20
1644.494484
 30
0.0
  0
LWPOLYLINE
  5
2a3
100
AcDbEntity
  8
0
 62
7
100
AcDbPolyline
 90
2
 70
0
 10
737.407872
 20
2452.368484
 30
0.0
 10
850.793680
 20
2452.368484
 30
0.0
  0
LWPOLYLINE
  5
2a4
100
AcDbEntity
  8
0
 62
7
100
AcDbPolyline
 90
2
 70
0
 10
2265.281920
 20
1644.494484
 30
0.0
 10
2265.281920
 20
1644.494484
 30
0.0
  0
LWPOLYLINE
  5
2a5
100
AcDbEntity
  8
0
 62
7
100
AcDbPolyline
 90
2
 70
0
 10
0.400000
 20
1814.573284
 30
0.0
 10
850.793680
 20
1814.573284
 30
0.0
  0
LWPOLYLINE
  5
2a6
100
AcDbEntity
  8
0
 62
7
100
AcDbPolyline
 90
2
 70
0
 10
0.400000
 20
1814.658244
 30
0.0
 10
0.400000
 20
2451.561844
 30
0.0
  0
SPLINE
  5
2a7
100
AcDbEntity
  8
0
 62
7
100
AcDbSpline
 70
8
 71
3
 72
8
 73
4
 74
0
 40
0
 40
0
 40
0
 40
0
 40
1
 40
1
 40
1
 40
1
 10
660.872440
 20
1842.918884
 30
0.0
 10
660.873240
 20
1845.145844
 30
0.0
 10
659.957344
 20
1847.359444
 30
0.0
 10
658.383000
 20
1848.934484
 30
0.0
  0
SPLINE
  5
2a8
100
AcDbEntity
  8
0
 62
7
100
AcDbSpline
 70
8
 71
3
 72
8
 73
4
 74
0
 40
0
 40
0
 40
0
 40
0
 40
1
 40
1
 40
1
 40
1
 10
658.383000
 20
1848.934484
 30
0.0
 10
656.808656
 20
1850.509524
 30
0.0
 10
654.595448
 20
1851.426484
 30
0.0
 10
652.368504
 20
1851.426484
 30
0.0
  0
SPLINE
  5
2a9
100
AcDbEntity
  8
0
 62
7
100
AcDbSpline
 70
8
 71
3
 72
8
 73
4
 74
0
 40
0
 40
0
 40
0
 40
0
 40
1
 40
1
 40
1
 40
1
 10
652.368504
 20
1851.426484
 30
0.0
 10
650.141560
 20
1851.426484
 30
0.0
 10
647.928352
 20
1850.509524
 30
0.0
 10
646.354008
 20
1848.934484
 30
0.0
  0
SPLINE
  5
2aa
100
AcDbEntity
  8
0
 62
7
100
AcDbSpline
 70
8
 71
3
 72
8
 73
4
 74
0
 40
0
 40
0
 40
0
 40
0
 40
1
 40
1
 40
1
 40
1
 10
646.354008
 20
1848.934484
 30
0.0
 10
644.779664
 20
1847.359444
 30
0.0
 10
643.863600
 20
1845.145844
 30
0.0
 10
643.864568
 20
1842.918884
 30
0.0
  0
SPLINE
  5
2ab
100
AcDbEntity
  8
0
 62
7
100
AcDbSpline
 70
8
 71
3
 72
8
 73
4
 74
0
 40
0
 40
0
 40
0
 40
0
 40
1
 40
1
 40
1
 40
1
 10
643.864568
 20
1842.918884
 30
0.0
 10
643.865368
 20
1840.693204
 30
0.0
 10
644.782464
 20
1838.481524
 30
0.0
 10
646.356616
 20
1836.908084
 30
0.0
  0
SPLINE
  5
2ac
100
AcDbEntity
  8
0
 62
7
100
AcDbSpline
 70
8
 71
3
 72
8
 73
4
 74
0
 40
0
 40
0
 40
0
 40
0
 40
1
 40
1
 40
1
 40
1
 10
646.356616
 20
1836.908084
 30
0.0
 10
647.930776
 20
1835.334644
 30
0.0
 10
650.142792
 20
1834.418644
 30
0.0
 10
652.368504
 20
1834.418644
 30
0.0
  0
SPLINE
  5
2ad
100
AcDbEntity
  8
0
 62
7
100
AcDbSpline
 70
8
 71
3
 72
8
 73
4
 74
0
 40
0
 40
0
 40
0
 40
0
 40
1
 40
1
 40
1
 40
1
 10
652.368504
 20
1834.418644
 30
0.0
 10
654.594216
 20
1834.418644
 30
0.0
 10
656.806232
 20
1835.334644
 30
0.0
 10
658.380392
 20
1836.908084
 30
0.0
  0
SPLINE
  5
2ae
100
AcDbEntity
  8
0
 62
7
100
AcDbSpline
 70
8
 71
3
 72
8
 73
4
 74
0
 40
0
 40
0
 40
0
 40
0
 40
1
 40
1
 40
1
 40
1
 10
658.380392
 20
1836.908084
 30
0.0
 10
659.954544
 20
1838.481524
 30
0.0
 10
660.871472
 20
1840.693204
 30
0.0
 10
660.872440
 20
1842.918884
 30
0.0
  0
LWPOLYLINE
  5
2af
100
AcDbEntity
  8
0
 62
7
100
AcDbPolyline
 90
2
 70
0
 10
850.793680
 20
1814.659124
 30
0.0
 10
850.793680
 20
2451.572644
 30
0.0
  0
SPLINE
  5
2b0
100
AcDbEntity
  8
0
 62
7
100
AcDbSpline
 70
8
 71
3
 72
8
 73
4
 74
0
 40
0
 40
0
 40
0
 40
0
 40
1
 40
1
 40
1
 40
1
 10
150.636224
 20
1842.919684
 30
0.0
 10
150.636224
 20
1845.146004
 30
0.0
 10
149.719728
 20
1847.358644
 30
0.0
 10
148.145480
 20
1848.932884
 30
0.0
  0
SPLINE
  5
2b1
100
AcDbEntity
  8
0
 62
7
100
AcDbSpline
 70
8
 71
3
 72
8
 73
4
 74
0
 40
0
 40
0
 40
0
 40
0
 40
1
 40
1
 40
1
 40
1
 10
148.145480
 20
1848.932884
 30
0.0
 10
146.571224
 20
1850.507124
 30
0.0
 10
144.358608
 20
1851.423604
 30
0.0
 10
142.132280
 20
1851.423604
 30
0.0
  0
SPLINE
  5
2b2
100
AcDbEntity
  8
0
 62
7
100
AcDbSpline
 70
8
 71
3
 72
8
 73
4
 74
0
 40
0
 40
0
 40
0
 40
0
 40
1
 40
1
 40
1
 40
1
 10
142.132280
 20
1851.423604
 30
0.0
 10
139.905960
 20
1851.423604
 30
0.0
 10
137.693344
 20
1850.507124
 30
0.0
 10
136.119088
 20
1848.932884
 30
0.0
  0
SPLINE
  5
2b3
100
AcDbEntity
  8
0
 62
7
100
AcDbSpline
 70
8
 71
3
 72
8
 73
4
 74
0
 40
0
 40
0
 40
0
 40
0
 40
1
 40
1
 40
1
 40
1
 10
136.119088
 20
1848.932884
 30
0.0
 10
134.544840
 20
1847.358644
 30
0.0
 10
133.628344
 20
1845.146004
 30
0.0
 10
133.628344
 20
1842.919684
 30
0.0
  0
SPLINE
  5
2b4
100
AcDbEntity
  8
0
 62
7
100
AcDbSpline
 70
8
 71
3
 72
8
 73
4
 74
0
 40
0
 40
0
 40
0
 40
0
 40
1
 40
1
 40
1
 40
1
 10
133.628344
 20
1842.919684
 30
0.0
 10
133.628344
 20
1840.693364
 30
0.0
 10
134.544840
 20
1838.480724
 30
0.0
 10
136.119088
 20
1836.906484
 30
0.0
  0
SPLINE
  5
2b5
100
AcDbEntity
  8
0
 62
7
100
AcDbSpline
 70
8
 71
3
 72
8
 73
4
 74
0
 40
0
 40
0
 40
0
 40
0
 40
1
 40
1
 40
1
 40
1
 10
136.119088
 20
1836.906484
 30
0.0
 10
137.693344
 20
1835.332244
 30
0.0
 10
139.905960
 20
1834.415764
 30
0.0
 10
142.132280
 20
1834.415764
 30
0.0
  0
SPLINE
  5
2b6
100
AcDbEntity
  8
0
 62
7
100
AcDbSpline
 70
8
 71
3
 72
8
 73
4
 74
0
 40
0
 40
0
 40
0
 40
0
 40
1
 40
1
 40
1
 40
1
 10
142.132280
 20
1834.415764
 30
0.0
 10
144.358608
 20
1834.415764
 30
0.0
 10
146.571224
 20
1835.332244
 30
0.0
 10
148.145480
 20
1836.906484
 30
0.0
  0
SPLINE
  5
2b7
100
AcDbEntity
  8
0
 62
7
100
AcDbSpline
 70
8
 71
3
 72
8
 73
4
 74
0
 40
0
 40
0
 40
0
 40
0
 40
1
 40
1
 40
1
 40
1
 10
148.145480
 20
1836.906484
 30
0.0
 10
149.719728
 20
1838.480724
 30
0.0
 10
150.636224
 20
1840.693364
 30
0.0
 10
150.636224
 20
1842.919684
 30
0.0
  0
LWPOLYLINE
  5
2b8
100
AcDbEntity
  8
0
 62
7
100
AcDbPolyline
 90
2
 70
0
 10
660.872440
 20
1842.918884
 30
0.0
 10
660.872440
 20
1842.918884
 30
0.0
  0
LWPOLYLINE
  5
2b9
100
AcDbEntity
  8
0
 62
7
100
AcDbPolyline
 90
2
 70
0
 10
150.636224
 20
1842.919684
 30
0.0
 10
150.636224
 20
1842.919684
 30
0.0
  0
LWPOLYLINE
  5
2ba
100
AcDbEntity
  8
0
 62
7
100
AcDbPolyline
 90
2
 70
0
 10
2494.888160
 20
0.400004
 30
0.0
 10
2494.888160
 20
57.092932
 30
0.0
  0
LWPOLYLINE
  5
2bb
100
AcDbEntity
  8
0
 62
7
100
AcDbPolyline
 90
2
 70
0
 10
1346.856720
 20
0.400004
 30
0.0
 10
2494.888160
 20
0.400004
 30
0.0
  0
SPLINE
  5
2bc
100
AcDbEntity
  8
0
 62
7
100
AcDbSpline
 70
8
 71
3
 72
8
 73
4
 74
0
 40
0
 40
0
 40
0
 40
0
 40
1
 40
1
 40
1
 40
1
 10
2446.699200
 20
28.746484
 30
0.0
 10
2446.705390
 20
31.788763
 30
0.0
 10
2445.085907
 20
34.602597
 30
0.0
 10
2442.452242
 20
36.125526
 30
0.0
  0
SPLINE
  5
2bd
100
AcDbEntity
  8
0
 62
7
100
AcDbSpline
 70
8
 71
3
 72
8
 73
4
 74
0
 40
0
 40
0
 40
0
 40
0
 40
1
 40
1
 40
1
 40
1
 10
2442.452242
 20
36.125526
 30
0.0
 10
2439.818578
 20
37.648455
 30
0.0
 10
2436.571982
 20
37.648455
 30
0.0
 10
2433.938318
 20
36.125526
 30
0.0
  0
SPLINE
  5
2be
100
AcDbEntity
  8
0
 62
7
100
AcDbSpline
 70
8
 71
3
 72
8
 73
4
 74
0
 40
0
 40
0
 40
0
 40
0
 40
1
 40
1
 40
1
 40
1
 10
2433.938318
 20
36.125526
 30
0.0
 10
2431.304653
 20
34.602597
 30
0.0
 10
2429.685170
 20
31.788763
 30
0.0
 10
2429.691360
 20
28.746484
 30
0.0
  0
SPLINE
  5
2bf
100
AcDbEntity
  8
0
 62
7
100
AcDbSpline
 70
8
 71
3
 72
8
 73
4
 74
0
 40
0
 40
0
 40
0
 40
0
 40
1
 40
1
 40
1
 40
1
 10
2429.691360
 20
28.746484
 30
0.0
 10
2429.700902
 20
24.056654
 30
0.0
 10
2433.505440
 20
20.259848
 30
0.0
 10
2438.195280
 20
20.259848
 30
0.0
  0
SPLINE
  5
2c0
100
AcDbEntity
  8
0
 62
7
100
AcDbSpline
 70
8
 71
3
 72
8
 73
4
 74
0
 40
0
 40
0
 40
0
 40
0
 40
1
 40
1
 40
1
 40
1
 10
2438.195280
 20
20.259848
 30
0.0
 10
2442.885120
 20
20.259848
 30
0.0
 10
2446.689658
 20
24.056654
 30
0.0
 10
2446.699200
 20
28.746484
 30
0.0
  0
LWPOLYLINE
  5
2c1
100
AcDbEntity
  8
0
 62
7
100
AcDbPolyline
 90
2
 70
0
 10
2664.966960
 20
57.092932
 30
0.0
 10
2494.888160
 20
57.092932
 30
0.0
  0
LWPOLYLINE
  5
2c2
100
AcDbEntity
  8
0
 62
7
100
AcDbPolyline
 90
2
 70
0
 10
2446.699200
 20
28.746484
 30
0.0
 10
2446.699200
 20
28.746484
 30
0.0
  0
LWPOLYLINE
  5
2c3
100
AcDbEntity
  8
0
 62
7
100
AcDbPolyline
 90
2
 70
0
 10
3175.203120
 20
227.171668
 30
0.0
 10
3231.896080
 20
227.171668
 30
0.0
  0
LWPOLYLINE
  5
2c4
100
AcDbEntity
  8
0
 62
7
100
AcDbPolyline
 90
2
 70
0
 10
3175.203120
 20
57.092932
 30
0.0
 10
3175.203120
 20
227.171668
 30
0.0
  0
LWPOLYLINE
  5
2c5
100
AcDbEntity
  8
0
 62
7
100
AcDbPolyline
 90
2
 70
0
 10
3231.896080
 20
227.171668
 30
0.0
 10
3231.896080
 20
652.368524
 30
0.0
  0
LWPOLYLINE
  5
2c6
100
AcDbEntity
  8
0
 62
7
100
AcDbPolyline
 90
2
 70
0
 10
2664.966960
 20
1361.029940
 30
0.0
 10
2664.966960
 20
1672.840964
 30
0.0
  0
LWPOLYLINE
  5
2c7
100
AcDbEntity
  8
0
 62
7
100
AcDbPolyline
 90
2
 70
0
 10
2608.274000
 20
1672.840964
 30
0.0
 10
2608.274000
 20
1729.533844
 30
0.0
  0
LWPOLYLINE
  5
2c8
100
AcDbEntity
  8
0
 62
7
100
AcDbPolyline
 90
2
 70
0
 10
2608.274000
 20
1672.840964
 30
0.0
 10
2664.966960
 20
1672.840964
 30
0.0
  0
SPLINE
  5
2c9
100
AcDbEntity
  8
0
 62
7
100
AcDbSpline
 70
8
 71
3
 72
8
 73
4
 74
0
 40
0
 40
0
 40
0
 40
0
 40
1
 40
1
 40
1
 40
1
 10
2588.431520
 20
1701.187364
 30
0.0
 10
2588.431520
 20
1704.225536
 30
0.0
 10
2586.810674
 20
1707.032923
 30
0.0
 10
2584.179540
 20
1708.552009
 30
0.0
  0
SPLINE
  5
2ca
100
AcDbEntity
  8
0
 62
7
100
AcDbSpline
 70
8
 71
3
 72
8
 73
4
 74
0
 40
0
 40
0
 40
0
 40
0
 40
1
 40
1
 40
1
 40
1
 10
2584.179540
 20
1708.552009
 30
0.0
 10
2581.548406
 20
1710.071095
 30
0.0
 10
2578.306714
 20
1710.071095
 30
0.0
 10
2575.675580
 20
1708.552009
 30
0.0
  0
SPLINE
  5
2cb
100
AcDbEntity
  8
0
 62
7
100
AcDbSpline
 70
8
 71
3
 72
8
 73
4
 74
0
 40
0
 40
0
 40
0
 40
0
 40
1
 40
1
 40
1
 40
1
 10
2575.675580
 20
1708.552009
 30
0.0
 10
2573.044446
 20
1707.032923
 30
0.0
 10
2571.423600
 20
1704.225536
 30
0.0
 10
2571.423600
 20
1701.187364
 30
0.0
  0
SPLINE
  5
2cc
100
AcDbEntity
  8
0
 62
7
100
AcDbSpline
 70
8
 71
3
 72
8
 73
4
 74
0
 40
0
 40
0
 40
0
 40
0
 40
1
 40
1
 40
1
 40
1
 10
2571.423600
 20
1701.187364
 30
0.0
 10
2571.423600
 20
1698.149191
 30
0.0
 10
2573.044446
 20
1695.341805
 30
0.0
 10
2575.675580
 20
1693.822718
 30
0.0
  0
SPLINE
  5
2cd
100
AcDbEntity
  8
0
 62
7
100
AcDbSpline
 70
8
 71
3
 72
8
 73
4
 74
0
 40
0
 40
0
 40
0
 40
0
 40
1
 40
1
 40
1
 40
1
 10
2575.675580
 20
1693.822718
 30
0.0
 10
2578.306714
 20
1692.303632
 30
0.0
 10
2581.548406
 20
1692.303632
 30
0.0
 10
2584.179540
 20
1693.822718
 30
0.0
  0
SPLINE
  5
2ce
100
AcDbEntity
  8
0
 62
7
100
AcDbSpline
 70
8
 71
3
 72
8
 73
4
 74
0
 40
0
 40
0
 40
0
 40
0
 40
1
 40
1
 40
1
 40
1
 10
2584.179540
 20
1693.822718
 30
0.0
 10
2586.810674
 20
1695.341805
 30
0.0
 10
2588.431520
 20
1698.149191
 30
0.0
 10
2588.431520
 20
1701.187364
 30
0.0
  0
LWPOLYLINE
  5
2cf
100
AcDbEntity
  8
0
 62
7
100
AcDbPolyline
 90
2
 70
0
 10
1332.683440
 20
1729.533844
 30
0.0
 10
2608.274000
 20
1729.533844
 30
0.0
  0
LWPOLYLINE
  5
2d0
100
AcDbEntity
  8
0
 62
7
100
AcDbPolyline
 90
2
 70
0
 10
2588.431520
 20
1701.187364
 30
0.0
 10
2588.431520
 20
1701.187364
 30
0.0
  0
LWPOLYLINE
  5
2d1
100
AcDbEntity
  8
0
 62
7
100
AcDbPolyline
 90
2
 70
0
 10
2622.447280
 20
1361.029940
 30
0.0
 10
2622.447280
 20
1414.888204
 30
0.0
  0
LWPOLYLINE
  5
2d2
100
AcDbEntity
  8
0
 62
7
100
AcDbPolyline
 90
2
 70
0
 10
2622.447280
 20
1361.029940
 30
0.0
 10
2664.966960
 20
1361.029940
 30
0.0
  0
LWPOLYLINE
  5
2d3
100
AcDbEntity
  8
0
 62
7
100
AcDbPolyline
 90
3
 70
0
 10
2579.927520
 20
1361.029940
 30
0.0
 10
2579.927520
 20
1414.888204
 30
0.0
 10
2622.447280
 20
1414.888204
 30
0.0
  0
LWPOLYLINE
  5
2d4
100
AcDbEntity
  8
0
 62
7
100
AcDbPolyline
 90
2
 70
0
 10
2509.061440
 20
1361.029940
 30
0.0
 10
2579.927520
 20
1361.029940
 30
0.0
  0
LWPOLYLINE
  5
2d5
100
AcDbEntity
  8
0
 62
7
100
AcDbPolyline
 90
2
 70
0
 10
2509.061440
 20
1361.029940
 30
0.0
 10
2509.061440
 20
1389.376396
 30
0.0
  0
LWPOLYLINE
  5
2d6
100
AcDbEntity
  8
0
 62
7
100
AcDbPolyline
 90
2
 70
0
 10
2409.848800
 20
1389.376396
 30
0.0
 10
2509.061440
 20
1389.376396
 30
0.0
  0
LWPOLYLINE
  5
2d7
100
AcDbEntity
  8
0
 62
7
100
AcDbPolyline
 90
2
 70
0
 10
2381.502400
 20
1361.029940
 30
0.0
 10
2381.502400
 20
1559.455132
 30
0.0
  0
LWPOLYLINE
  5
2d8
100
AcDbEntity
  8
0
 62
7
100
AcDbPolyline
 90
2
 70
0
 10
2409.848800
 20
1361.029940
 30
0.0
 10
2409.848800
 20
1389.376396
 30
0.0
  0
LWPOLYLINE
  5
2d9
100
AcDbEntity
  8
0
 62
7
100
AcDbPolyline
 90
2
 70
0
 10
2381.502400
 20
1361.029940
 30
0.0
 10
2409.848800
 20
1361.029940
 30
0.0
  0
LWPOLYLINE
  5
2da
100
AcDbEntity
  8
0
 62
7
100
AcDbPolyline
 90
2
 70
0
 10
1408.056720
 20
1531.193716
 30
0.0
 10
1464.749600
 20
1531.193716
 30
0.0
  0
LWPOLYLINE
  5
2db
100
AcDbEntity
  8
0
 62
7
100
AcDbPolyline
 90
2
 70
0
 10
1408.056720
 20
1519.855132
 30
0.0
 10
1464.749600
 20
1519.855132
 30
0.0
  0
LWPOLYLINE
  5
2dc
100
AcDbEntity
  8
0
 62
7
100
AcDbPolyline
 90
2
 70
0
 10
1408.056720
 20
1531.193716
 30
0.0
 10
1408.056720
 20
1519.855132
 30
0.0
  0
LWPOLYLINE
  5
2dd
100
AcDbEntity
  8
0
 62
7
100
AcDbPolyline
 90
2
 70
0
 10
1464.749600
 20
1531.193716
 30
0.0
 10
1464.749600
 20
1519.855132
 30
0.0
  0
LWPOLYLINE
  5
2de
100
AcDbEntity
  8
comments
 62
1
100
AcDbPolyline
 90
2
 70
0
 10
2381.102362
 20
1502.362205
 30
0.0
 10
2721.259842
 20
1615.748032
 30
0.0
  0
LWPOLYLINE
  5
2df
100
AcDbEntity
  8
comments
 62
1
100
AcDbPolyline
 90
2
 70
0
 10
2579.527559
 20
1388.976378
 30
0.0
 10
2749.606299
 20
1530.708661
 30
0.0
  0
LWPOLYLINE
  5
2e0
100
AcDbEntity
  8
comments
 62
1
100
AcDbPolyline
 90
2
 70
0
 10
1162.204725
 20
963.779528
 30
0.0
 10
1332.283465
 20
878.740157
 30
0.0
  0
LWPOLYLINE
  5
2e1
100
AcDbEntity
  8
comments
 62
1
100
AcDbPolyline
 90
4
 70
0
 10
1474.015748
 20
1672.440945
 30
0.0
 10
1870.866142
 20
1360.629921
 30
0.0
 10
1870.866142
 20
1360.629921
 30
0.0
 10
2182.677166
 20
1672.440945
 30
0.0
  0
LWPOLYLINE
  5
2e2
100
AcDbEntity
  8
comments
 62
1
100
AcDbPolyline
 90
2
 70
0
 10
1842.519685
 20
1275.590551
 30
0.0
 10
1474.015748
 20
1077.165354
 30
0.0
  0
LWPOLYLINE
  5
2e3
100
AcDbEntity
  8
comments
 62
1
100
AcDbPolyline
 90
2
 70
0
 10
1842.519685
 20
1275.590551
 30
0.0
 10
2182.677166
 20
1077.165354
 30
0.0
  0
LWPOLYLINE
  5
2e4
100
AcDbEntity
  8
comments
 62
1
100
AcDbPolyline
 90
3
 70
0
 10
2314.116850
 20
1443.772913
 30
0.0
 10
2442.588662
 20
1743.307087
 30
0.0
 10
2317.175433
 20
1540.125354
 30
0.0
  0
LWPOLYLINE
  5
2e5
100
AcDbEntity
  8
comments
 62
1
100
AcDbPolyline
 90
2
 70
0
 10
2315.647559
 20
1624.243465
 30
0.0
 10
2441.057953
 20
1743.307087
 30
0.0
  0
LWPOLYLINE
  5
2e6
100
AcDbEntity
  8
comments
 62
1
100
AcDbPolyline
 90
2
 70
0
 10
2296.062992
 20
1162.204725
 30
0.0
 10
2012.598425
 20
907.086614
 30
0.0
  0
LWPOLYLINE
  5
2e7
100
AcDbEntity
  8
comments
 62
1
100
AcDbPolyline
 90
2
 70
0
 10
2296.062992
 20
1048.818897
 30
0.0
 10
2012.598425
 20
907.086614
 30
0.0
  0
LWPOLYLINE
  5
2e8
100
AcDbEntity
  8
comments
 62
1
100
AcDbPolyline
 90
2
 70
0
 10
2296.062992
 20
935.433071
 30
0.0
 10
2012.598425
 20
907.086614
 30
0.0
  0
LWPOLYLINE
  5
2e9
100
AcDbEntity
  8
comments
 62
1
100
AcDbPolyline
 90
2
 70
0
 10
463.414369
 20
1694.597757
 30
0.0
 10
845.769458
 20
1564.597027
 30
0.0
  0
LWPOLYLINE
  5
2ea
100
AcDbEntity
  8
comments
 62
1
100
AcDbPolyline
 90
2
 70
0
 10
848.828299
 20
1563.067606
 30
0.0
 10
1166.947734
 20
1691.538917
 30
0.0
  0
SPLINE
  5
2eb
100
AcDbEntity
  8
comments
 62
7
100
AcDbSpline
 70
8
 71
3
 72
8
 73
4
 74
0
 40
0
 40
0
 40
0
 40
0
 40
1
 40
1
 40
1
 40
1
 10
272.282648
 20
2195.848164
 30
0.0
 10
272.282648
 20
2195.142004
 30
0.0
 10
272.353288
 20
2194.489924
 30
0.0
 10
272.494488
 20
2193.891764
 30
0.0
  0
SPLINE
  5
2ec
100
AcDbEntity
  8
comments
 62
7
100
AcDbSpline
 70
8
 71
3
 72
8
 73
4
 74
0
 40
0
 40
0
 40
0
 40
0
 40
1
 40
1
 40
1
 40
1
 10
272.494488
 20
2193.891764
 30
0.0
 10
272.644016
 20
2193.301924
 30
0.0
 10
272.868312
 20
2192.791044
 30
0.0
 10
273.167376
 20
2192.359044
 30
0.0
  0
SPLINE
  5
2ed
100
AcDbEntity
  8
comments
 62
7
100
AcDbSpline
 70
8
 71
3
 72
8
 73
4
 74
0
 40
0
 40
0
 40
0
 40
0
 40
1
 40
1
 40
1
 40
1
 10
273.167376
 20
2192.359044
 30
0.0
 10
273.474744
 20
2191.935444
 30
0.0
 10
273.865184
 20
2191.603124
 30
0.0
 10
274.338704
 20
2191.362244
 30
0.0
  0
SPLINE
  5
2ee
100
AcDbEntity
  8
comments
 62
7
100
AcDbSpline
 70
8
 71
3
 72
8
 73
4
 74
0
 40
0
 40
0
 40
0
 40
0
 40
1
 40
1
 40
1
 40
1
 10
274.338704
 20
2191.362244
 30
0.0
 10
274.812216
 20
2191.129604
 30
0.0
 10
275.381264
 20
2191.013284
 30
0.0
 10
276.045856
 20
2191.013284
 30
0.0
  0
SPLINE
  5
2ef
100
AcDbEntity
  8
comments
 62
7
100
AcDbSpline
 70
8
 71
3
 72
8
 73
4
 74
0
 40
0
 40
0
 40
0
 40
0
 40
1
 40
1
 40
1
 40
1
 10
276.045856
 20
2191.013284
 30
0.0
 10
277.017800
 20
2191.013284
 30
0.0
 10
277.794528
 20
2191.208484
 30
0.0
 10
278.376048
 20
2191.598964
 30
0.0
  0
SPLINE
  5
2f0
100
AcDbEntity
  8
comments
 62
7
100
AcDbSpline
 70
8
 71
3
 72
8
 73
4
 74
0
 40
0
 40
0
 40
0
 40
0
 40
1
 40
1
 40
1
 40
1
 10
278.376048
 20
2191.598964
 30
0.0
 10
278.965856
 20
2191.989364
 30
0.0
 10
279.364608
 20
2192.483684
 30
0.0
 10
279.572296
 20
2193.081844
 30
0.0
  0
LWPOLYLINE
  5
2f1
100
AcDbEntity
  8
comments
 62
1
100
AcDbPolyline
 90
2
 70
0
 10
74.941598
 20
1376.478323
 30
0.0
 10
178.942182
 20
1397.890208
 30
0.0
  0
SPLINE
  5
2f2
100
AcDbEntity
  8
comments
 62
7
100
AcDbSpline
 70
8
 71
3
 72
8
 73
4
 74
0
 40
0
 40
0
 40
0
 40
0
 40
1
 40
1
 40
1
 40
1
 10
281.541128
 20
2192.521044
 30
0.0
 10
281.399888
 20
2192.147204
 30
0.0
 10
281.200520
 20
2191.769284
 30
0.0
 10
280.943000
 20
2191.387124
 30
0.0
  0
SPLINE
  5
2f3
100
AcDbEntity
  8
comments
 62
7
100
AcDbSpline
 70
8
 71
3
 72
8
 73
4
 74
0
 40
0
 40
0
 40
0
 40
0
 40
1
 40
1
 40
1
 40
1
 10
280.943000
 20
2191.387124
 30
0.0
 10
280.693776
 20
2191.013284
 30
0.0
 10
280.357328
 20
2190.672724
 30
0.0
 10
279.933664
 20
2190.365364
 30
0.0
  0
SPLINE
  5
2f4
100
AcDbEntity
  8
comments
 62
7
100
AcDbSpline
 70
8
 71
3
 72
8
 73
4
 74
0
 40
0
 40
0
 40
0
 40
0
 40
1
 40
1
 40
1
 40
1
 10
279.933664
 20
2190.365364
 30
0.0
 10
279.509984
 20
2190.066244
 30
0.0
 10
278.978320
 20
2189.817044
 30
0.0
 10
278.338664
 20
2189.617684
 30
0.0
  0
SPLINE
  5
2f5
100
AcDbEntity
  8
comments
 62
7
100
AcDbSpline
 70
8
 71
3
 72
8
 73
4
 74
0
 40
0
 40
0
 40
0
 40
0
 40
1
 40
1
 40
1
 40
1
 10
278.338664
 20
2189.617684
 30
0.0
 10
277.707304
 20
2189.426644
 30
0.0
 10
276.943032
 20
2189.331044
 30
0.0
 10
276.045856
 20
2189.331044
 30
0.0
  0
SPLINE
  5
2f6
100
AcDbEntity
  8
comments
 62
7
100
AcDbSpline
 70
8
 71
3
 72
8
 73
4
 74
0
 40
0
 40
0
 40
0
 40
0
 40
1
 40
1
 40
1
 40
1
 10
276.045856
 20
2189.331044
 30
0.0
 10
274.052096
 20
2189.331044
 30
0.0
 10
272.531864
 20
2189.925044
 30
0.0
 10
271.485152
 20
2191.112964
 30
0.0
  0
SPLINE
  5
2f7
100
AcDbEntity
  8
comments
 62
7
100
AcDbSpline
 70
8
 71
3
 72
8
 73
4
 74
0
 40
0
 40
0
 40
0
 40
0
 40
1
 40
1
 40
1
 40
1
 10
271.485152
 20
2191.112964
 30
0.0
 10
270.446736
 20
2192.300964
 30
0.0
 10
269.927536
 20
2194.066244
 30
0.0
 10
269.927536
 20
2196.408884
 30
0.0
  0
SPLINE
  5
2f8
100
AcDbEntity
  8
comments
 62
7
100
AcDbSpline
 70
8
 71
3
 72
8
 73
4
 74
0
 40
0
 40
0
 40
0
 40
0
 40
1
 40
1
 40
1
 40
1
 10
269.927536
 20
2196.408884
 30
0.0
 10
269.927536
 20
2197.671604
 30
0.0
 10
270.085368
 20
2198.739044
 30
0.0
 10
270.401048
 20
2199.611364
 30
0.0
  0
SPLINE
  5
2f9
100
AcDbEntity
  8
comments
 62
7
100
AcDbSpline
 70
8
 71
3
 72
8
 73
4
 74
0
 40
0
 40
0
 40
0
 40
0
 40
1
 40
1
 40
1
 40
1
 10
270.401048
 20
2199.611364
 30
0.0
 10
270.716728
 20
2200.491924
 30
0.0
 10
271.148704
 20
2201.206324
 30
0.0
 10
271.696984
 20
2201.754644
 30
0.0
  0
SPLINE
  5
2fa
100
AcDbEntity
  8
comments
 62
7
100
AcDbSpline
 70
8
 71
3
 72
8
 73
4
 74
0
 40
0
 40
0
 40
0
 40
0
 40
1
 40
1
 40
1
 40
1
 10
271.696984
 20
2201.754644
 30
0.0
 10
272.245264
 20
2202.302884
 30
0.0
 10
272.884928
 20
2202.697524
 30
0.0
 10
273.615968
 20
2202.938404
 30
0.0
  0
SPLINE
  5
2fb
100
AcDbEntity
  8
comments
 62
7
100
AcDbSpline
 70
8
 71
3
 72
8
 73
4
 74
0
 40
0
 40
0
 40
0
 40
0
 40
1
 40
1
 40
1
 40
1
 10
273.615968
 20
2202.938404
 30
0.0
 10
274.347008
 20
2203.187604
 30
0.0
 10
275.127896
 20
2203.312244
 30
0.0
 10
275.958624
 20
2203.312244
 30
0.0
  0
SPLINE
  5
2fc
100
AcDbEntity
  8
comments
 62
7
100
AcDbSpline
 70
8
 71
3
 72
8
 73
4
 74
0
 40
0
 40
0
 40
0
 40
0
 40
1
 40
1
 40
1
 40
1
 10
275.958624
 20
2203.312244
 30
0.0
 10
277.088408
 20
2203.312244
 30
0.0
 10
278.031288
 20
2203.129444
 30
0.0
 10
278.787264
 20
2202.763924
 30
0.0
  0
SPLINE
  5
2fd
100
AcDbEntity
  8
comments
 62
7
100
AcDbSpline
 70
8
 71
3
 72
8
 73
4
 74
0
 40
0
 40
0
 40
0
 40
0
 40
1
 40
1
 40
1
 40
1
 10
278.787264
 20
2202.763924
 30
0.0
 10
279.551520
 20
2202.398404
 30
0.0
 10
280.162104
 20
2201.891684
 30
0.0
 10
280.619016
 20
2201.243764
 30
0.0
  0
SPLINE
  5
2fe
100
AcDbEntity
  8
comments
 62
7
100
AcDbSpline
 70
8
 71
3
 72
8
 73
4
 74
0
 40
0
 40
0
 40
0
 40
0
 40
1
 40
1
 40
1
 40
1
 10
280.619016
 20
2201.243764
 30
0.0
 10
281.084216
 20
2200.604084
 30
0.0
 10
281.412352
 20
2199.848084
 30
0.0
 10
281.603432
 20
2198.975844
 30
0.0
  0
SPLINE
  5
2ff
100
AcDbEntity
  8
comments
 62
7
100
AcDbSpline
 70
8
 71
3
 72
8
 73
4
 74
0
 40
0
 40
0
 40
0
 40
0
 40
1
 40
1
 40
1
 40
1
 10
281.603432
 20
2198.975844
 30
0.0
 10
281.802792
 20
2198.103524
 30
0.0
 10
281.902480
 20
2197.160724
 30
0.0
 10
281.902496
 20
2196.147204
 30
0.0
  0
LWPOLYLINE
  5
300
100
AcDbEntity
  8
comments
 62
7
100
AcDbPolyline
 90
2
 70
0
 10
279.572296
 20
2193.081844
 30
0.0
 10
281.541128
 20
2192.521044
 30
0.0
  0
SPLINE
  5
301
100
AcDbEntity
  8
comments
 62
7
100
AcDbSpline
 70
8
 71
3
 72
8
 73
4
 74
0
 40
0
 40
0
 40
0
 40
0
 40
1
 40
1
 40
1
 40
1
 10
279.584760
 20
2197.567764
 30
0.0
 10
279.460144
 20
2198.988324
 30
0.0
 10
279.098776
 20
2200.022564
 30
0.0
 10
278.500656
 20
2200.670564
 30
0.0
  0
SPLINE
  5
302
100
AcDbEntity
  8
comments
 62
7
100
AcDbSpline
 70
8
 71
3
 72
8
 73
4
 74
0
 40
0
 40
0
 40
0
 40
0
 40
1
 40
1
 40
1
 40
1
 10
278.500656
 20
2200.670564
 30
0.0
 10
277.902528
 20
2201.326804
 30
0.0
 10
277.042720
 20
2201.654964
 30
0.0
 10
275.921248
 20
2201.654964
 30
0.0
  0
SPLINE
  5
303
100
AcDbEntity
  8
comments
 62
7
100
AcDbSpline
 70
8
 71
3
 72
8
 73
4
 74
0
 40
0
 40
0
 40
0
 40
0
 40
1
 40
1
 40
1
 40
1
 10
275.921248
 20
2201.654964
 30
0.0
 10
275.547408
 20
2201.654964
 30
0.0
 10
275.152816
 20
2201.592564
 30
0.0
 10
274.737456
 20
2201.468004
 30
0.0
  0
SPLINE
  5
304
100
AcDbEntity
  8
comments
 62
7
100
AcDbSpline
 70
8
 71
3
 72
8
 73
4
 74
0
 40
0
 40
0
 40
0
 40
0
 40
1
 40
1
 40
1
 40
1
 10
274.737456
 20
2201.468004
 30
0.0
 10
274.330392
 20
2201.351684
 30
0.0
 10
273.952408
 20
2201.139844
 30
0.0
 10
273.603512
 20
2200.832484
 30
0.0
  0
SPLINE
  5
305
100
AcDbEntity
  8
comments
 62
7
100
AcDbSpline
 70
8
 71
3
 72
8
 73
4
 74
0
 40
0
 40
0
 40
0
 40
0
 40
1
 40
1
 40
1
 40
1
 10
273.603512
 20
2200.832484
 30
0.0
 10
273.254600
 20
2200.525124
 30
0.0
 10
272.959688
 20
2200.105604
 30
0.0
 10
272.718784
 20
2199.573924
 30
0.0
  0
SPLINE
  5
306
100
AcDbEntity
  8
comments
 62
7
100
AcDbSpline
 70
8
 71
3
 72
8
 73
4
 74
0
 40
0
 40
0
 40
0
 40
0
 40
1
 40
1
 40
1
 40
1
 10
272.718784
 20
2199.573924
 30
0.0
 10
272.477872
 20
2199.050564
 30
0.0
 10
272.340800
 20
2198.381844
 30
0.0
 10
272.307576
 20
2197.567764
 30
0.0
  0
LWPOLYLINE
  5
307
100
AcDbEntity
  8
comments
 62
7
100
AcDbPolyline
 90
3
 70
0
 10
281.902496
 20
2196.147204
 30
0.0
 10
281.902496
 20
2195.848164
 30
0.0
 10
272.282648
 20
2195.848164
 30
0.0
  0
LWPOLYLINE
  5
308
100
AcDbEntity
  8
comments
 62
7
100
AcDbPolyline
 90
2
 70
0
 10
272.307576
 20
2197.567764
 30
0.0
 10
279.584760
 20
2197.567764
 30
0.0
  0
SPLINE
  5
309
100
AcDbEntity
  8
comments
 62
7
100
AcDbSpline
 70
8
 71
3
 72
8
 73
4
 74
0
 40
0
 40
0
 40
0
 40
0
 40
1
 40
1
 40
1
 40
1
 10
292.170304
 20
2195.848164
 30
0.0
 10
292.170304
 20
2195.142004
 30
0.0
 10
292.240944
 20
2194.489924
 30
0.0
 10
292.382144
 20
2193.891764
 30
0.0
  0
SPLINE
  5
30a
100
AcDbEntity
  8
comments
 62
7
100
AcDbSpline
 70
8
 71
3
 72
8
 73
4
 74
0
 40
0
 40
0
 40
0
 40
0
 40
1
 40
1
 40
1
 40
1
 10
292.382144
 20
2193.891764
 30
0.0
 10
292.531672
 20
2193.301924
 30
0.0
 10
292.755968
 20
2192.791044
 30
0.0
 10
293.055032
 20
2192.359044
 30
0.0
  0
SPLINE
  5
30b
100
AcDbEntity
  8
comments
 62
7
100
AcDbSpline
 70
8
 71
3
 72
8
 73
4
 74
0
 40
0
 40
0
 40
0
 40
0
 40
1
 40
1
 40
1
 40
1
 10
293.055032
 20
2192.359044
 30
0.0
 10
293.362400
 20
2191.935444
 30
0.0
 10
293.752840
 20
2191.603124
 30
0.0
 10
294.226360
 20
2191.362244
 30
0.0
  0
SPLINE
  5
30c
100
AcDbEntity
  8
comments
 62
7
100
AcDbSpline
 70
8
 71
3
 72
8
 73
4
 74
0
 40
0
 40
0
 40
0
 40
0
 40
1
 40
1
 40
1
 40
1
 10
294.226360
 20
2191.362244
 30
0.0
 10
294.699872
 20
2191.129604
 30
0.0
 10
295.268920
 20
2191.013284
 30
0.0
 10
295.933512
 20
2191.013284
 30
0.0
  0
SPLINE
  5
30d
100
AcDbEntity
  8
comments
 62
7
100
AcDbSpline
 70
8
 71
3
 72
8
 73
4
 74
0
 40
0
 40
0
 40
0
 40
0
 40
1
 40
1
 40
1
 40
1
 10
295.933512
 20
2191.013284
 30
0.0
 10
296.905456
 20
2191.013284
 30
0.0
 10
297.682184
 20
2191.208484
 30
0.0
 10
298.263704
 20
2191.598964
 30
0.0
  0
SPLINE
  5
30e
100
AcDbEntity
  8
comments
 62
7
100
AcDbSpline
 70
8
 71
3
 72
8
 73
4
 74
0
 40
0
 40
0
 40
0
 40
0
 40
1
 40
1
 40
1
 40
1
 10
298.263704
 20
2191.598964
 30
0.0
 10
298.853512
 20
2191.989364
 30
0.0
 10
299.252264
 20
2192.483684
 30
0.0
 10
299.459952
 20
2193.081844
 30
0.0
  0
LWPOLYLINE
  5
30f
100
AcDbEntity
  8
comments
 62
7
100
AcDbPolyline
 90
5
 70
0
 10
284.768512
 20
2189.580324
 30
0.0
 10
284.768512
 20
2208.072324
 30
0.0
 10
287.011480
 20
2208.072324
 30
0.0
 10
287.011480
 20
2189.580324
 30
0.0
 10
284.768512
 20
2189.580324
 30
0.0
  0
SPLINE
  5
310
100
AcDbEntity
  8
comments
 62
7
100
AcDbSpline
 70
8
 71
3
 72
8
 73
4
 74
0
 40
0
 40
0
 40
0
 40
0
 40
1
 40
1
 40
1
 40
1
 10
301.428784
 20
2192.521044
 30
0.0
 10
301.287544
 20
2192.147204
 30
0.0
 10
301.088176
 20
2191.769284
 30
0.0
 10
300.830656
 20
2191.387124
 30
0.0
  0
SPLINE
  5
311
100
AcDbEntity
  8
comments
 62
7
100
AcDbSpline
 70
8
 71
3
 72
8
 73
4
 74
0
 40
0
 40
0
 40
0
 40
0
 40
1
 40
1
 40
1
 40
1
 10
300.830656
 20
2191.387124
 30
0.0
 10
300.581424
 20
2191.013284
 30
0.0
 10
300.244984
 20
2190.672724
 30
0.0
 10
299.821320
 20
2190.365364
 30
0.0
  0
SPLINE
  5
312
100
AcDbEntity
  8
comments
 62
7
100
AcDbSpline
 70
8
 71
3
 72
8
 73
4
 74
0
 40
0
 40
0
 40
0
 40
0
 40
1
 40
1
 40
1
 40
1
 10
299.821320
 20
2190.365364
 30
0.0
 10
299.397640
 20
2190.066244
 30
0.0
 10
298.865976
 20
2189.817044
 30
0.0
 10
298.226320
 20
2189.617684
 30
0.0
  0
SPLINE
  5
313
100
AcDbEntity
  8
comments
 62
7
100
AcDbSpline
 70
8
 71
3
 72
8
 73
4
 74
0
 40
0
 40
0
 40
0
 40
0
 40
1
 40
1
 40
1
 40
1
 10
298.226320
 20
2189.617684
 30
0.0
 10
297.594960
 20
2189.426644
 30
0.0
 10
296.830688
 20
2189.331044
 30
0.0
 10
295.933512
 20
2189.331044
 30
0.0
  0
SPLINE
  5
314
100
AcDbEntity
  8
comments
 62
7
100
AcDbSpline
 70
8
 71
3
 72
8
 73
4
 74
0
 40
0
 40
0
 40
0
 40
0
 40
1
 40
1
 40
1
 40
1
 10
295.933512
 20
2189.331044
 30
0.0
 10
293.939752
 20
2189.331044
 30
0.0
 10
292.419520
 20
2189.925044
 30
0.0
 10
291.372808
 20
2191.112964
 30
0.0
  0
SPLINE
  5
315
100
AcDbEntity
  8
comments
 62
7
100
AcDbSpline
 70
8
 71
3
 72
8
 73
4
 74
0
 40
0
 40
0
 40
0
 40
0
 40
1
 40
1
 40
1
 40
1
 10
291.372808
 20
2191.112964
 30
0.0
 10
290.334392
 20
2192.300964
 30
0.0
 10
289.815192
 20
2194.066244
 30
0.0
 10
289.815192
 20
2196.408884
 30
0.0
  0
SPLINE
  5
316
100
AcDbEntity
  8
comments
 62
7
100
AcDbSpline
 70
8
 71
3
 72
8
 73
4
 74
0
 40
0
 40
0
 40
0
 40
0
 40
1
 40
1
 40
1
 40
1
 10
289.815192
 20
2196.408884
 30
0.0
 10
289.815192
 20
2197.671604
 30
0.0
 10
289.973024
 20
2198.739044
 30
0.0
 10
290.288704
 20
2199.611364
 30
0.0
  0
SPLINE
  5
317
100
AcDbEntity
  8
comments
 62
7
100
AcDbSpline
 70
8
 71
3
 72
8
 73
4
 74
0
 40
0
 40
0
 40
0
 40
0
 40
1
 40
1
 40
1
 40
1
 10
290.288704
 20
2199.611364
 30
0.0
 10
290.604384
 20
2200.491924
 30
0.0
 10
291.036360
 20
2201.206324
 30
0.0
 10
291.584640
 20
2201.754644
 30
0.0
  0
SPLINE
  5
318
100
AcDbEntity
  8
comments
 62
7
100
AcDbSpline
 70
8
 71
3
 72
8
 73
4
 74
0
 40
0
 40
0
 40
0
 40
0
 40
1
 40
1
 40
1
 40
1
 10
291.584640
 20
2201.754644
 30
0.0
 10
292.132920
 20
2202.302884
 30
0.0
 10
292.772584
 20
2202.697524
 30
0.0
 10
293.503624
 20
2202.938404
 30
0.0
  0
SPLINE
  5
319
100
AcDbEntity
  8
comments
 62
7
100
AcDbSpline
 70
8
 71
3
 72
8
 73
4
 74
0
 40
0
 40
0
 40
0
 40
0
 40
1
 40
1
 40
1
 40
1
 10
293.503624
 20
2202.938404
 30
0.0
 10
294.234664
 20
2203.187604
 30
0.0
 10
295.015552
 20
2203.312244
 30
0.0
 10
295.846280
 20
2203.312244
 30
0.0
  0
SPLINE
  5
31a
100
AcDbEntity
  8
comments
 62
7
100
AcDbSpline
 70
8
 71
3
 72
8
 73
4
 74
0
 40
0
 40
0
 40
0
 40
0
 40
1
 40
1
 40
1
 40
1
 10
295.846280
 20
2203.312244
 30
0.0
 10
296.976064
 20
2203.312244
 30
0.0
 10
297.918944
 20
2203.129444
 30
0.0
 10
298.674920
 20
2202.763924
 30
0.0
  0
SPLINE
  5
31b
100
AcDbEntity
  8
comments
 62
7
100
AcDbSpline
 70
8
 71
3
 72
8
 73
4
 74
0
 40
0
 40
0
 40
0
 40
0
 40
1
 40
1
 40
1
 40
1
 10
298.674920
 20
2202.763924
 30
0.0
 10
299.439176
 20
2202.398404
 30
0.0
 10
300.049760
 20
2201.891684
 30
0.0
 10
300.506672
 20
2201.243764
 30
0.0
  0
SPLINE
  5
31c
100
AcDbEntity
  8
comments
 62
7
100
AcDbSpline
 70
8
 71
3
 72
8
 73
4
 74
0
 40
0
 40
0
 40
0
 40
0
 40
1
 40
1
 40
1
 40
1
 10
300.506672
 20
2201.243764
 30
0.0
 10
300.971872
 20
2200.604084
 30
0.0
 10
301.300008
 20
2199.848084
 30
0.0
 10
301.491088
 20
2198.975844
 30
0.0
  0
SPLINE
  5
31d
100
AcDbEntity
  8
comments
 62
7
100
AcDbSpline
 70
8
 71
3
 72
8
 73
4
 74
0
 40
0
 40
0
 40
0
 40
0
 40
1
 40
1
 40
1
 40
1
 10
301.491088
 20
2198.975844
 30
0.0
 10
301.690448
 20
2198.103524
 30
0.0
 10
301.790136
 20
2197.160724
 30
0.0
 10
301.790152
 20
2196.147204
 30
0.0
  0
LWPOLYLINE
  5
31e
100
AcDbEntity
  8
comments
 62
7
100
AcDbPolyline
 90
2
 70
0
 10
299.459952
 20
2193.081844
 30
0.0
 10
301.428784
 20
2192.521044
 30
0.0
  0
SPLINE
  5
31f
100
AcDbEntity
  8
comments
 62
7
100
AcDbSpline
 70
8
 71
3
 72
8
 73
4
 74
0
 40
0
 40
0
 40
0
 40
0
 40
1
 40
1
 40
1
 40
1
 10
299.472416
 20
2197.567764
 30
0.0
 10
299.347800
 20
2198.988324
 30
0.0
 10
298.986432
 20
2200.022564
 30
0.0
 10
298.388312
 20
2200.670564
 30
0.0
  0
SPLINE
  5
320
100
AcDbEntity
  8
comments
 62
7
100
AcDbSpline
 70
8
 71
3
 72
8
 73
4
 74
0
 40
0
 40
0
 40
0
 40
0
 40
1
 40
1
 40
1
 40
1
 10
298.388312
 20
2200.670564
 30
0.0
 10
297.790184
 20
2201.326804
 30
0.0
 10
296.930376
 20
2201.654964
 30
0.0
 10
295.808904
 20
2201.654964
 30
0.0
  0
SPLINE
  5
321
100
AcDbEntity
  8
comments
 62
7
100
AcDbSpline
 70
8
 71
3
 72
8
 73
4
 74
0
 40
0
 40
0
 40
0
 40
0
 40
1
 40
1
 40
1
 40
1
 10
295.808904
 20
2201.654964
 30
0.0
 10
295.435064
 20
2201.654964
 30
0.0
 10
295.040472
 20
2201.592564
 30
0.0
 10
294.625112
 20
2201.468004
 30
0.0
  0
SPLINE
  5
322
100
AcDbEntity
  8
comments
 62
7
100
AcDbSpline
 70
8
 71
3
 72
8
 73
4
 74
0
 40
0
 40
0
 40
0
 40
0
 40
1
 40
1
 40
1
 40
1
 10
294.625112
 20
2201.468004
 30
0.0
 10
294.218048
 20
2201.351684
 30
0.0
 10
293.840064
 20
2201.139844
 30
0.0
 10
293.491168
 20
2200.832484
 30
0.0
  0
SPLINE
  5
323
100
AcDbEntity
  8
comments
 62
7
100
AcDbSpline
 70
8
 71
3
 72
8
 73
4
 74
0
 40
0
 40
0
 40
0
 40
0
 40
1
 40
1
 40
1
 40
1
 10
293.491168
 20
2200.832484
 30
0.0
 10
293.142256
 20
2200.525124
 30
0.0
 10
292.847344
 20
2200.105604
 30
0.0
 10
292.606440
 20
2199.573924
 30
0.0
  0
SPLINE
  5
324
100
AcDbEntity
  8
comments
 62
7
100
AcDbSpline
 70
8
 71
3
 72
8
 73
4
 74
0
 40
0
 40
0
 40
0
 40
0
 40
1
 40
1
 40
1
 40
1
 10
292.606440
 20
2199.573924
 30
0.0
 10
292.365528
 20
2199.050564
 30
0.0
 10
292.228456
 20
2198.381844
 30
0.0
 10
292.195232
 20
2197.567764
 30
0.0
  0
LWPOLYLINE
  5
325
100
AcDbEntity
  8
comments
 62
7
100
AcDbPolyline
 90
3
 70
0
 10
301.790152
 20
2196.147204
 30
0.0
 10
301.790152
 20
2195.848164
 30
0.0
 10
292.170304
 20
2195.848164
 30
0.0
  0
SPLINE
  5
326
100
AcDbEntity
  8
comments
 62
7
100
AcDbSpline
 70
8
 71
3
 72
8
 73
4
 74
0
 40
0
 40
0
 40
0
 40
0
 40
1
 40
1
 40
1
 40
1
 10
306.363312
 20
2196.383924
 30
0.0
 10
306.363312
 20
2195.611364
 30
0.0
 10
306.417312
 20
2194.901124
 30
0.0
 10
306.525304
 20
2194.253124
 30
0.0
  0
SPLINE
  5
327
100
AcDbEntity
  8
comments
 62
7
100
AcDbSpline
 70
8
 71
3
 72
8
 73
4
 74
0
 40
0
 40
0
 40
0
 40
0
 40
1
 40
1
 40
1
 40
1
 10
306.525304
 20
2194.253124
 30
0.0
 10
306.641608
 20
2193.605204
 30
0.0
 10
306.832672
 20
2193.044404
 30
0.0
 10
307.098512
 20
2192.570884
 30
0.0
  0
SPLINE
  5
328
100
AcDbEntity
  8
comments
 62
7
100
AcDbSpline
 70
8
 71
3
 72
8
 73
4
 74
0
 40
0
 40
0
 40
0
 40
0
 40
1
 40
1
 40
1
 40
1
 10
307.098512
 20
2192.570884
 30
0.0
 10
307.364336
 20
2192.105684
 30
0.0
 10
307.713248
 20
2191.744324
 30
0.0
 10
308.145232
 20
2191.486804
 30
0.0
  0
SPLINE
  5
329
100
AcDbEntity
  8
comments
 62
7
100
AcDbSpline
 70
8
 71
3
 72
8
 73
4
 74
0
 40
0
 40
0
 40
0
 40
0
 40
1
 40
1
 40
1
 40
1
 10
308.145232
 20
2191.486804
 30
0.0
 10
308.585512
 20
2191.229284
 30
0.0
 10
309.125480
 20
2191.100564
 30
0.0
 10
309.765152
 20
2191.100564
 30
0.0
  0
SPLINE
  5
32a
100
AcDbEntity
  8
comments
 62
7
100
AcDbSpline
 70
8
 71
3
 72
8
 73
4
 74
0
 40
0
 40
0
 40
0
 40
0
 40
1
 40
1
 40
1
 40
1
 10
309.765152
 20
2191.100564
 30
0.0
 10
310.562640
 20
2191.100564
 30
0.0
 10
311.227224
 20
2191.316484
 30
0.0
 10
311.758904
 20
2191.748484
 30
0.0
  0
SPLINE
  5
32b
100
AcDbEntity
  8
comments
 62
7
100
AcDbSpline
 70
8
 71
3
 72
8
 73
4
 74
0
 40
0
 40
0
 40
0
 40
0
 40
1
 40
1
 40
1
 40
1
 10
311.758904
 20
2191.748484
 30
0.0
 10
312.298864
 20
2192.180484
 30
0.0
 10
312.631160
 20
2192.845044
 30
0.0
 10
312.755776
 20
2193.742244
 30
0.0
  0
LWPOLYLINE
  5
32c
100
AcDbEntity
  8
comments
 62
7
100
AcDbPolyline
 90
2
 70
0
 10
292.195232
 20
2197.567764
 30
0.0
 10
299.472416
 20
2197.567764
 30
0.0
  0
SPLINE
  5
32d
100
AcDbEntity
  8
comments
 62
7
100
AcDbSpline
 70
8
 71
3
 72
8
 73
4
 74
0
 40
0
 40
0
 40
0
 40
0
 40
1
 40
1
 40
1
 40
1
 10
315.023664
 20
2193.592724
 30
0.0
 10
314.948864
 20
2193.036084
 30
0.0
 10
314.786896
 20
2192.500324
 30
0.0
 10
314.537688
 20
2191.985284
 30
0.0
  0
SPLINE
  5
32e
100
AcDbEntity
  8
comments
 62
7
100
AcDbSpline
 70
8
 71
3
 72
8
 73
4
 74
0
 40
0
 40
0
 40
0
 40
0
 40
1
 40
1
 40
1
 40
1
 10
314.537688
 20
2191.985284
 30
0.0
 10
314.288456
 20
2191.470164
 30
0.0
 10
313.947864
 20
2191.017444
 30
0.0
 10
313.515896
 20
2190.627044
 30
0.0
  0
SPLINE
  5
32f
100
AcDbEntity
  8
comments
 62
7
100
AcDbSpline
 70
8
 71
3
 72
8
 73
4
 74
0
 40
0
 40
0
 40
0
 40
0
 40
1
 40
1
 40
1
 40
1
 10
313.515896
 20
2190.627044
 30
0.0
 10
313.092208
 20
2190.236564
 30
0.0
 10
312.573008
 20
2189.920884
 30
0.0
 10
311.958272
 20
2189.680004
 30
0.0
  0
SPLINE
  5
330
100
AcDbEntity
  8
comments
 62
7
100
AcDbSpline
 70
8
 71
3
 72
8
 73
4
 74
0
 40
0
 40
0
 40
0
 40
0
 40
1
 40
1
 40
1
 40
1
 10
311.958272
 20
2189.680004
 30
0.0
 10
311.343528
 20
2189.447364
 30
0.0
 10
310.633256
 20
2189.331044
 30
0.0
 10
309.827456
 20
2189.331044
 30
0.0
  0
SPLINE
  5
331
100
AcDbEntity
  8
comments
 62
7
100
AcDbSpline
 70
8
 71
3
 72
8
 73
4
 74
0
 40
0
 40
0
 40
0
 40
0
 40
1
 40
1
 40
1
 40
1
 10
309.827456
 20
2189.331044
 30
0.0
 10
308.772424
 20
2189.331044
 30
0.0
 10
307.875240
 20
2189.509684
 30
0.0
 10
307.135896
 20
2189.866884
 30
0.0
  0
SPLINE
  5
332
100
AcDbEntity
  8
comments
 62
7
100
AcDbSpline
 70
8
 71
3
 72
8
 73
4
 74
0
 40
0
 40
0
 40
0
 40
0
 40
1
 40
1
 40
1
 40
1
 10
307.135896
 20
2189.866884
 30
0.0
 10
306.396544
 20
2190.224084
 30
0.0
 10
305.794264
 20
2190.714244
 30
0.0
 10
305.329056
 20
2191.337284
 30
0.0
  0
SPLINE
  5
333
100
AcDbEntity
  8
comments
 62
7
100
AcDbSpline
 70
8
 71
3
 72
8
 73
4
 74
0
 40
0
 40
0
 40
0
 40
0
 40
1
 40
1
 40
1
 40
1
 10
305.329056
 20
2191.337284
 30
0.0
 10
304.872152
 20
2191.968644
 30
0.0
 10
304.539864
 20
2192.708004
 30
0.0
 10
304.332184
 20
2193.555364
 30
0.0
  0
SPLINE
  5
334
100
AcDbEntity
  8
comments
 62
7
100
AcDbSpline
 70
8
 71
3
 72
8
 73
4
 74
0
 40
0
 40
0
 40
0
 40
0
 40
1
 40
1
 40
1
 40
1
 10
304.332184
 20
2193.555364
 30
0.0
 10
304.124496
 20
2194.410964
 30
0.0
 10
304.020656
 20
2195.337204
 30
0.0
 10
304.020656
 20
2196.334084
 30
0.0
  0
SPLINE
  5
335
100
AcDbEntity
  8
comments
 62
7
100
AcDbSpline
 70
8
 71
3
 72
8
 73
4
 74
0
 40
0
 40
0
 40
0
 40
0
 40
1
 40
1
 40
1
 40
1
 10
304.020656
 20
2196.334084
 30
0.0
 10
304.020656
 20
2197.239604
 30
0.0
 10
304.095456
 20
2198.037124
 30
0.0
 10
304.244952
 20
2198.726644
 30
0.0
  0
SPLINE
  5
336
100
AcDbEntity
  8
comments
 62
7
100
AcDbSpline
 70
8
 71
3
 72
8
 73
4
 74
0
 40
0
 40
0
 40
0
 40
0
 40
1
 40
1
 40
1
 40
1
 10
304.244952
 20
2198.726644
 30
0.0
 10
304.394488
 20
2199.424404
 30
0.0
 10
304.602168
 20
2200.030884
 30
0.0
 10
304.868000
 20
2200.545924
 30
0.0
  0
SPLINE
  5
337
100
AcDbEntity
  8
comments
 62
7
100
AcDbSpline
 70
8
 71
3
 72
8
 73
4
 74
0
 40
0
 40
0
 40
0
 40
0
 40
1
 40
1
 40
1
 40
1
 10
304.868000
 20
2200.545924
 30
0.0
 10
305.142144
 20
2201.069284
 30
0.0
 10
305.461968
 20
2201.505364
 30
0.0
 10
305.827496
 20
2201.854324
 30
0.0
  0
SPLINE
  5
338
100
AcDbEntity
  8
comments
 62
7
100
AcDbSpline
 70
8
 71
3
 72
8
 73
4
 74
0
 40
0
 40
0
 40
0
 40
0
 40
1
 40
1
 40
1
 40
1
 10
305.827496
 20
2201.854324
 30
0.0
 10
306.193016
 20
2202.211524
 30
0.0
 10
306.587608
 20
2202.493924
 30
0.0
 10
307.011280
 20
2202.701684
 30
0.0
  0
SPLINE
  5
339
100
AcDbEntity
  8
comments
 62
7
100
AcDbSpline
 70
8
 71
3
 72
8
 73
4
 74
0
 40
0
 40
0
 40
0
 40
0
 40
1
 40
1
 40
1
 40
1
 10
307.011280
 20
2202.701684
 30
0.0
 10
307.443256
 20
2202.917604
 30
0.0
 10
307.896008
 20
2203.071284
 30
0.0
 10
308.369528
 20
2203.162724
 30
0.0
  0
SPLINE
  5
33a
100
AcDbEntity
  8
comments
 62
7
100
AcDbSpline
 70
8
 71
3
 72
8
 73
4
 74
0
 40
0
 40
0
 40
0
 40
0
 40
1
 40
1
 40
1
 40
1
 10
308.369528
 20
2203.162724
 30
0.0
 10
308.843032
 20
2203.262404
 30
0.0
 10
309.320704
 20
2203.312244
 30
0.0
 10
309.802536
 20
2203.312244
 30
0.0
  0
SPLINE
  5
33b
100
AcDbEntity
  8
comments
 62
7
100
AcDbSpline
 70
8
 71
3
 72
8
 73
4
 74
0
 40
0
 40
0
 40
0
 40
0
 40
1
 40
1
 40
1
 40
1
 10
309.802536
 20
2203.312244
 30
0.0
 10
310.558488
 20
2203.312244
 30
0.0
 10
311.231376
 20
2203.208404
 30
0.0
 10
311.821208
 20
2203.000724
 30
0.0
  0
SPLINE
  5
33c
100
AcDbEntity
  8
comments
 62
7
100
AcDbSpline
 70
8
 71
3
 72
8
 73
4
 74
0
 40
0
 40
0
 40
0
 40
0
 40
1
 40
1
 40
1
 40
1
 10
311.821208
 20
2203.000724
 30
0.0
 10
312.411016
 20
2202.793044
 30
0.0
 10
312.917760
 20
2202.506404
 30
0.0
 10
313.341440
 20
2202.140884
 30
0.0
  0
SPLINE
  5
33d
100
AcDbEntity
  8
comments
 62
7
100
AcDbSpline
 70
8
 71
3
 72
8
 73
4
 74
0
 40
0
 40
0
 40
0
 40
0
 40
1
 40
1
 40
1
 40
1
 10
313.341440
 20
2202.140884
 30
0.0
 10
313.773408
 20
2201.783684
 30
0.0
 10
314.122312
 20
2201.360004
 30
0.0
 10
314.388160
 20
2200.869924
 30
0.0
  0
SPLINE
  5
33e
100
AcDbEntity
  8
comments
 62
7
100
AcDbSpline
 70
8
 71
3
 72
8
 73
4
 74
0
 40
0
 40
0
 40
0
 40
0
 40
1
 40
1
 40
1
 40
1
 10
314.388160
 20
2200.869924
 30
0.0
 10
314.653984
 20
2200.379764
 30
0.0
 10
314.840896
 20
2199.852244
 30
0.0
 10
314.948904
 20
2199.287364
 30
0.0
  0
LWPOLYLINE
  5
33f
100
AcDbEntity
  8
comments
 62
7
100
AcDbPolyline
 90
2
 70
0
 10
312.755776
 20
2193.742244
 30
0.0
 10
315.023664
 20
2193.592724
 30
0.0
  0
SPLINE
  5
340
100
AcDbEntity
  8
comments
 62
7
100
AcDbSpline
 70
8
 71
3
 72
8
 73
4
 74
0
 40
0
 40
0
 40
0
 40
0
 40
1
 40
1
 40
1
 40
1
 10
312.643624
 20
2199.112884
 30
0.0
 10
312.527312
 20
2199.860564
 30
0.0
 10
312.232408
 20
2200.454564
 30
0.0
 10
311.758904
 20
2200.894804
 30
0.0
  0
SPLINE
  5
341
100
AcDbEntity
  8
comments
 62
7
100
AcDbSpline
 70
8
 71
3
 72
8
 73
4
 74
0
 40
0
 40
0
 40
0
 40
0
 40
1
 40
1
 40
1
 40
1
 10
311.758904
 20
2200.894804
 30
0.0
 10
311.285376
 20
2201.335124
 30
0.0
 10
310.612488
 20
2201.555204
 30
0.0
 10
309.740232
 20
2201.555284
 30
0.0
  0
SPLINE
  5
342
100
AcDbEntity
  8
comments
 62
7
100
AcDbSpline
 70
8
 71
3
 72
8
 73
4
 74
0
 40
0
 40
0
 40
0
 40
0
 40
1
 40
1
 40
1
 40
1
 10
309.740232
 20
2201.555284
 30
0.0
 10
309.100560
 20
2201.555204
 30
0.0
 10
308.564744
 20
2201.447284
 30
0.0
 10
308.132768
 20
2201.231284
 30
0.0
  0
SPLINE
  5
343
100
AcDbEntity
  8
comments
 62
7
100
AcDbSpline
 70
8
 71
3
 72
8
 73
4
 74
0
 40
0
 40
0
 40
0
 40
0
 40
1
 40
1
 40
1
 40
1
 10
308.132768
 20
2201.231284
 30
0.0
 10
307.709088
 20
2201.023604
 30
0.0
 10
307.364336
 20
2200.703764
 30
0.0
 10
307.098512
 20
2200.271764
 30
0.0
  0
SPLINE
  5
344
100
AcDbEntity
  8
comments
 62
7
100
AcDbSpline
 70
8
 71
3
 72
8
 73
4
 74
0
 40
0
 40
0
 40
0
 40
0
 40
1
 40
1
 40
1
 40
1
 10
307.098512
 20
2200.271764
 30
0.0
 10
306.832672
 20
2199.848084
 30
0.0
 10
306.641608
 20
2199.312244
 30
0.0
 10
306.525304
 20
2198.664324
 30
0.0
  0
SPLINE
  5
345
100
AcDbEntity
  8
comments
 62
7
100
AcDbSpline
 70
8
 71
3
 72
8
 73
4
 74
0
 40
0
 40
0
 40
0
 40
0
 40
1
 40
1
 40
1
 40
1
 10
306.525304
 20
2198.664324
 30
0.0
 10
306.417312
 20
2198.016324
 30
0.0
 10
306.363312
 20
2197.256244
 30
0.0
 10
306.363312
 20
2196.383924
 30
0.0
  0
SPLINE
  5
346
100
AcDbEntity
  8
comments
 62
7
100
AcDbSpline
 70
8
 71
3
 72
8
 73
4
 74
0
 40
0
 40
0
 40
0
 40
0
 40
1
 40
1
 40
1
 40
1
 10
322.599920
 20
2189.680004
 30
0.0
 10
322.259312
 20
2189.588564
 30
0.0
 10
321.910408
 20
2189.518004
 30
0.0
 10
321.553200
 20
2189.468164
 30
0.0
  0
SPLINE
  5
347
100
AcDbEntity
  8
comments
 62
7
100
AcDbSpline
 70
8
 71
3
 72
8
 73
4
 74
0
 40
0
 40
0
 40
0
 40
0
 40
1
 40
1
 40
1
 40
1
 10
321.553200
 20
2189.468164
 30
0.0
 10
321.204288
 20
2189.409764
 30
0.0
 10
320.797232
 20
2189.380884
 30
0.0
 10
320.332024
 20
2189.380884
 30
0.0
  0
SPLINE
  5
348
100
AcDbEntity
  8
comments
 62
7
100
AcDbSpline
 70
8
 71
3
 72
8
 73
4
 74
0
 40
0
 40
0
 40
0
 40
0
 40
1
 40
1
 40
1
 40
1
 10
320.332024
 20
2189.380884
 30
0.0
 10
318.537648
 20
2189.380884
 30
0.0
 10
317.640464
 20
2190.398564
 30
0.0
 10
317.640464
 20
2192.433844
 30
0.0
  0
LWPOLYLINE
  5
349
100
AcDbEntity
  8
comments
 62
7
100
AcDbPolyline
 90
2
 70
0
 10
314.948904
 20
2199.287364
 30
0.0
 10
312.643624
 20
2199.112884
 30
0.0
  0
SPLINE
  5
34a
100
AcDbEntity
  8
comments
 62
7
100
AcDbSpline
 70
8
 71
3
 72
8
 73
4
 74
0
 40
0
 40
0
 40
0
 40
0
 40
1
 40
1
 40
1
 40
1
 10
319.883432
 20
2192.919844
 30
0.0
 10
319.883432
 20
2192.271844
 30
0.0
 10
319.987272
 20
2191.814964
 30
0.0
 10
320.194960
 20
2191.549124
 30
0.0
  0
SPLINE
  5
34b
100
AcDbEntity
  8
comments
 62
7
100
AcDbSpline
 70
8
 71
3
 72
8
 73
4
 74
0
 40
0
 40
0
 40
0
 40
0
 40
1
 40
1
 40
1
 40
1
 10
320.194960
 20
2191.549124
 30
0.0
 10
320.410944
 20
2191.291604
 30
0.0
 10
320.780616
 20
2191.162804
 30
0.0
 10
321.303976
 20
2191.162804
 30
0.0
  0
SPLINE
  5
34c
100
AcDbEntity
  8
comments
 62
7
100
AcDbSpline
 70
8
 71
3
 72
8
 73
4
 74
0
 40
0
 40
0
 40
0
 40
0
 40
1
 40
1
 40
1
 40
1
 10
321.303976
 20
2191.162804
 30
0.0
 10
321.519960
 20
2191.162804
 30
0.0
 10
321.727648
 20
2191.179604
 30
0.0
 10
321.927024
 20
2191.212404
 30
0.0
  0
SPLINE
  5
34d
100
AcDbEntity
  8
comments
 62
7
100
AcDbSpline
 70
8
 71
3
 72
8
 73
4
 74
0
 40
0
 40
0
 40
0
 40
0
 40
1
 40
1
 40
1
 40
1
 10
321.927024
 20
2191.212404
 30
0.0
 10
322.134704
 20
2191.246004
 30
0.0
 10
322.359000
 20
2191.286804
 30
0.0
 10
322.599920
 20
2191.337044
 30
0.0
  0
LWPOLYLINE
  5
34e
100
AcDbEntity
  8
comments
 62
7
100
AcDbPolyline
 90
12
 70
0
 10
317.640464
 20
2192.433844
 30
0.0
 10
317.640464
 20
2201.430644
 30
0.0
 10
316.082848
 20
2201.430644
 30
0.0
 10
316.082848
 20
2203.063044
 30
0.0
 10
317.727688
 20
2203.063044
 30
0.0
 10
318.388120
 20
2206.078564
 30
0.0
 10
319.883432
 20
2206.078564
 30
0.0
 10
319.883432
 20
2203.063044
 30
0.0
 10
322.375624
 20
2203.063044
 30
0.0
 10
322.375624
 20
2201.430644
 30
0.0
 10
319.883432
 20
2201.430644
 30
0.0
 10
319.883432
 20
2192.919844
 30
0.0
  0
LWPOLYLINE
  5
34f
100
AcDbEntity
  8
comments
 62
7
100
AcDbPolyline
 90
2
 70
0
 10
322.599920
 20
2191.337044
 30
0.0
 10
322.599920
 20
2189.679764
 30
0.0
  0
SPLINE
  5
350
100
AcDbEntity
  8
comments
 62
7
100
AcDbSpline
 70
8
 71
3
 72
8
 73
4
 74
0
 40
0
 40
0
 40
0
 40
0
 40
1
 40
1
 40
1
 40
1
 10
324.543824
 20
2199.922884
 30
0.0
 10
324.543824
 20
2200.205284
 30
0.0
 10
324.539824
 20
2200.491924
 30
0.0
 10
324.531344
 20
2200.782644
 30
0.0
  0
SPLINE
  5
351
100
AcDbEntity
  8
comments
 62
7
100
AcDbSpline
 70
8
 71
3
 72
8
 73
4
 74
0
 40
0
 40
0
 40
0
 40
0
 40
1
 40
1
 40
1
 40
1
 10
324.531344
 20
2200.782644
 30
0.0
 10
324.531344
 20
2201.081764
 30
0.0
 10
324.527344
 20
2201.368324
 30
0.0
 10
324.518864
 20
2201.642484
 30
0.0
  0
SPLINE
  5
352
100
AcDbEntity
  8
comments
 62
7
100
AcDbSpline
 70
8
 71
3
 72
8
 73
4
 74
0
 40
0
 40
0
 40
0
 40
0
 40
1
 40
1
 40
1
 40
1
 10
324.518864
 20
2201.642484
 30
0.0
 10
324.510544
 20
2201.916644
 30
0.0
 10
324.502224
 20
2202.174164
 30
0.0
 10
324.493904
 20
2202.415044
 30
0.0
  0
SPLINE
  5
353
100
AcDbEntity
  8
comments
 62
7
100
AcDbSpline
 70
8
 71
3
 72
8
 73
4
 74
0
 40
0
 40
0
 40
0
 40
0
 40
1
 40
1
 40
1
 40
1
 10
324.493904
 20
2202.415044
 30
0.0
 10
324.485584
 20
2202.655924
 30
0.0
 10
324.477264
 20
2202.871924
 30
0.0
 10
324.468944
 20
2203.063044
 30
0.0
  0
LWPOLYLINE
  5
354
100
AcDbEntity
  8
comments
 62
7
100
AcDbPolyline
 90
2
 70
0
 10
324.543824
 20
2189.580324
 30
0.0
 10
324.543824
 20
2199.922884
 30
0.0
  0
SPLINE
  5
355
100
AcDbEntity
  8
comments
 62
7
100
AcDbSpline
 70
8
 71
3
 72
8
 73
4
 74
0
 40
0
 40
0
 40
0
 40
0
 40
1
 40
1
 40
1
 40
1
 10
326.587304
 20
2203.063044
 30
0.0
 10
326.595624
 20
2202.871924
 30
0.0
 10
326.603944
 20
2202.651764
 30
0.0
 10
326.612264
 20
2202.402564
 30
0.0
  0
SPLINE
  5
356
100
AcDbEntity
  8
comments
 62
7
100
AcDbSpline
 70
8
 71
3
 72
8
 73
4
 74
0
 40
0
 40
0
 40
0
 40
0
 40
1
 40
1
 40
1
 40
1
 10
326.612264
 20
2202.402564
 30
0.0
 10
326.628904
 20
2202.161684
 30
0.0
 10
326.641304
 20
2201.912484
 30
0.0
 10
326.649624
 20
2201.654964
 30
0.0
  0
SPLINE
  5
357
100
AcDbEntity
  8
comments
 62
7
100
AcDbSpline
 70
8
 71
3
 72
8
 73
4
 74
0
 40
0
 40
0
 40
0
 40
0
 40
1
 40
1
 40
1
 40
1
 10
326.649624
 20
2201.654964
 30
0.0
 10
326.666264
 20
2201.397364
 30
0.0
 10
326.674584
 20
2201.148164
 30
0.0
 10
326.674584
 20
2200.907284
 30
0.0
  0
SPLINE
  5
358
100
AcDbEntity
  8
comments
 62
7
100
AcDbSpline
 70
8
 71
3
 72
8
 73
4
 74
0
 40
0
 40
0
 40
0
 40
0
 40
1
 40
1
 40
1
 40
1
 10
326.674584
 20
2200.907284
 30
0.0
 10
326.682904
 20
2200.674644
 30
0.0
 10
326.687064
 20
2200.475284
 30
0.0
 10
326.687064
 20
2200.309124
 30
0.0
  0
LWPOLYLINE
  5
359
100
AcDbEntity
  8
comments
 62
7
100
AcDbPolyline
 90
2
 70
0
 10
324.468944
 20
2203.063044
 30
0.0
 10
326.587304
 20
2203.063044
 30
0.0
  0
SPLINE
  5
35a
100
AcDbEntity
  8
comments
 62
7
100
AcDbSpline
 70
8
 71
3
 72
8
 73
4
 74
0
 40
0
 40
0
 40
0
 40
0
 40
1
 40
1
 40
1
 40
1
 10
326.736904
 20
2200.309124
 30
0.0
 10
326.894736
 20
2200.824164
 30
0.0
 10
327.060880
 20
2201.268644
 30
0.0
 10
327.235336
 20
2201.642484
 30
0.0
  0
SPLINE
  5
35b
100
AcDbEntity
  8
comments
 62
7
100
AcDbSpline
 70
8
 71
3
 72
8
 73
4
 74
0
 40
0
 40
0
 40
0
 40
0
 40
1
 40
1
 40
1
 40
1
 10
327.235336
 20
2201.642484
 30
0.0
 10
327.418096
 20
2202.024564
 30
0.0
 10
327.629928
 20
2202.336164
 30
0.0
 10
327.870848
 20
2202.577044
 30
0.0
  0
SPLINE
  5
35c
100
AcDbEntity
  8
comments
 62
7
100
AcDbSpline
 70
8
 71
3
 72
8
 73
4
 74
0
 40
0
 40
0
 40
0
 40
0
 40
1
 40
1
 40
1
 40
1
 10
327.870848
 20
2202.577044
 30
0.0
 10
328.111752
 20
2202.826244
 30
0.0
 10
328.398352
 20
2203.009044
 30
0.0
 10
328.730648
 20
2203.125364
 30
0.0
  0
SPLINE
  5
35d
100
AcDbEntity
  8
comments
 62
7
100
AcDbSpline
 70
8
 71
3
 72
8
 73
4
 74
0
 40
0
 40
0
 40
0
 40
0
 40
1
 40
1
 40
1
 40
1
 10
328.730648
 20
2203.125364
 30
0.0
 10
329.062936
 20
2203.249924
 30
0.0
 10
329.465840
 20
2203.312244
 30
0.0
 10
329.939360
 20
2203.312244
 30
0.0
  0
SPLINE
  5
35e
100
AcDbEntity
  8
comments
 62
7
100
AcDbSpline
 70
8
 71
3
 72
8
 73
4
 74
0
 40
0
 40
0
 40
0
 40
0
 40
1
 40
1
 40
1
 40
1
 10
329.939360
 20
2203.312244
 30
0.0
 10
330.122112
 20
2203.312244
 30
0.0
 10
330.296568
 20
2203.295444
 30
0.0
 10
330.462720
 20
2203.262644
 30
0.0
  0
SPLINE
  5
35f
100
AcDbEntity
  8
comments
 62
7
100
AcDbSpline
 70
8
 71
3
 72
8
 73
4
 74
0
 40
0
 40
0
 40
0
 40
0
 40
1
 40
1
 40
1
 40
1
 10
330.462720
 20
2203.262644
 30
0.0
 10
330.628856
 20
2203.237844
 30
0.0
 10
330.757624
 20
2203.213044
 30
0.0
 10
330.849008
 20
2203.188244
 30
0.0
  0
LWPOLYLINE
  5
360
100
AcDbEntity
  8
comments
 62
7
100
AcDbPolyline
 90
2
 70
0
 10
326.687064
 20
2200.309124
 30
0.0
 10
326.736904
 20
2200.309124
 30
0.0
  0
SPLINE
  5
361
100
AcDbEntity
  8
comments
 62
7
100
AcDbSpline
 70
8
 71
3
 72
8
 73
4
 74
0
 40
0
 40
0
 40
0
 40
0
 40
1
 40
1
 40
1
 40
1
 10
330.849008
 20
2201.132244
 30
0.0
 10
330.699472
 20
2201.173844
 30
0.0
 10
330.525016
 20
2201.202644
 30
0.0
 10
330.325648
 20
2201.219444
 30
0.0
  0
SPLINE
  5
362
100
AcDbEntity
  8
comments
 62
7
100
AcDbSpline
 70
8
 71
3
 72
8
 73
4
 74
0
 40
0
 40
0
 40
0
 40
0
 40
1
 40
1
 40
1
 40
1
 10
330.325648
 20
2201.219444
 30
0.0
 10
330.126272
 20
2201.244244
 30
0.0
 10
329.901976
 20
2201.257044
 30
0.0
 10
329.652760
 20
2201.257044
 30
0.0
  0
SPLINE
  5
363
100
AcDbEntity
  8
comments
 62
7
100
AcDbSpline
 70
8
 71
3
 72
8
 73
4
 74
0
 40
0
 40
0
 40
0
 40
0
 40
1
 40
1
 40
1
 40
1
 10
329.652760
 20
2201.257044
 30
0.0
 10
329.137704
 20
2201.257044
 30
0.0
 10
328.697416
 20
2201.140724
 30
0.0
 10
328.331904
 20
2200.908164
 30
0.0
  0
SPLINE
  5
364
100
AcDbEntity
  8
comments
 62
7
100
AcDbSpline
 70
8
 71
3
 72
8
 73
4
 74
0
 40
0
 40
0
 40
0
 40
0
 40
1
 40
1
 40
1
 40
1
 10
328.331904
 20
2200.908164
 30
0.0
 10
327.974680
 20
2200.675524
 30
0.0
 10
327.679776
 20
2200.351604
 30
0.0
 10
327.447176
 20
2199.936244
 30
0.0
  0
SPLINE
  5
365
100
AcDbEntity
  8
comments
 62
7
100
AcDbSpline
 70
8
 71
3
 72
8
 73
4
 74
0
 40
0
 40
0
 40
0
 40
0
 40
1
 40
1
 40
1
 40
1
 10
327.447176
 20
2199.936244
 30
0.0
 10
327.222872
 20
2199.529124
 30
0.0
 10
327.056728
 20
2199.039044
 30
0.0
 10
326.948736
 20
2198.465844
 30
0.0
  0
SPLINE
  5
366
100
AcDbEntity
  8
comments
 62
7
100
AcDbSpline
 70
8
 71
3
 72
8
 73
4
 74
0
 40
0
 40
0
 40
0
 40
0
 40
1
 40
1
 40
1
 40
1
 10
326.948736
 20
2198.465844
 30
0.0
 10
326.840736
 20
2197.900884
 30
0.0
 10
326.786744
 20
2197.282004
 30
0.0
 10
326.786744
 20
2196.609124
 30
0.0
  0
LWPOLYLINE
  5
367
100
AcDbEntity
  8
comments
 62
7
100
AcDbPolyline
 90
2
 70
0
 10
330.849008
 20
2203.188244
 30
0.0
 10
330.849008
 20
2201.132244
 30
0.0
  0
SPLINE
  5
368
100
AcDbEntity
  8
comments
 62
7
100
AcDbSpline
 70
8
 71
3
 72
8
 73
4
 74
0
 40
0
 40
0
 40
0
 40
0
 40
1
 40
1
 40
1
 40
1
 10
344.419016
 20
2196.334084
 30
0.0
 10
344.419008
 20
2193.974884
 30
0.0
 10
343.899800
 20
2192.217844
 30
0.0
 10
342.861400
 20
2191.063124
 30
0.0
  0
SPLINE
  5
369
100
AcDbEntity
  8
comments
 62
7
100
AcDbSpline
 70
8
 71
3
 72
8
 73
4
 74
0
 40
0
 40
0
 40
0
 40
0
 40
1
 40
1
 40
1
 40
1
 10
342.861400
 20
2191.063124
 30
0.0
 10
341.822976
 20
2189.908404
 30
0.0
 10
340.315208
 20
2189.331044
 30
0.0
 10
338.338080
 20
2189.331044
 30
0.0
  0
SPLINE
  5
36a
100
AcDbEntity
  8
comments
 62
7
100
AcDbSpline
 70
8
 71
3
 72
8
 73
4
 74
0
 40
0
 40
0
 40
0
 40
0
 40
1
 40
1
 40
1
 40
1
 10
338.338080
 20
2189.331044
 30
0.0
 10
337.399352
 20
2189.331044
 30
0.0
 10
336.560312
 20
2189.472324
 30
0.0
 10
335.820968
 20
2189.754724
 30
0.0
  0
SPLINE
  5
36b
100
AcDbEntity
  8
comments
 62
7
100
AcDbSpline
 70
8
 71
3
 72
8
 73
4
 74
0
 40
0
 40
0
 40
0
 40
0
 40
1
 40
1
 40
1
 40
1
 10
335.820968
 20
2189.754724
 30
0.0
 10
335.081616
 20
2190.037204
 30
0.0
 10
334.454416
 20
2190.469204
 30
0.0
 10
333.939368
 20
2191.050644
 30
0.0
  0
SPLINE
  5
36c
100
AcDbEntity
  8
comments
 62
7
100
AcDbSpline
 70
8
 71
3
 72
8
 73
4
 74
0
 40
0
 40
0
 40
0
 40
0
 40
1
 40
1
 40
1
 40
1
 10
333.939368
 20
2191.050644
 30
0.0
 10
333.432624
 20
2191.632164
 30
0.0
 10
333.042176
 20
2192.359044
 30
0.0
 10
332.768040
 20
2193.231364
 30
0.0
  0
SPLINE
  5
36d
100
AcDbEntity
  8
comments
 62
7
100
AcDbSpline
 70
8
 71
3
 72
8
 73
4
 74
0
 40
0
 40
0
 40
0
 40
0
 40
1
 40
1
 40
1
 40
1
 10
332.768040
 20
2193.231364
 30
0.0
 10
332.502208
 20
2194.111924
 30
0.0
 10
332.369288
 20
2195.146164
 30
0.0
 10
332.369288
 20
2196.334084
 30
0.0
  0
SPLINE
  5
36e
100
AcDbEntity
  8
comments
 62
7
100
AcDbSpline
 70
8
 71
3
 72
8
 73
4
 74
0
 40
0
 40
0
 40
0
 40
0
 40
1
 40
1
 40
1
 40
1
 10
332.369288
 20
2196.334084
 30
0.0
 10
332.369288
 20
2200.986164
 30
0.0
 10
334.383808
 20
2203.312244
 30
0.0
 10
338.412848
 20
2203.312244
 30
0.0
  0
SPLINE
  5
36f
100
AcDbEntity
  8
comments
 62
7
100
AcDbSpline
 70
8
 71
3
 72
8
 73
4
 74
0
 40
0
 40
0
 40
0
 40
0
 40
1
 40
1
 40
1
 40
1
 10
338.412848
 20
2203.312244
 30
0.0
 10
339.459552
 20
2203.312244
 30
0.0
 10
340.360896
 20
2203.166884
 30
0.0
 10
341.116872
 20
2202.876084
 30
0.0
  0
SPLINE
  5
370
100
AcDbEntity
  8
comments
 62
7
100
AcDbSpline
 70
8
 71
3
 72
8
 73
4
 74
0
 40
0
 40
0
 40
0
 40
0
 40
1
 40
1
 40
1
 40
1
 10
341.116872
 20
2202.876084
 30
0.0
 10
341.881128
 20
2202.585364
 30
0.0
 10
342.504176
 20
2202.149204
 30
0.0
 10
342.986008
 20
2201.567684
 30
0.0
  0
SPLINE
  5
371
100
AcDbEntity
  8
comments
 62
7
100
AcDbSpline
 70
8
 71
3
 72
8
 73
4
 74
0
 40
0
 40
0
 40
0
 40
0
 40
1
 40
1
 40
1
 40
1
 10
342.986008
 20
2201.567684
 30
0.0
 10
343.476128
 20
2200.986164
 30
0.0
 10
343.837496
 20
2200.259284
 30
0.0
 10
344.070112
 20
2199.387044
 30
0.0
  0
SPLINE
  5
372
100
AcDbEntity
  8
comments
 62
7
100
AcDbSpline
 70
8
 71
3
 72
8
 73
4
 74
0
 40
0
 40
0
 40
0
 40
0
 40
1
 40
1
 40
1
 40
1
 10
344.070112
 20
2199.387044
 30
0.0
 10
344.302704
 20
2198.514804
 30
0.0
 10
344.419008
 20
2197.497124
 30
0.0
 10
344.419016
 20
2196.334084
 30
0.0
  0
SPLINE
  5
373
100
AcDbEntity
  8
comments
 62
7
100
AcDbSpline
 70
8
 71
3
 72
8
 73
4
 74
0
 40
0
 40
0
 40
0
 40
0
 40
1
 40
1
 40
1
 40
1
 10
342.063904
 20
2196.334084
 30
0.0
 10
342.063888
 20
2197.380804
 30
0.0
 10
341.980816
 20
2198.244804
 30
0.0
 10
341.814680
 20
2198.926004
 30
0.0
  0
SPLINE
  5
374
100
AcDbEntity
  8
comments
 62
7
100
AcDbSpline
 70
8
 71
3
 72
8
 73
4
 74
0
 40
0
 40
0
 40
0
 40
0
 40
1
 40
1
 40
1
 40
1
 10
341.814680
 20
2198.926004
 30
0.0
 10
341.656832
 20
2199.607204
 30
0.0
 10
341.420072
 20
2200.151284
 30
0.0
 10
341.104408
 20
2200.558404
 30
0.0
  0
SPLINE
  5
375
100
AcDbEntity
  8
comments
 62
7
100
AcDbSpline
 70
8
 71
3
 72
8
 73
4
 74
0
 40
0
 40
0
 40
0
 40
0
 40
1
 40
1
 40
1
 40
1
 10
341.104408
 20
2200.558404
 30
0.0
 10
340.797032
 20
2200.965444
 30
0.0
 10
340.419048
 20
2201.247844
 30
0.0
 10
339.970464
 20
2201.405684
 30
0.0
  0
SPLINE
  5
376
100
AcDbEntity
  8
comments
 62
7
100
AcDbSpline
 70
8
 71
3
 72
8
 73
4
 74
0
 40
0
 40
0
 40
0
 40
0
 40
1
 40
1
 40
1
 40
1
 10
339.970464
 20
2201.405684
 30
0.0
 10
339.521864
 20
2201.571844
 30
0.0
 10
339.015120
 20
2201.654964
 30
0.0
 10
338.450232
 20
2201.654964
 30
0.0
  0
SPLINE
  5
377
100
AcDbEntity
  8
comments
 62
7
100
AcDbSpline
 70
8
 71
3
 72
8
 73
4
 74
0
 40
0
 40
0
 40
0
 40
0
 40
1
 40
1
 40
1
 40
1
 10
338.450232
 20
2201.654964
 30
0.0
 10
337.877016
 20
2201.654964
 30
0.0
 10
337.357816
 20
2201.567684
 30
0.0
 10
336.892608
 20
2201.393284
 30
0.0
  0
SPLINE
  5
378
100
AcDbEntity
  8
comments
 62
7
100
AcDbSpline
 70
8
 71
3
 72
8
 73
4
 74
0
 40
0
 40
0
 40
0
 40
0
 40
1
 40
1
 40
1
 40
1
 10
336.892608
 20
2201.393284
 30
0.0
 10
336.435704
 20
2201.227124
 30
0.0
 10
336.045264
 20
2200.936324
 30
0.0
 10
335.721280
 20
2200.520964
 30
0.0
  0
SPLINE
  5
379
100
AcDbEntity
  8
comments
 62
7
100
AcDbSpline
 70
8
 71
3
 72
8
 73
4
 74
0
 40
0
 40
0
 40
0
 40
0
 40
1
 40
1
 40
1
 40
1
 10
335.721280
 20
2200.520964
 30
0.0
 10
335.397296
 20
2200.113924
 30
0.0
 10
335.148072
 20
2199.569764
 30
0.0
 10
334.973624
 20
2198.888644
 30
0.0
  0
SPLINE
  5
37a
100
AcDbEntity
  8
comments
 62
7
100
AcDbSpline
 70
8
 71
3
 72
8
 73
4
 74
0
 40
0
 40
0
 40
0
 40
0
 40
1
 40
1
 40
1
 40
1
 10
334.973624
 20
2198.888644
 30
0.0
 10
334.807480
 20
2198.207444
 30
0.0
 10
334.724408
 20
2197.355924
 30
0.0
 10
334.724408
 20
2196.334084
 30
0.0
  0
SPLINE
  5
37b
100
AcDbEntity
  8
comments
 62
7
100
AcDbSpline
 70
8
 71
3
 72
8
 73
4
 74
0
 40
0
 40
0
 40
0
 40
0
 40
1
 40
1
 40
1
 40
1
 10
334.724408
 20
2196.334084
 30
0.0
 10
334.724408
 20
2195.287364
 30
0.0
 10
334.815784
 20
2194.419284
 30
0.0
 10
334.998552
 20
2193.729764
 30
0.0
  0
SPLINE
  5
37c
100
AcDbEntity
  8
comments
 62
7
100
AcDbSpline
 70
8
 71
3
 72
8
 73
4
 74
0
 40
0
 40
0
 40
0
 40
0
 40
1
 40
1
 40
1
 40
1
 10
334.998552
 20
2193.729764
 30
0.0
 10
335.181304
 20
2193.048564
 30
0.0
 10
335.430520
 20
2192.504484
 30
0.0
 10
335.746208
 20
2192.097364
 30
0.0
  0
SPLINE
  5
37d
100
AcDbEntity
  8
comments
 62
7
100
AcDbSpline
 70
8
 71
3
 72
8
 73
4
 74
0
 40
0
 40
0
 40
0
 40
0
 40
1
 40
1
 40
1
 40
1
 10
335.746208
 20
2192.097364
 30
0.0
 10
336.070184
 20
2191.690324
 30
0.0
 10
336.448168
 20
2191.403764
 30
0.0
 10
336.880152
 20
2191.237604
 30
0.0
  0
SPLINE
  5
37e
100
AcDbEntity
  8
comments
 62
7
100
AcDbSpline
 70
8
 71
3
 72
8
 73
4
 74
0
 40
0
 40
0
 40
0
 40
0
 40
1
 40
1
 40
1
 40
1
 10
336.880152
 20
2191.237604
 30
0.0
 10
337.320432
 20
2191.071444
 30
0.0
 10
337.798096
 20
2190.988404
 30
0.0
 10
338.313160
 20
2190.988404
 30
0.0
  0
SPLINE
  5
37f
100
AcDbEntity
  8
comments
 62
7
100
AcDbSpline
 70
8
 71
3
 72
8
 73
4
 74
0
 40
0
 40
0
 40
0
 40
0
 40
1
 40
1
 40
1
 40
1
 10
338.313160
 20
2190.988404
 30
0.0
 10
338.886352
 20
2190.988404
 30
0.0
 10
339.405560
 20
2191.067604
 30
0.0
 10
339.870776
 20
2191.225124
 30
0.0
  0
SPLINE
  5
380
100
AcDbEntity
  8
comments
 62
7
100
AcDbSpline
 70
8
 71
3
 72
8
 73
4
 74
0
 40
0
 40
0
 40
0
 40
0
 40
1
 40
1
 40
1
 40
1
 10
339.870776
 20
2191.225124
 30
0.0
 10
340.335976
 20
2191.391284
 30
0.0
 10
340.730568
 20
2191.677844
 30
0.0
 10
341.054568
 20
2192.084964
 30
0.0
  0
SPLINE
  5
381
100
AcDbEntity
  8
comments
 62
7
100
AcDbSpline
 70
8
 71
3
 72
8
 73
4
 74
0
 40
0
 40
0
 40
0
 40
0
 40
1
 40
1
 40
1
 40
1
 10
341.054568
 20
2192.084964
 30
0.0
 10
341.378536
 20
2192.492004
 30
0.0
 10
341.627760
 20
2193.040244
 30
0.0
 10
341.802224
 20
2193.729764
 30
0.0
  0
SPLINE
  5
382
100
AcDbEntity
  8
comments
 62
7
100
AcDbSpline
 70
8
 71
3
 72
8
 73
4
 74
0
 40
0
 40
0
 40
0
 40
0
 40
1
 40
1
 40
1
 40
1
 10
341.802224
 20
2193.729764
 30
0.0
 10
341.976664
 20
2194.419284
 30
0.0
 10
342.063888
 20
2195.287364
 30
0.0
 10
342.063904
 20
2196.334084
 30
0.0
  0
LWPOLYLINE
  5
383
100
AcDbEntity
  8
comments
 62
7
100
AcDbPolyline
 90
3
 70
0
 10
326.786744
 20
2196.609124
 30
0.0
 10
326.786744
 20
2189.581204
 30
0.0
 10
324.543776
 20
2189.581204
 30
0.0
  0
SPLINE
  5
384
100
AcDbEntity
  8
comments
 62
7
100
AcDbSpline
 70
8
 71
3
 72
8
 73
4
 74
0
 40
0
 40
0
 40
0
 40
0
 40
1
 40
1
 40
1
 40
1
 10
355.783392
 20
2198.128484
 30
0.0
 10
355.783384
 20
2198.784724
 30
0.0
 10
355.733552
 20
2199.333044
 30
0.0
 10
355.633864
 20
2199.773364
 30
0.0
  0
SPLINE
  5
385
100
AcDbEntity
  8
comments
 62
7
100
AcDbSpline
 70
8
 71
3
 72
8
 73
4
 74
0
 40
0
 40
0
 40
0
 40
0
 40
1
 40
1
 40
1
 40
1
 10
355.633864
 20
2199.773364
 30
0.0
 10
355.542472
 20
2200.213604
 30
0.0
 10
355.388784
 20
2200.566644
 30
0.0
 10
355.172808
 20
2200.832484
 30
0.0
  0
SPLINE
  5
386
100
AcDbEntity
  8
comments
 62
7
100
AcDbSpline
 70
8
 71
3
 72
8
 73
4
 74
0
 40
0
 40
0
 40
0
 40
0
 40
1
 40
1
 40
1
 40
1
 10
355.172808
 20
2200.832484
 30
0.0
 10
354.956808
 20
2201.106644
 30
0.0
 10
354.670208
 20
2201.297684
 30
0.0
 10
354.313000
 20
2201.405684
 30
0.0
  0
SPLINE
  5
387
100
AcDbEntity
  8
comments
 62
7
100
AcDbSpline
 70
8
 71
3
 72
8
 73
4
 74
0
 40
0
 40
0
 40
0
 40
0
 40
1
 40
1
 40
1
 40
1
 10
354.313000
 20
2201.405684
 30
0.0
 10
353.964088
 20
2201.522004
 30
0.0
 10
353.527952
 20
2201.580164
 30
0.0
 10
353.004600
 20
2201.580164
 30
0.0
  0
SPLINE
  5
388
100
AcDbEntity
  8
comments
 62
7
100
AcDbSpline
 70
8
 71
3
 72
8
 73
4
 74
0
 40
0
 40
0
 40
0
 40
0
 40
1
 40
1
 40
1
 40
1
 10
353.004600
 20
2201.580164
 30
0.0
 10
352.472928
 20
2201.580164
 30
0.0
 10
351.991104
 20
2201.484644
 30
0.0
 10
351.559136
 20
2201.293604
 30
0.0
  0
SPLINE
  5
389
100
AcDbEntity
  8
comments
 62
7
100
AcDbSpline
 70
8
 71
3
 72
8
 73
4
 74
0
 40
0
 40
0
 40
0
 40
0
 40
1
 40
1
 40
1
 40
1
 10
351.559136
 20
2201.293604
 30
0.0
 10
351.135456
 20
2201.110804
 30
0.0
 10
350.769936
 20
2200.840804
 30
0.0
 10
350.462568
 20
2200.483604
 30
0.0
  0
SPLINE
  5
38a
100
AcDbEntity
  8
comments
 62
7
100
AcDbSpline
 70
8
 71
3
 72
8
 73
4
 74
0
 40
0
 40
0
 40
0
 40
0
 40
1
 40
1
 40
1
 40
1
 10
350.462568
 20
2200.483604
 30
0.0
 10
350.163504
 20
2200.134724
 30
0.0
 10
349.930904
 20
2199.698564
 30
0.0
 10
349.764760
 20
2199.175204
 30
0.0
  0
SPLINE
  5
38b
100
AcDbEntity
  8
comments
 62
7
100
AcDbSpline
 70
8
 71
3
 72
8
 73
4
 74
0
 40
0
 40
0
 40
0
 40
0
 40
1
 40
1
 40
1
 40
1
 10
349.764760
 20
2199.175204
 30
0.0
 10
349.598608
 20
2198.660164
 30
0.0
 10
349.515536
 20
2198.066164
 30
0.0
 10
349.515544
 20
2197.393284
 30
0.0
  0
LWPOLYLINE
  5
38c
100
AcDbEntity
  8
comments
 62
7
100
AcDbPolyline
 90
2
 70
0
 10
355.783392
 20
2189.580324
 30
0.0
 10
355.783392
 20
2198.128484
 30
0.0
  0
SPLINE
  5
38d
100
AcDbEntity
  8
comments
 62
7
100
AcDbSpline
 70
8
 71
3
 72
8
 73
4
 74
0
 40
0
 40
0
 40
0
 40
0
 40
1
 40
1
 40
1
 40
1
 10
347.272576
 20
2200.184564
 30
0.0
 10
347.272568
 20
2200.466964
 30
0.0
 10
347.268576
 20
2200.761924
 30
0.0
 10
347.260096
 20
2201.069284
 30
0.0
  0
SPLINE
  5
38e
100
AcDbEntity
  8
comments
 62
7
100
AcDbSpline
 70
8
 71
3
 72
8
 73
4
 74
0
 40
0
 40
0
 40
0
 40
0
 40
1
 40
1
 40
1
 40
1
 10
347.260096
 20
2201.069284
 30
0.0
 10
347.260096
 20
2201.384964
 30
0.0
 10
347.256096
 20
2201.679844
 30
0.0
 10
347.247616
 20
2201.954004
 30
0.0
  0
SPLINE
  5
38f
100
AcDbEntity
  8
comments
 62
7
100
AcDbSpline
 70
8
 71
3
 72
8
 73
4
 74
0
 40
0
 40
0
 40
0
 40
0
 40
1
 40
1
 40
1
 40
1
 10
347.247616
 20
2201.954004
 30
0.0
 10
347.239296
 20
2202.236404
 30
0.0
 10
347.230976
 20
2202.477364
 30
0.0
 10
347.222736
 20
2202.676724
 30
0.0
  0
SPLINE
  5
390
100
AcDbEntity
  8
comments
 62
7
100
AcDbSpline
 70
8
 71
3
 72
8
 73
4
 74
0
 40
0
 40
0
 40
0
 40
0
 40
1
 40
1
 40
1
 40
1
 10
347.222736
 20
2202.676724
 30
0.0
 10
347.214416
 20
2202.876084
 30
0.0
 10
347.206096
 20
2203.004884
 30
0.0
 10
347.197776
 20
2203.063044
 30
0.0
  0
LWPOLYLINE
  5
391
100
AcDbEntity
  8
comments
 62
7
100
AcDbPolyline
 90
4
 70
0
 10
349.515544
 20
2197.393284
 30
0.0
 10
349.515544
 20
2189.580324
 30
0.0
 10
347.272576
 20
2189.580324
 30
0.0
 10
347.272576
 20
2200.184564
 30
0.0
  0
SPLINE
  5
392
100
AcDbEntity
  8
comments
 62
7
100
AcDbSpline
 70
8
 71
3
 72
8
 73
4
 74
0
 40
0
 40
0
 40
0
 40
0
 40
1
 40
1
 40
1
 40
1
 10
349.316136
 20
2203.063044
 30
0.0
 10
349.324456
 20
2203.021444
 30
0.0
 10
349.332776
 20
2202.909364
 30
0.0
 10
349.341016
 20
2202.726564
 30
0.0
  0
SPLINE
  5
393
100
AcDbEntity
  8
comments
 62
7
100
AcDbSpline
 70
8
 71
3
 72
8
 73
4
 74
0
 40
0
 40
0
 40
0
 40
0
 40
1
 40
1
 40
1
 40
1
 10
349.341016
 20
2202.726564
 30
0.0
 10
349.349336
 20
2202.543844
 30
0.0
 10
349.357656
 20
2202.332004
 30
0.0
 10
349.365976
 20
2202.091044
 30
0.0
  0
SPLINE
  5
394
100
AcDbEntity
  8
comments
 62
7
100
AcDbSpline
 70
8
 71
3
 72
8
 73
4
 74
0
 40
0
 40
0
 40
0
 40
0
 40
1
 40
1
 40
1
 40
1
 10
349.365976
 20
2202.091044
 30
0.0
 10
349.382616
 20
2201.858484
 30
0.0
 10
349.395016
 20
2201.617524
 30
0.0
 10
349.403336
 20
2201.368324
 30
0.0
  0
SPLINE
  5
395
100
AcDbEntity
  8
comments
 62
7
100
AcDbSpline
 70
8
 71
3
 72
8
 73
4
 74
0
 40
0
 40
0
 40
0
 40
0
 40
1
 40
1
 40
1
 40
1
 10
349.403336
 20
2201.368324
 30
0.0
 10
349.411656
 20
2201.127444
 30
0.0
 10
349.415816
 20
2200.923924
 30
0.0
 10
349.415816
 20
2200.757764
 30
0.0
  0
LWPOLYLINE
  5
396
100
AcDbEntity
  8
comments
 62
7
100
AcDbPolyline
 90
2
 70
0
 10
347.197776
 20
2203.063044
 30
0.0
 10
349.316136
 20
2203.063044
 30
0.0
  0
SPLINE
  5
397
100
AcDbEntity
  8
comments
 62
7
100
AcDbSpline
 70
8
 71
3
 72
8
 73
4
 74
0
 40
0
 40
0
 40
0
 40
0
 40
1
 40
1
 40
1
 40
1
 10
349.453176
 20
2200.757764
 30
0.0
 10
349.669160
 20
2201.148164
 30
0.0
 10
349.905912
 20
2201.501204
 30
0.0
 10
350.163448
 20
2201.816964
 30
0.0
  0
SPLINE
  5
398
100
AcDbEntity
  8
comments
 62
7
100
AcDbSpline
 70
8
 71
3
 72
8
 73
4
 74
0
 40
0
 40
0
 40
0
 40
0
 40
1
 40
1
 40
1
 40
1
 10
350.163448
 20
2201.816964
 30
0.0
 10
350.420968
 20
2202.132564
 30
0.0
 10
350.720032
 20
2202.398404
 30
0.0
 10
351.060632
 20
2202.614404
 30
0.0
  0
SPLINE
  5
399
100
AcDbEntity
  8
comments
 62
7
100
AcDbSpline
 70
8
 71
3
 72
8
 73
4
 74
0
 40
0
 40
0
 40
0
 40
0
 40
1
 40
1
 40
1
 40
1
 10
351.060632
 20
2202.614404
 30
0.0
 10
351.401224
 20
2202.838724
 30
0.0
 10
351.791672
 20
2203.009044
 30
0.0
 10
352.231960
 20
2203.125364
 30
0.0
  0
SPLINE
  5
39a
100
AcDbEntity
  8
comments
 62
7
100
AcDbSpline
 70
8
 71
3
 72
8
 73
4
 74
0
 40
0
 40
0
 40
0
 40
0
 40
1
 40
1
 40
1
 40
1
 10
352.231960
 20
2203.125364
 30
0.0
 10
352.672240
 20
2203.249924
 30
0.0
 10
353.183136
 20
2203.312244
 30
0.0
 10
353.764656
 20
2203.312244
 30
0.0
  0
SPLINE
  5
39b
100
AcDbEntity
  8
comments
 62
7
100
AcDbSpline
 70
8
 71
3
 72
8
 73
4
 74
0
 40
0
 40
0
 40
0
 40
0
 40
1
 40
1
 40
1
 40
1
 10
353.764656
 20
2203.312244
 30
0.0
 10
354.512304
 20
2203.312244
 30
0.0
 10
355.156120
 20
2203.220884
 30
0.0
 10
355.696104
 20
2203.038084
 30
0.0
  0
SPLINE
  5
39c
100
AcDbEntity
  8
comments
 62
7
100
AcDbSpline
 70
8
 71
3
 72
8
 73
4
 74
0
 40
0
 40
0
 40
0
 40
0
 40
1
 40
1
 40
1
 40
1
 10
355.696104
 20
2203.038084
 30
0.0
 10
356.236064
 20
2202.855364
 30
0.0
 10
356.680504
 20
2202.572884
 30
0.0
 10
357.029424
 20
2202.190724
 30
0.0
  0
SPLINE
  5
39d
100
AcDbEntity
  8
comments
 62
7
100
AcDbSpline
 70
8
 71
3
 72
8
 73
4
 74
0
 40
0
 40
0
 40
0
 40
0
 40
1
 40
1
 40
1
 40
1
 10
357.029424
 20
2202.190724
 30
0.0
 10
357.378320
 20
2201.808644
 30
0.0
 10
357.631688
 20
2201.314324
 30
0.0
 10
357.789536
 20
2200.707924
 30
0.0
  0
SPLINE
  5
39e
100
AcDbEntity
  8
comments
 62
7
100
AcDbSpline
 70
8
 71
3
 72
8
 73
4
 74
0
 40
0
 40
0
 40
0
 40
0
 40
1
 40
1
 40
1
 40
1
 10
357.789536
 20
2200.707924
 30
0.0
 10
357.955672
 20
2200.109764
 30
0.0
 10
358.038744
 20
2199.395364
 30
0.0
 10
358.038760
 20
2198.564644
 30
0.0
  0
LWPOLYLINE
  5
39f
100
AcDbEntity
  8
comments
 62
7
100
AcDbPolyline
 90
2
 70
0
 10
349.415816
 20
2200.757764
 30
0.0
 10
349.453176
 20
2200.757764
 30
0.0
  0
LWPOLYLINE
  5
3a0
100
AcDbEntity
  8
comments
 62
7
100
AcDbPolyline
 90
3
 70
0
 10
358.038760
 20
2198.564644
 30
0.0
 10
358.038760
 20
2189.580324
 30
0.0
 10
355.783328
 20
2189.580324
 30
0.0
  0
LWPOLYLINE
  5
3a1
100
AcDbEntity
  8
comments
 62
7
100
AcDbPolyline
 90
5
 70
0
 10
361.415736
 20
2205.929044
 30
0.0
 10
361.415736
 20
2208.072324
 30
0.0
 10
363.658704
 20
2208.072324
 30
0.0
 10
363.658704
 20
2205.929044
 30
0.0
 10
361.415736
 20
2205.929044
 30
0.0
  0
SPLINE
  5
3a2
100
AcDbEntity
  8
comments
 62
7
100
AcDbSpline
 70
8
 71
3
 72
8
 73
4
 74
0
 40
0
 40
0
 40
0
 40
0
 40
1
 40
1
 40
1
 40
1
 10
368.817536
 20
2196.383924
 30
0.0
 10
368.817528
 20
2195.611364
 30
0.0
 10
368.871536
 20
2194.901124
 30
0.0
 10
368.979528
 20
2194.253124
 30
0.0
  0
SPLINE
  5
3a3
100
AcDbEntity
  8
comments
 62
7
100
AcDbSpline
 70
8
 71
3
 72
8
 73
4
 74
0
 40
0
 40
0
 40
0
 40
0
 40
1
 40
1
 40
1
 40
1
 10
368.979528
 20
2194.253124
 30
0.0
 10
369.095824
 20
2193.605204
 30
0.0
 10
369.286896
 20
2193.044404
 30
0.0
 10
369.552728
 20
2192.570884
 30
0.0
  0
SPLINE
  5
3a4
100
AcDbEntity
  8
comments
 62
7
100
AcDbSpline
 70
8
 71
3
 72
8
 73
4
 74
0
 40
0
 40
0
 40
0
 40
0
 40
1
 40
1
 40
1
 40
1
 10
369.552728
 20
2192.570884
 30
0.0
 10
369.818560
 20
2192.105684
 30
0.0
 10
370.167464
 20
2191.744324
 30
0.0
 10
370.599448
 20
2191.486804
 30
0.0
  0
SPLINE
  5
3a5
100
AcDbEntity
  8
comments
 62
7
100
AcDbSpline
 70
8
 71
3
 72
8
 73
4
 74
0
 40
0
 40
0
 40
0
 40
0
 40
1
 40
1
 40
1
 40
1
 10
370.599448
 20
2191.486804
 30
0.0
 10
371.039728
 20
2191.229284
 30
0.0
 10
371.579704
 20
2191.100564
 30
0.0
 10
372.219368
 20
2191.100564
 30
0.0
  0
SPLINE
  5
3a6
100
AcDbEntity
  8
comments
 62
7
100
AcDbSpline
 70
8
 71
3
 72
8
 73
4
 74
0
 40
0
 40
0
 40
0
 40
0
 40
1
 40
1
 40
1
 40
1
 10
372.219368
 20
2191.100564
 30
0.0
 10
373.016864
 20
2191.100564
 30
0.0
 10
373.681448
 20
2191.316484
 30
0.0
 10
374.213120
 20
2191.748484
 30
0.0
  0
SPLINE
  5
3a7
100
AcDbEntity
  8
comments
 62
7
100
AcDbSpline
 70
8
 71
3
 72
8
 73
4
 74
0
 40
0
 40
0
 40
0
 40
0
 40
1
 40
1
 40
1
 40
1
 10
374.213120
 20
2191.748484
 30
0.0
 10
374.753088
 20
2192.180484
 30
0.0
 10
375.085376
 20
2192.845044
 30
0.0
 10
375.210000
 20
2193.742244
 30
0.0
  0
LWPOLYLINE
  5
3a8
100
AcDbEntity
  8
comments
 62
7
100
AcDbPolyline
 90
5
 70
0
 10
361.415736
 20
2189.580324
 30
0.0
 10
361.415736
 20
2203.063044
 30
0.0
 10
363.658704
 20
2203.063044
 30
0.0
 10
363.658704
 20
2189.580324
 30
0.0
 10
361.415736
 20
2189.580324
 30
0.0
  0
SPLINE
  5
3a9
100
AcDbEntity
  8
comments
 62
7
100
AcDbSpline
 70
8
 71
3
 72
8
 73
4
 74
0
 40
0
 40
0
 40
0
 40
0
 40
1
 40
1
 40
1
 40
1
 10
377.477888
 20
2193.592724
 30
0.0
 10
377.403088
 20
2193.036084
 30
0.0
 10
377.241120
 20
2192.500324
 30
0.0
 10
376.991912
 20
2191.985284
 30
0.0
  0
SPLINE
  5
3aa
100
AcDbEntity
  8
comments
 62
7
100
AcDbSpline
 70
8
 71
3
 72
8
 73
4
 74
0
 40
0
 40
0
 40
0
 40
0
 40
1
 40
1
 40
1
 40
1
 10
376.991912
 20
2191.985284
 30
0.0
 10
376.742680
 20
2191.470164
 30
0.0
 10
376.402080
 20
2191.017444
 30
0.0
 10
375.970112
 20
2190.627044
 30
0.0
  0
SPLINE
  5
3ab
100
AcDbEntity
  8
comments
 62
7
100
AcDbSpline
 70
8
 71
3
 72
8
 73
4
 74
0
 40
0
 40
0
 40
0
 40
0
 40
1
 40
1
 40
1
 40
1
 10
375.970112
 20
2190.627044
 30
0.0
 10
375.546432
 20
2190.236564
 30
0.0
 10
375.027224
 20
2189.920884
 30
0.0
 10
374.412496
 20
2189.680004
 30
0.0
  0
SPLINE
  5
3ac
100
AcDbEntity
  8
comments
 62
7
100
AcDbSpline
 70
8
 71
3
 72
8
 73
4
 74
0
 40
0
 40
0
 40
0
 40
0
 40
1
 40
1
 40
1
 40
1
 10
374.412496
 20
2189.680004
 30
0.0
 10
373.797752
 20
2189.447364
 30
0.0
 10
373.087472
 20
2189.331044
 30
0.0
 10
372.281672
 20
2189.331044
 30
0.0
  0
SPLINE
  5
3ad
100
AcDbEntity
  8
comments
 62
7
100
AcDbSpline
 70
8
 71
3
 72
8
 73
4
 74
0
 40
0
 40
0
 40
0
 40
0
 40
1
 40
1
 40
1
 40
1
 10
372.281672
 20
2189.331044
 30
0.0
 10
371.226648
 20
2189.331044
 30
0.0
 10
370.329456
 20
2189.509684
 30
0.0
 10
369.590112
 20
2189.866884
 30
0.0
  0
SPLINE
  5
3ae
100
AcDbEntity
  8
comments
 62
7
100
AcDbSpline
 70
8
 71
3
 72
8
 73
4
 74
0
 40
0
 40
0
 40
0
 40
0
 40
1
 40
1
 40
1
 40
1
 10
369.590112
 20
2189.866884
 30
0.0
 10
368.850760
 20
2190.224084
 30
0.0
 10
368.248480
 20
2190.714244
 30
0.0
 10
367.783280
 20
2191.337284
 30
0.0
  0
SPLINE
  5
3af
100
AcDbEntity
  8
comments
 62
7
100
AcDbSpline
 70
8
 71
3
 72
8
 73
4
 74
0
 40
0
 40
0
 40
0
 40
0
 40
1
 40
1
 40
1
 40
1
 10
367.783280
 20
2191.337284
 30
0.0
 10
367.326376
 20
2191.968644
 30
0.0
 10
366.994080
 20
2192.708004
 30
0.0
 10
366.786400
 20
2193.555364
 30
0.0
  0
SPLINE
  5
3b0
100
AcDbEntity
  8
comments
 62
7
100
AcDbSpline
 70
8
 71
3
 72
8
 73
4
 74
0
 40
0
 40
0
 40
0
 40
0
 40
1
 40
1
 40
1
 40
1
 10
366.786400
 20
2193.555364
 30
0.0
 10
366.578720
 20
2194.410964
 30
0.0
 10
366.474880
 20
2195.337204
 30
0.0
 10
366.474880
 20
2196.334084
 30
0.0
  0
SPLINE
  5
3b1
100
AcDbEntity
  8
comments
 62
7
100
AcDbSpline
 70
8
 71
3
 72
8
 73
4
 74
0
 40
0
 40
0
 40
0
 40
0
 40
1
 40
1
 40
1
 40
1
 10
366.474880
 20
2196.334084
 30
0.0
 10
366.474880
 20
2197.239604
 30
0.0
 10
366.549680
 20
2198.037124
 30
0.0
 10
366.699176
 20
2198.726644
 30
0.0
  0
SPLINE
  5
3b2
100
AcDbEntity
  8
comments
 62
7
100
AcDbSpline
 70
8
 71
3
 72
8
 73
4
 74
0
 40
0
 40
0
 40
0
 40
0
 40
1
 40
1
 40
1
 40
1
 10
366.699176
 20
2198.726644
 30
0.0
 10
366.848704
 20
2199.424404
 30
0.0
 10
367.056384
 20
2200.030884
 30
0.0
 10
367.322224
 20
2200.545924
 30
0.0
  0
SPLINE
  5
3b3
100
AcDbEntity
  8
comments
 62
7
100
AcDbSpline
 70
8
 71
3
 72
8
 73
4
 74
0
 40
0
 40
0
 40
0
 40
0
 40
1
 40
1
 40
1
 40
1
 10
367.322224
 20
2200.545924
 30
0.0
 10
367.596360
 20
2201.069284
 30
0.0
 10
367.916192
 20
2201.505364
 30
0.0
 10
368.281712
 20
2201.854324
 30
0.0
  0
SPLINE
  5
3b4
100
AcDbEntity
  8
comments
 62
7
100
AcDbSpline
 70
8
 71
3
 72
8
 73
4
 74
0
 40
0
 40
0
 40
0
 40
0
 40
1
 40
1
 40
1
 40
1
 10
368.281712
 20
2201.854324
 30
0.0
 10
368.647232
 20
2202.211524
 30
0.0
 10
369.041832
 20
2202.493924
 30
0.0
 10
369.465504
 20
2202.701684
 30
0.0
  0
SPLINE
  5
3b5
100
AcDbEntity
  8
comments
 62
7
100
AcDbSpline
 70
8
 71
3
 72
8
 73
4
 74
0
 40
0
 40
0
 40
0
 40
0
 40
1
 40
1
 40
1
 40
1
 10
369.465504
 20
2202.701684
 30
0.0
 10
369.897480
 20
2202.917604
 30
0.0
 10
370.350224
 20
2203.071284
 30
0.0
 10
370.823744
 20
2203.162724
 30
0.0
  0
SPLINE
  5
3b6
100
AcDbEntity
  8
comments
 62
7
100
AcDbSpline
 70
8
 71
3
 72
8
 73
4
 74
0
 40
0
 40
0
 40
0
 40
0
 40
1
 40
1
 40
1
 40
1
 10
370.823744
 20
2203.162724
 30
0.0
 10
371.297256
 20
2203.262404
 30
0.0
 10
371.774928
 20
2203.312244
 30
0.0
 10
372.256752
 20
2203.312244
 30
0.0
  0
SPLINE
  5
3b7
100
AcDbEntity
  8
comments
 62
7
100
AcDbSpline
 70
8
 71
3
 72
8
 73
4
 74
0
 40
0
 40
0
 40
0
 40
0
 40
1
 40
1
 40
1
 40
1
 10
372.256752
 20
2203.312244
 30
0.0
 10
373.012712
 20
2203.312244
 30
0.0
 10
373.685600
 20
2203.208404
 30
0.0
 10
374.275424
 20
2203.000724
 30
0.0
  0
SPLINE
  5
3b8
100
AcDbEntity
  8
comments
 62
7
100
AcDbSpline
 70
8
 71
3
 72
8
 73
4
 74
0
 40
0
 40
0
 40
0
 40
0
 40
1
 40
1
 40
1
 40
1
 10
374.275424
 20
2203.000724
 30
0.0
 10
374.865232
 20
2202.793044
 30
0.0
 10
375.371976
 20
2202.506404
 30
0.0
 10
375.795664
 20
2202.140884
 30
0.0
  0
SPLINE
  5
3b9
100
AcDbEntity
  8
comments
 62
7
100
AcDbSpline
 70
8
 71
3
 72
8
 73
4
 74
0
 40
0
 40
0
 40
0
 40
0
 40
1
 40
1
 40
1
 40
1
 10
375.795664
 20
2202.140884
 30
0.0
 10
376.227632
 20
2201.783684
 30
0.0
 10
376.576536
 20
2201.360004
 30
0.0
 10
376.842376
 20
2200.869924
 30
0.0
  0
SPLINE
  5
3ba
100
AcDbEntity
  8
comments
 62
7
100
AcDbSpline
 70
8
 71
3
 72
8
 73
4
 74
0
 40
0
 40
0
 40
0
 40
0
 40
1
 40
1
 40
1
 40
1
 10
376.842376
 20
2200.869924
 30
0.0
 10
377.108200
 20
2200.379764
 30
0.0
 10
377.295112
 20
2199.852244
 30
0.0
 10
377.403120
 20
2199.287364
 30
0.0
  0
LWPOLYLINE
  5
3bb
100
AcDbEntity
  8
comments
 62
7
100
AcDbPolyline
 90
2
 70
0
 10
375.210000
 20
2193.742244
 30
0.0
 10
377.477888
 20
2193.592724
 30
0.0
  0
SPLINE
  5
3bc
100
AcDbEntity
  8
comments
 62
7
100
AcDbSpline
 70
8
 71
3
 72
8
 73
4
 74
0
 40
0
 40
0
 40
0
 40
0
 40
1
 40
1
 40
1
 40
1
 10
375.097848
 20
2199.112884
 30
0.0
 10
374.981536
 20
2199.860564
 30
0.0
 10
374.686624
 20
2200.454564
 30
0.0
 10
374.213120
 20
2200.894804
 30
0.0
  0
SPLINE
  5
3bd
100
AcDbEntity
  8
comments
 62
7
100
AcDbSpline
 70
8
 71
3
 72
8
 73
4
 74
0
 40
0
 40
0
 40
0
 40
0
 40
1
 40
1
 40
1
 40
1
 10
374.213120
 20
2200.894804
 30
0.0
 10
373.739600
 20
2201.335124
 30
0.0
 10
373.066704
 20
2201.555204
 30
0.0
 10
372.194448
 20
2201.555284
 30
0.0
  0
SPLINE
  5
3be
100
AcDbEntity
  8
comments
 62
7
100
AcDbSpline
 70
8
 71
3
 72
8
 73
4
 74
0
 40
0
 40
0
 40
0
 40
0
 40
1
 40
1
 40
1
 40
1
 10
372.194448
 20
2201.555284
 30
0.0
 10
371.554784
 20
2201.555204
 30
0.0
 10
371.018960
 20
2201.447284
 30
0.0
 10
370.586992
 20
2201.231284
 30
0.0
  0
SPLINE
  5
3bf
100
AcDbEntity
  8
comments
 62
7
100
AcDbSpline
 70
8
 71
3
 72
8
 73
4
 74
0
 40
0
 40
0
 40
0
 40
0
 40
1
 40
1
 40
1
 40
1
 10
370.586992
 20
2201.231284
 30
0.0
 10
370.163312
 20
2201.023604
 30
0.0
 10
369.818560
 20
2200.703764
 30
0.0
 10
369.552728
 20
2200.271764
 30
0.0
  0
SPLINE
  5
3c0
100
AcDbEntity
  8
comments
 62
7
100
AcDbSpline
 70
8
 71
3
 72
8
 73
4
 74
0
 40
0
 40
0
 40
0
 40
0
 40
1
 40
1
 40
1
 40
1
 10
369.552728
 20
2200.271764
 30
0.0
 10
369.286896
 20
2199.848084
 30
0.0
 10
369.095824
 20
2199.312244
 30
0.0
 10
368.979528
 20
2198.664324
 30
0.0
  0
SPLINE
  5
3c1
100
AcDbEntity
  8
comments
 62
7
100
AcDbSpline
 70
8
 71
3
 72
8
 73
4
 74
0
 40
0
 40
0
 40
0
 40
0
 40
1
 40
1
 40
1
 40
1
 10
368.979528
 20
2198.664324
 30
0.0
 10
368.871528
 20
2198.016324
 30
0.0
 10
368.817528
 20
2197.256244
 30
0.0
 10
368.817536
 20
2196.383924
 30
0.0
  0
SPLINE
  5
3c2
100
AcDbEntity
  8
comments
 62
7
100
AcDbSpline
 70
8
 71
3
 72
8
 73
4
 74
0
 40
0
 40
0
 40
0
 40
0
 40
1
 40
1
 40
1
 40
1
 10
383.309608
 20
2189.331044
 30
0.0
 10
381.955520
 20
2189.331044
 30
0.0
 10
380.937872
 20
2189.688324
 30
0.0
 10
380.256680
 20
2190.402724
 30
0.0
  0
SPLINE
  5
3c3
100
AcDbEntity
  8
comments
 62
7
100
AcDbSpline
 70
8
 71
3
 72
8
 73
4
 74
0
 40
0
 40
0
 40
0
 40
0
 40
1
 40
1
 40
1
 40
1
 10
380.256680
 20
2190.402724
 30
0.0
 10
379.575480
 20
2191.117124
 30
0.0
 10
379.234880
 20
2192.097364
 30
0.0
 10
379.234880
 20
2193.343524
 30
0.0
  0
SPLINE
  5
3c4
100
AcDbEntity
  8
comments
 62
7
100
AcDbSpline
 70
8
 71
3
 72
8
 73
4
 74
0
 40
0
 40
0
 40
0
 40
0
 40
1
 40
1
 40
1
 40
1
 10
379.234880
 20
2193.343524
 30
0.0
 10
379.234880
 20
2194.232404
 30
0.0
 10
379.401024
 20
2194.959284
 30
0.0
 10
379.733320
 20
2195.524164
 30
0.0
  0
SPLINE
  5
3c5
100
AcDbEntity
  8
comments
 62
7
100
AcDbSpline
 70
8
 71
3
 72
8
 73
4
 74
0
 40
0
 40
0
 40
0
 40
0
 40
1
 40
1
 40
1
 40
1
 10
379.733320
 20
2195.524164
 30
0.0
 10
380.073920
 20
2196.097364
 30
0.0
 10
380.514200
 20
2196.545924
 30
0.0
 10
381.054176
 20
2196.869924
 30
0.0
  0
SPLINE
  5
3c6
100
AcDbEntity
  8
comments
 62
7
100
AcDbSpline
 70
8
 71
3
 72
8
 73
4
 74
0
 40
0
 40
0
 40
0
 40
0
 40
1
 40
1
 40
1
 40
1
 10
381.054176
 20
2196.869924
 30
0.0
 10
381.602456
 20
2197.193924
 30
0.0
 10
382.225504
 20
2197.418244
 30
0.0
 10
382.923320
 20
2197.542804
 30
0.0
  0
SPLINE
  5
3c7
100
AcDbEntity
  8
comments
 62
7
100
AcDbSpline
 70
8
 71
3
 72
8
 73
4
 74
0
 40
0
 40
0
 40
0
 40
0
 40
1
 40
1
 40
1
 40
1
 10
382.923320
 20
2197.542804
 30
0.0
 10
383.621128
 20
2197.667444
 30
0.0
 10
384.331400
 20
2197.738004
 30
0.0
 10
385.054144
 20
2197.754644
 30
0.0
  0
LWPOLYLINE
  5
3c8
100
AcDbEntity
  8
comments
 62
7
100
AcDbPolyline
 90
2
 70
0
 10
377.403120
 20
2199.287364
 30
0.0
 10
375.097848
 20
2199.112884
 30
0.0
  0
SPLINE
  5
3c9
100
AcDbEntity
  8
comments
 62
7
100
AcDbSpline
 70
8
 71
3
 72
8
 73
4
 74
0
 40
0
 40
0
 40
0
 40
0
 40
1
 40
1
 40
1
 40
1
 10
388.082152
 20
2198.539444
 30
0.0
 10
388.082136
 20
2199.096084
 30
0.0
 10
388.023992
 20
2199.569524
 30
0.0
 10
387.907696
 20
2199.960004
 30
0.0
  0
SPLINE
  5
3ca
100
AcDbEntity
  8
comments
 62
7
100
AcDbSpline
 70
8
 71
3
 72
8
 73
4
 74
0
 40
0
 40
0
 40
0
 40
0
 40
1
 40
1
 40
1
 40
1
 10
387.907696
 20
2199.960004
 30
0.0
 10
387.791384
 20
2200.350484
 30
0.0
 10
387.612776
 20
2200.666084
 30
0.0
 10
387.371872
 20
2200.907044
 30
0.0
  0
SPLINE
  5
3cb
100
AcDbEntity
  8
comments
 62
7
100
AcDbSpline
 70
8
 71
3
 72
8
 73
4
 74
0
 40
0
 40
0
 40
0
 40
0
 40
1
 40
1
 40
1
 40
1
 10
387.371872
 20
2200.907044
 30
0.0
 10
387.130952
 20
2201.147924
 30
0.0
 10
386.827736
 20
2201.322404
 30
0.0
 10
386.462224
 20
2201.430404
 30
0.0
  0
SPLINE
  5
3cc
100
AcDbEntity
  8
comments
 62
7
100
AcDbSpline
 70
8
 71
3
 72
8
 73
4
 74
0
 40
0
 40
0
 40
0
 40
0
 40
1
 40
1
 40
1
 40
1
 10
386.462224
 20
2201.430404
 30
0.0
 10
386.105008
 20
2201.546724
 30
0.0
 10
385.681336
 20
2201.604804
 30
0.0
 10
385.191208
 20
2201.604884
 30
0.0
  0
SPLINE
  5
3cd
100
AcDbEntity
  8
comments
 62
7
100
AcDbSpline
 70
8
 71
3
 72
8
 73
4
 74
0
 40
0
 40
0
 40
0
 40
0
 40
1
 40
1
 40
1
 40
1
 10
385.191208
 20
2201.604884
 30
0.0
 10
384.759224
 20
2201.604804
 30
0.0
 10
384.368784
 20
2201.571284
 30
0.0
 10
384.019880
 20
2201.505204
 30
0.0
  0
SPLINE
  5
3ce
100
AcDbEntity
  8
comments
 62
7
100
AcDbSpline
 70
8
 71
3
 72
8
 73
4
 74
0
 40
0
 40
0
 40
0
 40
0
 40
1
 40
1
 40
1
 40
1
 10
384.019880
 20
2201.505204
 30
0.0
 10
383.670968
 20
2201.446804
 30
0.0
 10
383.367752
 20
2201.334884
 30
0.0
 10
383.110232
 20
2201.168724
 30
0.0
  0
SPLINE
  5
3cf
100
AcDbEntity
  8
comments
 62
7
100
AcDbSpline
 70
8
 71
3
 72
8
 73
4
 74
0
 40
0
 40
0
 40
0
 40
0
 40
1
 40
1
 40
1
 40
1
 10
383.110232
 20
2201.168724
 30
0.0
 10
382.852704
 20
2201.010884
 30
0.0
 10
382.645024
 20
2200.790724
 30
0.0
 10
382.487184
 20
2200.508324
 30
0.0
  0
SPLINE
  5
3d0
100
AcDbEntity
  8
comments
 62
7
100
AcDbSpline
 70
8
 71
3
 72
8
 73
4
 74
0
 40
0
 40
0
 40
0
 40
0
 40
1
 40
1
 40
1
 40
1
 10
382.487184
 20
2200.508324
 30
0.0
 10
382.329344
 20
2200.234164
 30
0.0
 10
382.225504
 20
2199.885204
 30
0.0
 10
382.175664
 20
2199.461604
 30
0.0
  0
LWPOLYLINE
  5
3d1
100
AcDbEntity
  8
comments
 62
7
100
AcDbPolyline
 90
3
 70
0
 10
385.054144
 20
2197.754644
 30
0.0
 10
388.082152
 20
2197.804244
 30
0.0
 10
388.082152
 20
2198.539444
 30
0.0
  0
SPLINE
  5
3d2
100
AcDbEntity
  8
comments
 62
7
100
AcDbSpline
 70
8
 71
3
 72
8
 73
4
 74
0
 40
0
 40
0
 40
0
 40
0
 40
1
 40
1
 40
1
 40
1
 10
379.833008
 20
2199.673444
 30
0.0
 10
379.916080
 20
2200.205044
 30
0.0
 10
380.073920
 20
2200.691044
 30
0.0
 10
380.306520
 20
2201.131364
 30
0.0
  0
SPLINE
  5
3d3
100
AcDbEntity
  8
comments
 62
7
100
AcDbSpline
 70
8
 71
3
 72
8
 73
4
 74
0
 40
0
 40
0
 40
0
 40
0
 40
1
 40
1
 40
1
 40
1
 10
380.306520
 20
2201.131364
 30
0.0
 10
380.539128
 20
2201.579924
 30
0.0
 10
380.867264
 20
2201.966244
 30
0.0
 10
381.290936
 20
2202.290244
 30
0.0
  0
SPLINE
  5
3d4
100
AcDbEntity
  8
comments
 62
7
100
AcDbSpline
 70
8
 71
3
 72
8
 73
4
 74
0
 40
0
 40
0
 40
0
 40
0
 40
1
 40
1
 40
1
 40
1
 10
381.290936
 20
2202.290244
 30
0.0
 10
381.722912
 20
2202.614164
 30
0.0
 10
382.258736
 20
2202.863364
 30
0.0
 10
382.898400
 20
2203.037844
 30
0.0
  0
SPLINE
  5
3d5
100
AcDbEntity
  8
comments
 62
7
100
AcDbSpline
 70
8
 71
3
 72
8
 73
4
 74
0
 40
0
 40
0
 40
0
 40
0
 40
1
 40
1
 40
1
 40
1
 10
382.898400
 20
2203.037844
 30
0.0
 10
383.546360
 20
2203.220644
 30
0.0
 10
384.327248
 20
2203.312004
 30
0.0
 10
385.241056
 20
2203.312004
 30
0.0
  0
SPLINE
  5
3d6
100
AcDbEntity
  8
comments
 62
7
100
AcDbSpline
 70
8
 71
3
 72
8
 73
4
 74
0
 40
0
 40
0
 40
0
 40
0
 40
1
 40
1
 40
1
 40
1
 10
385.241056
 20
2203.312004
 30
0.0
 10
386.935736
 20
2203.312004
 30
0.0
 10
388.210904
 20
2202.921524
 30
0.0
 10
389.066560
 20
2202.140644
 30
0.0
  0
SPLINE
  5
3d7
100
AcDbEntity
  8
comments
 62
7
100
AcDbSpline
 70
8
 71
3
 72
8
 73
4
 74
0
 40
0
 40
0
 40
0
 40
0
 40
1
 40
1
 40
1
 40
1
 10
389.066560
 20
2202.140644
 30
0.0
 10
389.922200
 20
2201.368084
 30
0.0
 10
390.350024
 20
2200.246564
 30
0.0
 10
390.350040
 20
2198.776244
 30
0.0
  0
LWPOLYLINE
  5
3d8
100
AcDbEntity
  8
comments
 62
7
100
AcDbPolyline
 90
2
 70
0
 10
382.175664
 20
2199.461604
 30
0.0
 10
379.833008
 20
2199.673444
 30
0.0
  0
SPLINE
  5
3d9
100
AcDbEntity
  8
comments
 62
7
100
AcDbSpline
 70
8
 71
3
 72
8
 73
4
 74
0
 40
0
 40
0
 40
0
 40
0
 40
1
 40
1
 40
1
 40
1
 10
390.350040
 20
2192.969444
 30
0.0
 10
390.350024
 20
2192.304804
 30
0.0
 10
390.437256
 20
2191.802244
 30
0.0
 10
390.611720
 20
2191.461684
 30
0.0
  0
SPLINE
  5
3da
100
AcDbEntity
  8
comments
 62
7
100
AcDbSpline
 70
8
 71
3
 72
8
 73
4
 74
0
 40
0
 40
0
 40
0
 40
0
 40
1
 40
1
 40
1
 40
1
 10
390.611720
 20
2191.461684
 30
0.0
 10
390.786160
 20
2191.129364
 30
0.0
 10
391.118448
 20
2190.963204
 30
0.0
 10
391.608592
 20
2190.963204
 30
0.0
  0
SPLINE
  5
3db
100
AcDbEntity
  8
comments
 62
7
100
AcDbSpline
 70
8
 71
3
 72
8
 73
4
 74
0
 40
0
 40
0
 40
0
 40
0
 40
1
 40
1
 40
1
 40
1
 10
391.608592
 20
2190.963204
 30
0.0
 10
391.733192
 20
2190.963204
 30
0.0
 10
391.857800
 20
2190.971204
 30
0.0
 10
391.982424
 20
2190.988004
 30
0.0
  0
SPLINE
  5
3dc
100
AcDbEntity
  8
comments
 62
7
100
AcDbSpline
 70
8
 71
3
 72
8
 73
4
 74
0
 40
0
 40
0
 40
0
 40
0
 40
1
 40
1
 40
1
 40
1
 10
391.982424
 20
2190.988004
 30
0.0
 10
392.107016
 20
2191.004804
 30
0.0
 10
392.227472
 20
2191.025604
 30
0.0
 10
392.343792
 20
2191.050404
 30
0.0
  0
LWPOLYLINE
  5
3dd
100
AcDbEntity
  8
comments
 62
7
100
AcDbPolyline
 90
2
 70
0
 10
390.350040
 20
2198.776244
 30
0.0
 10
390.350040
 20
2192.969444
 30
0.0
  0
SPLINE
  5
3de
100
AcDbEntity
  8
comments
 62
7
100
AcDbSpline
 70
8
 71
3
 72
8
 73
4
 74
0
 40
0
 40
0
 40
0
 40
0
 40
1
 40
1
 40
1
 40
1
 10
392.343792
 20
2189.654804
 30
0.0
 10
392.061328
 20
2189.588404
 30
0.0
 10
391.778880
 20
2189.538484
 30
0.0
 10
391.496448
 20
2189.505284
 30
0.0
  0
SPLINE
  5
3df
100
AcDbEntity
  8
comments
 62
7
100
AcDbSpline
 70
8
 71
3
 72
8
 73
4
 74
0
 40
0
 40
0
 40
0
 40
0
 40
1
 40
1
 40
1
 40
1
 10
391.496448
 20
2189.505284
 30
0.0
 10
391.222288
 20
2189.471684
 30
0.0
 10
390.927384
 20
2189.455684
 30
0.0
 10
390.611720
 20
2189.455684
 30
0.0
  0
SPLINE
  5
3e0
100
AcDbEntity
  8
comments
 62
7
100
AcDbSpline
 70
8
 71
3
 72
8
 73
4
 74
0
 40
0
 40
0
 40
0
 40
0
 40
1
 40
1
 40
1
 40
1
 10
390.611720
 20
2189.455684
 30
0.0
 10
390.188032
 20
2189.455684
 30
0.0
 10
389.822512
 20
2189.509284
 30
0.0
 10
389.515160
 20
2189.617684
 30
0.0
  0
SPLINE
  5
3e1
100
AcDbEntity
  8
comments
 62
7
100
AcDbSpline
 70
8
 71
3
 72
8
 73
4
 74
0
 40
0
 40
0
 40
0
 40
0
 40
1
 40
1
 40
1
 40
1
 10
389.515160
 20
2189.617684
 30
0.0
 10
389.216080
 20
2189.734004
 30
0.0
 10
388.971016
 20
2189.904244
 30
0.0
 10
388.779960
 20
2190.128564
 30
0.0
  0
SPLINE
  5
3e2
100
AcDbEntity
  8
comments
 62
7
100
AcDbSpline
 70
8
 71
3
 72
8
 73
4
 74
0
 40
0
 40
0
 40
0
 40
0
 40
1
 40
1
 40
1
 40
1
 10
388.779960
 20
2190.128564
 30
0.0
 10
388.588880
 20
2190.361204
 30
0.0
 10
388.443504
 20
2190.643604
 30
0.0
 10
388.343832
 20
2190.975924
 30
0.0
  0
SPLINE
  5
3e3
100
AcDbEntity
  8
comments
 62
7
100
AcDbSpline
 70
8
 71
3
 72
8
 73
4
 74
0
 40
0
 40
0
 40
0
 40
0
 40
1
 40
1
 40
1
 40
1
 10
388.343832
 20
2190.975924
 30
0.0
 10
388.244128
 20
2191.316484
 30
0.0
 10
388.181824
 20
2191.711124
 30
0.0
 10
388.156912
 20
2192.159684
 30
0.0
  0
LWPOLYLINE
  5
3e4
100
AcDbEntity
  8
comments
 62
7
100
AcDbPolyline
 90
2
 70
0
 10
392.343792
 20
2191.050404
 30
0.0
 10
392.343792
 20
2189.654804
 30
0.0
  0
SPLINE
  5
3e5
100
AcDbEntity
  8
comments
 62
7
100
AcDbSpline
 70
8
 71
3
 72
8
 73
4
 74
0
 40
0
 40
0
 40
0
 40
0
 40
1
 40
1
 40
1
 40
1
 10
388.082112
 20
2192.159684
 30
0.0
 10
387.841184
 20
2191.727764
 30
0.0
 10
387.575352
 20
2191.337284
 30
0.0
 10
387.284608
 20
2190.988404
 30
0.0
  0
SPLINE
  5
3e6
100
AcDbEntity
  8
comments
 62
7
100
AcDbSpline
 70
8
 71
3
 72
8
 73
4
 74
0
 40
0
 40
0
 40
0
 40
0
 40
1
 40
1
 40
1
 40
1
 10
387.284608
 20
2190.988404
 30
0.0
 10
387.002152
 20
2190.639444
 30
0.0
 10
386.669864
 20
2190.340404
 30
0.0
 10
386.287736
 20
2190.091204
 30
0.0
  0
SPLINE
  5
3e7
100
AcDbEntity
  8
comments
 62
7
100
AcDbSpline
 70
8
 71
3
 72
8
 73
4
 74
0
 40
0
 40
0
 40
0
 40
0
 40
1
 40
1
 40
1
 40
1
 10
386.287736
 20
2190.091204
 30
0.0
 10
385.905592
 20
2189.850244
 30
0.0
 10
385.469456
 20
2189.663364
 30
0.0
 10
384.979336
 20
2189.530484
 30
0.0
  0
SPLINE
  5
3e8
100
AcDbEntity
  8
comments
 62
7
100
AcDbSpline
 70
8
 71
3
 72
8
 73
4
 74
0
 40
0
 40
0
 40
0
 40
0
 40
1
 40
1
 40
1
 40
1
 10
384.979336
 20
2189.530484
 30
0.0
 10
384.497504
 20
2189.397524
 30
0.0
 10
383.940920
 20
2189.331044
 30
0.0
 10
383.309568
 20
2189.331044
 30
0.0
  0
SPLINE
  5
3e9
100
AcDbEntity
  8
comments
 62
7
100
AcDbSpline
 70
8
 71
3
 72
8
 73
4
 74
0
 40
0
 40
0
 40
0
 40
0
 40
1
 40
1
 40
1
 40
1
 10
383.820464
 20
2191.013284
 30
0.0
 10
384.534888
 20
2191.013284
 30
0.0
 10
385.157936
 20
2191.142084
 30
0.0
 10
385.689608
 20
2191.399604
 30
0.0
  0
SPLINE
  5
3ea
100
AcDbEntity
  8
comments
 62
7
100
AcDbSpline
 70
8
 71
3
 72
8
 73
4
 74
0
 40
0
 40
0
 40
0
 40
0
 40
1
 40
1
 40
1
 40
1
 10
385.689608
 20
2191.399604
 30
0.0
 10
386.229576
 20
2191.665444
 30
0.0
 10
386.674016
 20
2192.001844
 30
0.0
 10
387.022928
 20
2192.408964
 30
0.0
  0
SPLINE
  5
3eb
100
AcDbEntity
  8
comments
 62
7
100
AcDbSpline
 70
8
 71
3
 72
8
 73
4
 74
0
 40
0
 40
0
 40
0
 40
0
 40
1
 40
1
 40
1
 40
1
 10
387.022928
 20
2192.408964
 30
0.0
 10
387.380136
 20
2192.816004
 30
0.0
 10
387.645968
 20
2193.260404
 30
0.0
 10
387.820432
 20
2193.742244
 30
0.0
  0
SPLINE
  5
3ec
100
AcDbEntity
  8
comments
 62
7
100
AcDbSpline
 70
8
 71
3
 72
8
 73
4
 74
0
 40
0
 40
0
 40
0
 40
0
 40
1
 40
1
 40
1
 40
1
 10
387.820432
 20
2193.742244
 30
0.0
 10
387.994872
 20
2194.224084
 30
0.0
 10
388.082096
 20
2194.685124
 30
0.0
 10
388.082112
 20
2195.125444
 30
0.0
  0
LWPOLYLINE
  5
3ed
100
AcDbEntity
  8
comments
 62
7
100
AcDbPolyline
 90
2
 70
0
 10
388.156912
 20
2192.159684
 30
0.0
 10
388.082112
 20
2192.159684
 30
0.0
  0
SPLINE
  5
3ee
100
AcDbEntity
  8
comments
 62
7
100
AcDbSpline
 70
8
 71
3
 72
8
 73
4
 74
0
 40
0
 40
0
 40
0
 40
0
 40
1
 40
1
 40
1
 40
1
 10
385.627304
 20
2196.184804
 30
0.0
 10
385.079016
 20
2196.176804
 30
0.0
 10
384.555656
 20
2196.135204
 30
0.0
 10
384.057224
 20
2196.060244
 30
0.0
  0
SPLINE
  5
3ef
100
AcDbEntity
  8
comments
 62
7
100
AcDbSpline
 70
8
 71
3
 72
8
 73
4
 74
0
 40
0
 40
0
 40
0
 40
0
 40
1
 40
1
 40
1
 40
1
 10
384.057224
 20
2196.060244
 30
0.0
 10
383.567088
 20
2195.993844
 30
0.0
 10
383.135112
 20
2195.856644
 30
0.0
 10
382.761288
 20
2195.649044
 30
0.0
  0
SPLINE
  5
3f0
100
AcDbEntity
  8
comments
 62
7
100
AcDbSpline
 70
8
 71
3
 72
8
 73
4
 74
0
 40
0
 40
0
 40
0
 40
0
 40
1
 40
1
 40
1
 40
1
 10
382.761288
 20
2195.649044
 30
0.0
 10
382.387456
 20
2195.441284
 30
0.0
 10
382.088392
 20
2195.150564
 30
0.0
 10
381.864104
 20
2194.776724
 30
0.0
  0
SPLINE
  5
3f1
100
AcDbEntity
  8
comments
 62
7
100
AcDbSpline
 70
8
 71
3
 72
8
 73
4
 74
0
 40
0
 40
0
 40
0
 40
0
 40
1
 40
1
 40
1
 40
1
 10
381.864104
 20
2194.776724
 30
0.0
 10
381.648104
 20
2194.402884
 30
0.0
 10
381.540112
 20
2193.912804
 30
0.0
 10
381.540120
 20
2193.306324
 30
0.0
  0
SPLINE
  5
3f2
100
AcDbEntity
  8
comments
 62
7
100
AcDbSpline
 70
8
 71
3
 72
8
 73
4
 74
0
 40
0
 40
0
 40
0
 40
0
 40
1
 40
1
 40
1
 40
1
 10
381.540120
 20
2193.306324
 30
0.0
 10
381.540112
 20
2192.575284
 30
0.0
 10
381.735336
 20
2192.010404
 30
0.0
 10
382.125784
 20
2191.611684
 30
0.0
  0
SPLINE
  5
3f3
100
AcDbEntity
  8
comments
 62
7
100
AcDbSpline
 70
8
 71
3
 72
8
 73
4
 74
0
 40
0
 40
0
 40
0
 40
0
 40
1
 40
1
 40
1
 40
1
 10
382.125784
 20
2191.611684
 30
0.0
 10
382.524528
 20
2191.212884
 30
0.0
 10
383.089424
 20
2191.013524
 30
0.0
 10
383.820464
 20
2191.013524
 30
0.0
  0
SPLINE
  5
3f4
100
AcDbEntity
  8
comments
 62
7
100
AcDbSpline
 70
8
 71
3
 72
8
 73
4
 74
0
 40
0
 40
0
 40
0
 40
0
 40
1
 40
1
 40
1
 40
1
 10
412.555424
 20
2196.383924
 30
0.0
 10
412.555408
 20
2191.682004
 30
0.0
 10
410.902264
 20
2189.331044
 30
0.0
 10
407.595968
 20
2189.331044
 30
0.0
  0
SPLINE
  5
3f5
100
AcDbEntity
  8
comments
 62
7
100
AcDbSpline
 70
8
 71
3
 72
8
 73
4
 74
0
 40
0
 40
0
 40
0
 40
0
 40
1
 40
1
 40
1
 40
1
 10
407.595968
 20
2189.331044
 30
0.0
 10
406.574168
 20
2189.331044
 30
0.0
 10
405.722672
 20
2189.513844
 30
0.0
 10
405.041480
 20
2189.879364
 30
0.0
  0
SPLINE
  5
3f6
100
AcDbEntity
  8
comments
 62
7
100
AcDbSpline
 70
8
 71
3
 72
8
 73
4
 74
0
 40
0
 40
0
 40
0
 40
0
 40
1
 40
1
 40
1
 40
1
 10
405.041480
 20
2189.879364
 30
0.0
 10
404.368584
 20
2190.253204
 30
0.0
 10
403.820304
 20
2190.851284
 30
0.0
 10
403.396632
 20
2191.673764
 30
0.0
  0
LWPOLYLINE
  5
3f7
100
AcDbEntity
  8
comments
 62
7
100
AcDbPolyline
 90
3
 70
0
 10
388.082112
 20
2195.125444
 30
0.0
 10
388.082112
 20
2196.234404
 30
0.0
 10
385.627304
 20
2196.184804
 30
0.0
  0
SPLINE
  5
3f8
100
AcDbEntity
  8
comments
 62
7
100
AcDbSpline
 70
8
 71
3
 72
8
 73
4
 74
0
 40
0
 40
0
 40
0
 40
0
 40
1
 40
1
 40
1
 40
1
 10
403.371672
 20
2191.673764
 30
0.0
 10
403.371672
 20
2191.457764
 30
0.0
 10
403.363352
 20
2191.233444
 30
0.0
 10
403.346792
 20
2191.000804
 30
0.0
  0
SPLINE
  5
3f9
100
AcDbEntity
  8
comments
 62
7
100
AcDbSpline
 70
8
 71
3
 72
8
 73
4
 74
0
 40
0
 40
0
 40
0
 40
0
 40
1
 40
1
 40
1
 40
1
 10
403.346792
 20
2191.000804
 30
0.0
 10
403.338472
 20
2190.768244
 30
0.0
 10
403.325992
 20
2190.552244
 30
0.0
 10
403.309432
 20
2190.352884
 30
0.0
  0
SPLINE
  5
3fa
100
AcDbEntity
  8
comments
 62
7
100
AcDbSpline
 70
8
 71
3
 72
8
 73
4
 74
0
 40
0
 40
0
 40
0
 40
0
 40
1
 40
1
 40
1
 40
1
 10
403.309432
 20
2190.352884
 30
0.0
 10
403.301112
 20
2190.153524
 30
0.0
 10
403.288632
 20
2189.983204
 30
0.0
 10
403.272072
 20
2189.842004
 30
0.0
  0
SPLINE
  5
3fb
100
AcDbEntity
  8
comments
 62
7
100
AcDbSpline
 70
8
 71
3
 72
8
 73
4
 74
0
 40
0
 40
0
 40
0
 40
0
 40
1
 40
1
 40
1
 40
1
 10
403.272072
 20
2189.842004
 30
0.0
 10
403.263752
 20
2189.700724
 30
0.0
 10
403.255432
 20
2189.613524
 30
0.0
 10
403.247112
 20
2189.580324
 30
0.0
  0
LWPOLYLINE
  5
3fc
100
AcDbEntity
  8
comments
 62
7
100
AcDbPolyline
 90
2
 70
0
 10
403.396632
 20
2191.673764
 30
0.0
 10
403.371672
 20
2191.673764
 30
0.0
  0
SPLINE
  5
3fd
100
AcDbEntity
  8
comments
 62
7
100
AcDbSpline
 70
8
 71
3
 72
8
 73
4
 74
0
 40
0
 40
0
 40
0
 40
0
 40
1
 40
1
 40
1
 40
1
 10
401.078912
 20
2189.580324
 30
0.0
 10
401.087232
 20
2189.654724
 30
0.0
 10
401.095552
 20
2189.779684
 30
0.0
 10
401.103792
 20
2189.954084
 30
0.0
  0
SPLINE
  5
3fe
100
AcDbEntity
  8
comments
 62
7
100
AcDbSpline
 70
8
 71
3
 72
8
 73
4
 74
0
 40
0
 40
0
 40
0
 40
0
 40
1
 40
1
 40
1
 40
1
 10
401.103792
 20
2189.954084
 30
0.0
 10
401.112112
 20
2190.136884
 30
0.0
 10
401.120432
 20
2190.352884
 30
0.0
 10
401.128752
 20
2190.602084
 30
0.0
  0
SPLINE
  5
3ff
100
AcDbEntity
  8
comments
 62
7
100
AcDbSpline
 70
8
 71
3
 72
8
 73
4
 74
0
 40
0
 40
0
 40
0
 40
0
 40
1
 40
1
 40
1
 40
1
 10
401.128752
 20
2190.602084
 30
0.0
 10
401.137072
 20
2190.851284
 30
0.0
 10
401.141232
 20
2191.125444
 30
0.0
 10
401.141232
 20
2191.424484
 30
0.0
  0
SPLINE
  5
400
100
AcDbEntity
  8
comments
 62
7
100
AcDbSpline
 70
8
 71
3
 72
8
 73
4
 74
0
 40
0
 40
0
 40
0
 40
0
 40
1
 40
1
 40
1
 40
1
 10
401.141232
 20
2191.424484
 30
0.0
 10
401.149552
 20
2191.723604
 30
0.0
 10
401.153712
 20
2192.035124
 30
0.0
 10
401.153712
 20
2192.359044
 30
0.0
  0
LWPOLYLINE
  5
401
100
AcDbEntity
  8
comments
 62
7
100
AcDbPolyline
 90
2
 70
0
 10
403.247112
 20
2189.580324
 30
0.0
 10
401.078912
 20
2189.580324
 30
0.0
  0
SPLINE
  5
402
100
AcDbEntity
  8
comments
 62
7
100
AcDbSpline
 70
8
 71
3
 72
8
 73
4
 74
0
 40
0
 40
0
 40
0
 40
0
 40
1
 40
1
 40
1
 40
1
 10
403.396680
 20
2202.801364
 30
0.0
 10
403.396680
 20
2202.552084
 30
0.0
 10
403.392680
 20
2202.311204
 30
0.0
 10
403.384200
 20
2202.078644
 30
0.0
  0
SPLINE
  5
403
100
AcDbEntity
  8
comments
 62
7
100
AcDbSpline
 70
8
 71
3
 72
8
 73
4
 74
0
 40
0
 40
0
 40
0
 40
0
 40
1
 40
1
 40
1
 40
1
 10
403.384200
 20
2202.078644
 30
0.0
 10
403.384192
 20
2201.854324
 30
0.0
 10
403.380200
 20
2201.654964
 30
0.0
 10
403.371720
 20
2201.480484
 30
0.0
  0
SPLINE
  5
404
100
AcDbEntity
  8
comments
 62
7
100
AcDbSpline
 70
8
 71
3
 72
8
 73
4
 74
0
 40
0
 40
0
 40
0
 40
0
 40
1
 40
1
 40
1
 40
1
 10
403.371720
 20
2201.480484
 30
0.0
 10
403.363400
 20
2201.272804
 30
0.0
 10
403.355080
 20
2201.077604
 30
0.0
 10
403.346840
 20
2200.894804
 30
0.0
  0
LWPOLYLINE
  5
405
100
AcDbEntity
  8
comments
 62
7
100
AcDbPolyline
 90
4
 70
0
 10
401.153712
 20
2192.359044
 30
0.0
 10
401.153712
 20
2208.072324
 30
0.0
 10
403.396680
 20
2208.072324
 30
0.0
 10
403.396680
 20
2202.801364
 30
0.0
  0
SPLINE
  5
406
100
AcDbEntity
  8
comments
 62
7
100
AcDbSpline
 70
8
 71
3
 72
8
 73
4
 74
0
 40
0
 40
0
 40
0
 40
0
 40
1
 40
1
 40
1
 40
1
 10
403.396680
 20
2200.894804
 30
0.0
 10
403.812040
 20
2201.758804
 30
0.0
 10
404.360328
 20
2202.377684
 30
0.0
 10
405.041528
 20
2202.751524
 30
0.0
  0
SPLINE
  5
407
100
AcDbEntity
  8
comments
 62
7
100
AcDbSpline
 70
8
 71
3
 72
8
 73
4
 74
0
 40
0
 40
0
 40
0
 40
0
 40
1
 40
1
 40
1
 40
1
 10
405.041528
 20
2202.751524
 30
0.0
 10
405.731024
 20
2203.125284
 30
0.0
 10
406.582520
 20
2203.312244
 30
0.0
 10
407.596016
 20
2203.312244
 30
0.0
  0
SPLINE
  5
408
100
AcDbEntity
  8
comments
 62
7
100
AcDbSpline
 70
8
 71
3
 72
8
 73
4
 74
0
 40
0
 40
0
 40
0
 40
0
 40
1
 40
1
 40
1
 40
1
 10
407.596016
 20
2203.312244
 30
0.0
 10
409.299008
 20
2203.312244
 30
0.0
 10
410.549248
 20
2202.739044
 30
0.0
 10
411.346760
 20
2201.592644
 30
0.0
  0
SPLINE
  5
409
100
AcDbEntity
  8
comments
 62
7
100
AcDbSpline
 70
8
 71
3
 72
8
 73
4
 74
0
 40
0
 40
0
 40
0
 40
0
 40
1
 40
1
 40
1
 40
1
 10
411.346760
 20
2201.592644
 30
0.0
 10
412.152560
 20
2200.446244
 30
0.0
 10
412.555456
 20
2198.710004
 30
0.0
 10
412.555472
 20
2196.383924
 30
0.0
  0
SPLINE
  5
40a
100
AcDbEntity
  8
comments
 62
7
100
AcDbSpline
 70
8
 71
3
 72
8
 73
4
 74
0
 40
0
 40
0
 40
0
 40
0
 40
1
 40
1
 40
1
 40
1
 10
410.200352
 20
2196.309524
 30
0.0
 10
410.200344
 20
2197.239924
 30
0.0
 10
410.142192
 20
2198.037444
 30
0.0
 10
410.025904
 20
2198.702004
 30
0.0
  0
SPLINE
  5
40b
100
AcDbEntity
  8
comments
 62
7
100
AcDbSpline
 70
8
 71
3
 72
8
 73
4
 74
0
 40
0
 40
0
 40
0
 40
0
 40
1
 40
1
 40
1
 40
1
 10
410.025904
 20
2198.702004
 30
0.0
 10
409.909592
 20
2199.366564
 30
0.0
 10
409.722672
 20
2199.910724
 30
0.0
 10
409.465160
 20
2200.334404
 30
0.0
  0
SPLINE
  5
40c
100
AcDbEntity
  8
comments
 62
7
100
AcDbSpline
 70
8
 71
3
 72
8
 73
4
 74
0
 40
0
 40
0
 40
0
 40
0
 40
1
 40
1
 40
1
 40
1
 10
409.465160
 20
2200.334404
 30
0.0
 10
409.207624
 20
2200.766404
 30
0.0
 10
408.879488
 20
2201.082084
 30
0.0
 10
408.480744
 20
2201.281444
 30
0.0
  0
SPLINE
  5
40d
100
AcDbEntity
  8
comments
 62
7
100
AcDbSpline
 70
8
 71
3
 72
8
 73
4
 74
0
 40
0
 40
0
 40
0
 40
0
 40
1
 40
1
 40
1
 40
1
 10
408.480744
 20
2201.281444
 30
0.0
 10
408.081984
 20
2201.480804
 30
0.0
 10
407.596008
 20
2201.580484
 30
0.0
 10
407.022816
 20
2201.580484
 30
0.0
  0
SPLINE
  5
40e
100
AcDbEntity
  8
comments
 62
7
100
AcDbSpline
 70
8
 71
3
 72
8
 73
4
 74
0
 40
0
 40
0
 40
0
 40
0
 40
1
 40
1
 40
1
 40
1
 10
407.022816
 20
2201.580484
 30
0.0
 10
406.432992
 20
2201.580484
 30
0.0
 10
405.909632
 20
2201.484964
 30
0.0
 10
405.452736
 20
2201.293924
 30
0.0
  0
SPLINE
  5
40f
100
AcDbEntity
  8
comments
 62
7
100
AcDbSpline
 70
8
 71
3
 72
8
 73
4
 74
0
 40
0
 40
0
 40
0
 40
0
 40
1
 40
1
 40
1
 40
1
 10
405.452736
 20
2201.293924
 30
0.0
 10
405.004136
 20
2201.102804
 30
0.0
 10
404.626160
 20
2200.795444
 30
0.0
 10
404.318792
 20
2200.371764
 30
0.0
  0
SPLINE
  5
410
100
AcDbEntity
  8
comments
 62
7
100
AcDbSpline
 70
8
 71
3
 72
8
 73
4
 74
0
 40
0
 40
0
 40
0
 40
0
 40
1
 40
1
 40
1
 40
1
 10
404.318792
 20
2200.371764
 30
0.0
 10
404.019728
 20
2199.948084
 30
0.0
 10
403.791272
 20
2199.391524
 30
0.0
 10
403.633440
 20
2198.702004
 30
0.0
  0
SPLINE
  5
411
100
AcDbEntity
  8
comments
 62
7
100
AcDbSpline
 70
8
 71
3
 72
8
 73
4
 74
0
 40
0
 40
0
 40
0
 40
0
 40
1
 40
1
 40
1
 40
1
 10
403.633440
 20
2198.702004
 30
0.0
 10
403.475600
 20
2198.012484
 30
0.0
 10
403.396680
 20
2197.169284
 30
0.0
 10
403.396680
 20
2196.172484
 30
0.0
  0
SPLINE
  5
412
100
AcDbEntity
  8
comments
 62
7
100
AcDbSpline
 70
8
 71
3
 72
8
 73
4
 74
0
 40
0
 40
0
 40
0
 40
0
 40
1
 40
1
 40
1
 40
1
 10
403.396680
 20
2196.172484
 30
0.0
 10
403.396680
 20
2195.208804
 30
0.0
 10
403.475640
 20
2194.398804
 30
0.0
 10
403.633440
 20
2193.742564
 30
0.0
  0
SPLINE
  5
413
100
AcDbEntity
  8
comments
 62
7
100
AcDbSpline
 70
8
 71
3
 72
8
 73
4
 74
0
 40
0
 40
0
 40
0
 40
0
 40
1
 40
1
 40
1
 40
1
 10
403.633440
 20
2193.742564
 30
0.0
 10
403.791272
 20
2193.086324
 30
0.0
 10
404.019728
 20
2192.550484
 30
0.0
 10
404.318792
 20
2192.135124
 30
0.0
  0
SPLINE
  5
414
100
AcDbEntity
  8
comments
 62
7
100
AcDbSpline
 70
8
 71
3
 72
8
 73
4
 74
0
 40
0
 40
0
 40
0
 40
0
 40
1
 40
1
 40
1
 40
1
 10
404.318792
 20
2192.135124
 30
0.0
 10
404.626160
 20
2191.728084
 30
0.0
 10
405.004136
 20
2191.433124
 30
0.0
 10
405.452736
 20
2191.250404
 30
0.0
  0
SPLINE
  5
415
100
AcDbEntity
  8
comments
 62
7
100
AcDbSpline
 70
8
 71
3
 72
8
 73
4
 74
0
 40
0
 40
0
 40
0
 40
0
 40
1
 40
1
 40
1
 40
1
 10
405.452736
 20
2191.250404
 30
0.0
 10
405.901328
 20
2191.075924
 30
0.0
 10
406.416376
 20
2190.988724
 30
0.0
 10
406.997896
 20
2190.988724
 30
0.0
  0
SPLINE
  5
416
100
AcDbEntity
  8
comments
 62
7
100
AcDbSpline
 70
8
 71
3
 72
8
 73
4
 74
0
 40
0
 40
0
 40
0
 40
0
 40
1
 40
1
 40
1
 40
1
 10
406.997896
 20
2190.988724
 30
0.0
 10
407.546168
 20
2190.988724
 30
0.0
 10
408.019680
 20
2191.084244
 30
0.0
 10
408.418440
 20
2191.275284
 30
0.0
  0
SPLINE
  5
417
100
AcDbEntity
  8
comments
 62
7
100
AcDbSpline
 70
8
 71
3
 72
8
 73
4
 74
0
 40
0
 40
0
 40
0
 40
0
 40
1
 40
1
 40
1
 40
1
 10
408.418440
 20
2191.275284
 30
0.0
 10
408.817184
 20
2191.466404
 30
0.0
 10
409.149472
 20
2191.773764
 30
0.0
 10
409.415320
 20
2192.197444
 30
0.0
  0
SPLINE
  5
418
100
AcDbEntity
  8
comments
 62
7
100
AcDbSpline
 70
8
 71
3
 72
8
 73
4
 74
0
 40
0
 40
0
 40
0
 40
0
 40
1
 40
1
 40
1
 40
1
 10
409.415320
 20
2192.197444
 30
0.0
 10
409.681136
 20
2192.621044
 30
0.0
 10
409.876360
 20
2193.169364
 30
0.0
 10
410.000984
 20
2193.842244
 30
0.0
  0
SPLINE
  5
419
100
AcDbEntity
  8
comments
 62
7
100
AcDbSpline
 70
8
 71
3
 72
8
 73
4
 74
0
 40
0
 40
0
 40
0
 40
0
 40
1
 40
1
 40
1
 40
1
 10
410.000984
 20
2193.842244
 30
0.0
 10
410.133888
 20
2194.523444
 30
0.0
 10
410.200344
 20
2195.345844
 30
0.0
 10
410.200352
 20
2196.309524
 30
0.0
  0
SPLINE
  5
41a
100
AcDbEntity
  8
comments
 62
7
100
AcDbSpline
 70
8
 71
3
 72
8
 73
4
 74
0
 40
0
 40
0
 40
0
 40
0
 40
1
 40
1
 40
1
 40
1
 10
426.760896
 20
2196.334084
 30
0.0
 10
426.760880
 20
2193.974884
 30
0.0
 10
426.241672
 20
2192.217844
 30
0.0
 10
425.203280
 20
2191.063124
 30
0.0
  0
SPLINE
  5
41b
100
AcDbEntity
  8
comments
 62
7
100
AcDbSpline
 70
8
 71
3
 72
8
 73
4
 74
0
 40
0
 40
0
 40
0
 40
0
 40
1
 40
1
 40
1
 40
1
 10
425.203280
 20
2191.063124
 30
0.0
 10
424.164856
 20
2189.908404
 30
0.0
 10
422.657080
 20
2189.331044
 30
0.0
 10
420.679952
 20
2189.331044
 30
0.0
  0
SPLINE
  5
41c
100
AcDbEntity
  8
comments
 62
7
100
AcDbSpline
 70
8
 71
3
 72
8
 73
4
 74
0
 40
0
 40
0
 40
0
 40
0
 40
1
 40
1
 40
1
 40
1
 10
420.679952
 20
2189.331044
 30
0.0
 10
419.741224
 20
2189.331044
 30
0.0
 10
418.902192
 20
2189.472324
 30
0.0
 10
418.162848
 20
2189.754724
 30
0.0
  0
SPLINE
  5
41d
100
AcDbEntity
  8
comments
 62
7
100
AcDbSpline
 70
8
 71
3
 72
8
 73
4
 74
0
 40
0
 40
0
 40
0
 40
0
 40
1
 40
1
 40
1
 40
1
 10
418.162848
 20
2189.754724
 30
0.0
 10
417.423496
 20
2190.037204
 30
0.0
 10
416.796296
 20
2190.469204
 30
0.0
 10
416.281248
 20
2191.050644
 30
0.0
  0
SPLINE
  5
41e
100
AcDbEntity
  8
comments
 62
7
100
AcDbSpline
 70
8
 71
3
 72
8
 73
4
 74
0
 40
0
 40
0
 40
0
 40
0
 40
1
 40
1
 40
1
 40
1
 10
416.281248
 20
2191.050644
 30
0.0
 10
415.774496
 20
2191.632164
 30
0.0
 10
415.384056
 20
2192.359044
 30
0.0
 10
415.109920
 20
2193.231364
 30
0.0
  0
SPLINE
  5
41f
100
AcDbEntity
  8
comments
 62
7
100
AcDbSpline
 70
8
 71
3
 72
8
 73
4
 74
0
 40
0
 40
0
 40
0
 40
0
 40
1
 40
1
 40
1
 40
1
 10
415.109920
 20
2193.231364
 30
0.0
 10
414.844080
 20
2194.111924
 30
0.0
 10
414.711168
 20
2195.146164
 30
0.0
 10
414.711168
 20
2196.334084
 30
0.0
  0
SPLINE
  5
420
100
AcDbEntity
  8
comments
 62
7
100
AcDbSpline
 70
8
 71
3
 72
8
 73
4
 74
0
 40
0
 40
0
 40
0
 40
0
 40
1
 40
1
 40
1
 40
1
 10
414.711168
 20
2196.334084
 30
0.0
 10
414.711168
 20
2200.986164
 30
0.0
 10
416.725680
 20
2203.312244
 30
0.0
 10
420.754720
 20
2203.312244
 30
0.0
  0
SPLINE
  5
421
100
AcDbEntity
  8
comments
 62
7
100
AcDbSpline
 70
8
 71
3
 72
8
 73
4
 74
0
 40
0
 40
0
 40
0
 40
0
 40
1
 40
1
 40
1
 40
1
 10
420.754720
 20
2203.312244
 30
0.0
 10
421.801432
 20
2203.312244
 30
0.0
 10
422.702776
 20
2203.166884
 30
0.0
 10
423.458744
 20
2202.876084
 30
0.0
  0
SPLINE
  5
422
100
AcDbEntity
  8
comments
 62
7
100
AcDbSpline
 70
8
 71
3
 72
8
 73
4
 74
0
 40
0
 40
0
 40
0
 40
0
 40
1
 40
1
 40
1
 40
1
 10
423.458744
 20
2202.876084
 30
0.0
 10
424.223008
 20
2202.585364
 30
0.0
 10
424.846048
 20
2202.149204
 30
0.0
 10
425.327888
 20
2201.567684
 30
0.0
  0
SPLINE
  5
423
100
AcDbEntity
  8
comments
 62
7
100
AcDbSpline
 70
8
 71
3
 72
8
 73
4
 74
0
 40
0
 40
0
 40
0
 40
0
 40
1
 40
1
 40
1
 40
1
 10
425.327888
 20
2201.567684
 30
0.0
 10
425.818000
 20
2200.986164
 30
0.0
 10
426.179368
 20
2200.259284
 30
0.0
 10
426.411984
 20
2199.387044
 30
0.0
  0
SPLINE
  5
424
100
AcDbEntity
  8
comments
 62
7
100
AcDbSpline
 70
8
 71
3
 72
8
 73
4
 74
0
 40
0
 40
0
 40
0
 40
0
 40
1
 40
1
 40
1
 40
1
 10
426.411984
 20
2199.387044
 30
0.0
 10
426.644576
 20
2198.514804
 30
0.0
 10
426.760880
 20
2197.497124
 30
0.0
 10
426.760896
 20
2196.334084
 30
0.0
  0
SPLINE
  5
425
100
AcDbEntity
  8
comments
 62
7
100
AcDbSpline
 70
8
 71
3
 72
8
 73
4
 74
0
 40
0
 40
0
 40
0
 40
0
 40
1
 40
1
 40
1
 40
1
 10
424.405776
 20
2196.334084
 30
0.0
 10
424.405768
 20
2197.380804
 30
0.0
 10
424.322696
 20
2198.244804
 30
0.0
 10
424.156560
 20
2198.926004
 30
0.0
  0
SPLINE
  5
426
100
AcDbEntity
  8
comments
 62
7
100
AcDbSpline
 70
8
 71
3
 72
8
 73
4
 74
0
 40
0
 40
0
 40
0
 40
0
 40
1
 40
1
 40
1
 40
1
 10
424.156560
 20
2198.926004
 30
0.0
 10
423.998712
 20
2199.607204
 30
0.0
 10
423.761952
 20
2200.151284
 30
0.0
 10
423.446288
 20
2200.558404
 30
0.0
  0
SPLINE
  5
427
100
AcDbEntity
  8
comments
 62
7
100
AcDbSpline
 70
8
 71
3
 72
8
 73
4
 74
0
 40
0
 40
0
 40
0
 40
0
 40
1
 40
1
 40
1
 40
1
 10
423.446288
 20
2200.558404
 30
0.0
 10
423.138904
 20
2200.965444
 30
0.0
 10
422.760920
 20
2201.247844
 30
0.0
 10
422.312336
 20
2201.405684
 30
0.0
  0
SPLINE
  5
428
100
AcDbEntity
  8
comments
 62
7
100
AcDbSpline
 70
8
 71
3
 72
8
 73
4
 74
0
 40
0
 40
0
 40
0
 40
0
 40
1
 40
1
 40
1
 40
1
 10
422.312336
 20
2201.405684
 30
0.0
 10
421.863736
 20
2201.571844
 30
0.0
 10
421.356992
 20
2201.654964
 30
0.0
 10
420.792104
 20
2201.654964
 30
0.0
  0
SPLINE
  5
429
100
AcDbEntity
  8
comments
 62
7
100
AcDbSpline
 70
8
 71
3
 72
8
 73
4
 74
0
 40
0
 40
0
 40
0
 40
0
 40
1
 40
1
 40
1
 40
1
 10
420.792104
 20
2201.654964
 30
0.0
 10
420.218896
 20
2201.654964
 30
0.0
 10
419.699688
 20
2201.567684
 30
0.0
 10
419.234488
 20
2201.393284
 30
0.0
  0
SPLINE
  5
42a
100
AcDbEntity
  8
comments
 62
7
100
AcDbSpline
 70
8
 71
3
 72
8
 73
4
 74
0
 40
0
 40
0
 40
0
 40
0
 40
1
 40
1
 40
1
 40
1
 10
419.234488
 20
2201.393284
 30
0.0
 10
418.777584
 20
2201.227124
 30
0.0
 10
418.387136
 20
2200.936324
 30
0.0
 10
418.063160
 20
2200.520964
 30
0.0
  0
SPLINE
  5
42b
100
AcDbEntity
  8
comments
 62
7
100
AcDbSpline
 70
8
 71
3
 72
8
 73
4
 74
0
 40
0
 40
0
 40
0
 40
0
 40
1
 40
1
 40
1
 40
1
 10
418.063160
 20
2200.520964
 30
0.0
 10
417.739168
 20
2200.113924
 30
0.0
 10
417.489952
 20
2199.569764
 30
0.0
 10
417.315504
 20
2198.888644
 30
0.0
  0
SPLINE
  5
42c
100
AcDbEntity
  8
comments
 62
7
100
AcDbSpline
 70
8
 71
3
 72
8
 73
4
 74
0
 40
0
 40
0
 40
0
 40
0
 40
1
 40
1
 40
1
 40
1
 10
417.315504
 20
2198.888644
 30
0.0
 10
417.149352
 20
2198.207444
 30
0.0
 10
417.066280
 20
2197.355924
 30
0.0
 10
417.066288
 20
2196.334084
 30
0.0
  0
SPLINE
  5
42d
100
AcDbEntity
  8
comments
 62
7
100
AcDbSpline
 70
8
 71
3
 72
8
 73
4
 74
0
 40
0
 40
0
 40
0
 40
0
 40
1
 40
1
 40
1
 40
1
 10
417.066288
 20
2196.334084
 30
0.0
 10
417.066280
 20
2195.287364
 30
0.0
 10
417.157664
 20
2194.419284
 30
0.0
 10
417.340424
 20
2193.729764
 30
0.0
  0
SPLINE
  5
42e
100
AcDbEntity
  8
comments
 62
7
100
AcDbSpline
 70
8
 71
3
 72
8
 73
4
 74
0
 40
0
 40
0
 40
0
 40
0
 40
1
 40
1
 40
1
 40
1
 10
417.340424
 20
2193.729764
 30
0.0
 10
417.523184
 20
2193.048564
 30
0.0
 10
417.772400
 20
2192.504484
 30
0.0
 10
418.088080
 20
2192.097364
 30
0.0
  0
SPLINE
  5
42f
100
AcDbEntity
  8
comments
 62
7
100
AcDbSpline
 70
8
 71
3
 72
8
 73
4
 74
0
 40
0
 40
0
 40
0
 40
0
 40
1
 40
1
 40
1
 40
1
 10
418.088080
 20
2192.097364
 30
0.0
 10
418.412064
 20
2191.690324
 30
0.0
 10
418.790040
 20
2191.403764
 30
0.0
 10
419.222024
 20
2191.237604
 30
0.0
  0
SPLINE
  5
430
100
AcDbEntity
  8
comments
 62
7
100
AcDbSpline
 70
8
 71
3
 72
8
 73
4
 74
0
 40
0
 40
0
 40
0
 40
0
 40
1
 40
1
 40
1
 40
1
 10
419.222024
 20
2191.237604
 30
0.0
 10
419.662304
 20
2191.071444
 30
0.0
 10
420.139976
 20
2190.988404
 30
0.0
 10
420.655032
 20
2190.988404
 30
0.0
  0
SPLINE
  5
431
100
AcDbEntity
  8
comments
 62
7
100
AcDbSpline
 70
8
 71
3
 72
8
 73
4
 74
0
 40
0
 40
0
 40
0
 40
0
 40
1
 40
1
 40
1
 40
1
 10
420.655032
 20
2190.988404
 30
0.0
 10
421.228232
 20
2190.988404
 30
0.0
 10
421.747432
 20
2191.067604
 30
0.0
 10
422.212648
 20
2191.225124
 30
0.0
  0
SPLINE
  5
432
100
AcDbEntity
  8
comments
 62
7
100
AcDbSpline
 70
8
 71
3
 72
8
 73
4
 74
0
 40
0
 40
0
 40
0
 40
0
 40
1
 40
1
 40
1
 40
1
 10
422.212648
 20
2191.225124
 30
0.0
 10
422.677848
 20
2191.391284
 30
0.0
 10
423.072448
 20
2191.677844
 30
0.0
 10
423.396440
 20
2192.084964
 30
0.0
  0
SPLINE
  5
433
100
AcDbEntity
  8
comments
 62
7
100
AcDbSpline
 70
8
 71
3
 72
8
 73
4
 74
0
 40
0
 40
0
 40
0
 40
0
 40
1
 40
1
 40
1
 40
1
 10
423.396440
 20
2192.084964
 30
0.0
 10
423.720416
 20
2192.492004
 30
0.0
 10
423.969632
 20
2193.040244
 30
0.0
 10
424.144096
 20
2193.729764
 30
0.0
  0
SPLINE
  5
434
100
AcDbEntity
  8
comments
 62
7
100
AcDbSpline
 70
8
 71
3
 72
8
 73
4
 74
0
 40
0
 40
0
 40
0
 40
0
 40
1
 40
1
 40
1
 40
1
 10
424.144096
 20
2193.729764
 30
0.0
 10
424.318536
 20
2194.419284
 30
0.0
 10
424.405768
 20
2195.287364
 30
0.0
 10
424.405776
 20
2196.334084
 30
0.0
  0
SPLINE
  5
435
100
AcDbEntity
  8
comments
 62
7
100
AcDbSpline
 70
8
 71
3
 72
8
 73
4
 74
0
 40
0
 40
0
 40
0
 40
0
 40
1
 40
1
 40
1
 40
1
 10
433.003824
 20
2189.331044
 30
0.0
 10
431.649728
 20
2189.331044
 30
0.0
 10
430.632088
 20
2189.688324
 30
0.0
 10
429.950896
 20
2190.402724
 30
0.0
  0
SPLINE
  5
436
100
AcDbEntity
  8
comments
 62
7
100
AcDbSpline
 70
8
 71
3
 72
8
 73
4
 74
0
 40
0
 40
0
 40
0
 40
0
 40
1
 40
1
 40
1
 40
1
 10
429.950896
 20
2190.402724
 30
0.0
 10
429.269696
 20
2191.117124
 30
0.0
 10
428.929096
 20
2192.097364
 30
0.0
 10
428.929096
 20
2193.343524
 30
0.0
  0
SPLINE
  5
437
100
AcDbEntity
  8
comments
 62
7
100
AcDbSpline
 70
8
 71
3
 72
8
 73
4
 74
0
 40
0
 40
0
 40
0
 40
0
 40
1
 40
1
 40
1
 40
1
 10
428.929096
 20
2193.343524
 30
0.0
 10
428.929096
 20
2194.232404
 30
0.0
 10
429.095240
 20
2194.959284
 30
0.0
 10
429.427536
 20
2195.524164
 30
0.0
  0
SPLINE
  5
438
100
AcDbEntity
  8
comments
 62
7
100
AcDbSpline
 70
8
 71
3
 72
8
 73
4
 74
0
 40
0
 40
0
 40
0
 40
0
 40
1
 40
1
 40
1
 40
1
 10
429.427536
 20
2195.524164
 30
0.0
 10
429.768128
 20
2196.097364
 30
0.0
 10
430.208416
 20
2196.545924
 30
0.0
 10
430.748392
 20
2196.869924
 30
0.0
  0
SPLINE
  5
439
100
AcDbEntity
  8
comments
 62
7
100
AcDbSpline
 70
8
 71
3
 72
8
 73
4
 74
0
 40
0
 40
0
 40
0
 40
0
 40
1
 40
1
 40
1
 40
1
 10
430.748392
 20
2196.869924
 30
0.0
 10
431.296672
 20
2197.193924
 30
0.0
 10
431.919720
 20
2197.418244
 30
0.0
 10
432.617536
 20
2197.542804
 30
0.0
  0
SPLINE
  5
43a
100
AcDbEntity
  8
comments
 62
7
100
AcDbSpline
 70
8
 71
3
 72
8
 73
4
 74
0
 40
0
 40
0
 40
0
 40
0
 40
1
 40
1
 40
1
 40
1
 10
432.617536
 20
2197.542804
 30
0.0
 10
433.315344
 20
2197.667444
 30
0.0
 10
434.025616
 20
2197.738004
 30
0.0
 10
434.748352
 20
2197.754644
 30
0.0
  0
LWPOLYLINE
  5
43b
100
AcDbEntity
  8
comments
 62
7
100
AcDbPolyline
 90
2
 70
0
 10
403.346840
 20
2200.894804
 30
0.0
 10
403.396680
 20
2200.894804
 30
0.0
  0
SPLINE
  5
43c
100
AcDbEntity
  8
comments
 62
7
100
AcDbSpline
 70
8
 71
3
 72
8
 73
4
 74
0
 40
0
 40
0
 40
0
 40
0
 40
1
 40
1
 40
1
 40
1
 10
437.776360
 20
2198.539444
 30
0.0
 10
437.776352
 20
2199.096084
 30
0.0
 10
437.718200
 20
2199.569524
 30
0.0
 10
437.601912
 20
2199.960004
 30
0.0
  0
SPLINE
  5
43d
100
AcDbEntity
  8
comments
 62
7
100
AcDbSpline
 70
8
 71
3
 72
8
 73
4
 74
0
 40
0
 40
0
 40
0
 40
0
 40
1
 40
1
 40
1
 40
1
 10
437.601912
 20
2199.960004
 30
0.0
 10
437.485600
 20
2200.350484
 30
0.0
 10
437.306992
 20
2200.666084
 30
0.0
 10
437.066088
 20
2200.907044
 30
0.0
  0
SPLINE
  5
43e
100
AcDbEntity
  8
comments
 62
7
100
AcDbSpline
 70
8
 71
3
 72
8
 73
4
 74
0
 40
0
 40
0
 40
0
 40
0
 40
1
 40
1
 40
1
 40
1
 10
437.066088
 20
2200.907044
 30
0.0
 10
436.825168
 20
2201.147924
 30
0.0
 10
436.521952
 20
2201.322404
 30
0.0
 10
436.156440
 20
2201.430404
 30
0.0
  0
SPLINE
  5
43f
100
AcDbEntity
  8
comments
 62
7
100
AcDbSpline
 70
8
 71
3
 72
8
 73
4
 74
0
 40
0
 40
0
 40
0
 40
0
 40
1
 40
1
 40
1
 40
1
 10
436.156440
 20
2201.430404
 30
0.0
 10
435.799216
 20
2201.546724
 30
0.0
 10
435.375544
 20
2201.604804
 30
0.0
 10
434.885424
 20
2201.604884
 30
0.0
  0
SPLINE
  5
440
100
AcDbEntity
  8
comments
 62
7
100
AcDbSpline
 70
8
 71
3
 72
8
 73
4
 74
0
 40
0
 40
0
 40
0
 40
0
 40
1
 40
1
 40
1
 40
1
 10
434.885424
 20
2201.604884
 30
0.0
 10
434.453440
 20
2201.604804
 30
0.0
 10
434.063000
 20
2201.571284
 30
0.0
 10
433.714096
 20
2201.505204
 30
0.0
  0
SPLINE
  5
441
100
AcDbEntity
  8
comments
 62
7
100
AcDbSpline
 70
8
 71
3
 72
8
 73
4
 74
0
 40
0
 40
0
 40
0
 40
0
 40
1
 40
1
 40
1
 40
1
 10
433.714096
 20
2201.505204
 30
0.0
 10
433.365184
 20
2201.446804
 30
0.0
 10
433.061968
 20
2201.334884
 30
0.0
 10
432.804448
 20
2201.168724
 30
0.0
  0
SPLINE
  5
442
100
AcDbEntity
  8
comments
 62
7
100
AcDbSpline
 70
8
 71
3
 72
8
 73
4
 74
0
 40
0
 40
0
 40
0
 40
0
 40
1
 40
1
 40
1
 40
1
 10
432.804448
 20
2201.168724
 30
0.0
 10
432.546920
 20
2201.010884
 30
0.0
 10
432.339232
 20
2200.790724
 30
0.0
 10
432.181400
 20
2200.508324
 30
0.0
  0
SPLINE
  5
443
100
AcDbEntity
  8
comments
 62
7
100
AcDbSpline
 70
8
 71
3
 72
8
 73
4
 74
0
 40
0
 40
0
 40
0
 40
0
 40
1
 40
1
 40
1
 40
1
 10
432.181400
 20
2200.508324
 30
0.0
 10
432.023560
 20
2200.234164
 30
0.0
 10
431.919720
 20
2199.885204
 30
0.0
 10
431.869880
 20
2199.461604
 30
0.0
  0
LWPOLYLINE
  5
444
100
AcDbEntity
  8
comments
 62
7
100
AcDbPolyline
 90
3
 70
0
 10
434.748352
 20
2197.754644
 30
0.0
 10
437.776360
 20
2197.804244
 30
0.0
 10
437.776360
 20
2198.539444
 30
0.0
  0
SPLINE
  5
445
100
AcDbEntity
  8
comments
 62
7
100
AcDbSpline
 70
8
 71
3
 72
8
 73
4
 74
0
 40
0
 40
0
 40
0
 40
0
 40
1
 40
1
 40
1
 40
1
 10
429.527224
 20
2199.673444
 30
0.0
 10
429.610296
 20
2200.205044
 30
0.0
 10
429.768128
 20
2200.691044
 30
0.0
 10
430.000736
 20
2201.131364
 30
0.0
  0
SPLINE
  5
446
100
AcDbEntity
  8
comments
 62
7
100
AcDbSpline
 70
8
 71
3
 72
8
 73
4
 74
0
 40
0
 40
0
 40
0
 40
0
 40
1
 40
1
 40
1
 40
1
 10
430.000736
 20
2201.131364
 30
0.0
 10
430.233336
 20
2201.579924
 30
0.0
 10
430.561480
 20
2201.966244
 30
0.0
 10
430.985152
 20
2202.290244
 30
0.0
  0
SPLINE
  5
447
100
AcDbEntity
  8
comments
 62
7
100
AcDbSpline
 70
8
 71
3
 72
8
 73
4
 74
0
 40
0
 40
0
 40
0
 40
0
 40
1
 40
1
 40
1
 40
1
 10
430.985152
 20
2202.290244
 30
0.0
 10
431.417128
 20
2202.614164
 30
0.0
 10
431.952944
 20
2202.863364
 30
0.0
 10
432.592616
 20
2203.037844
 30
0.0
  0
SPLINE
  5
448
100
AcDbEntity
  8
comments
 62
7
100
AcDbSpline
 70
8
 71
3
 72
8
 73
4
 74
0
 40
0
 40
0
 40
0
 40
0
 40
1
 40
1
 40
1
 40
1
 10
432.592616
 20
2203.037844
 30
0.0
 10
433.240576
 20
2203.220644
 30
0.0
 10
434.021464
 20
2203.312004
 30
0.0
 10
434.935272
 20
2203.312004
 30
0.0
  0
SPLINE
  5
449
100
AcDbEntity
  8
comments
 62
7
100
AcDbSpline
 70
8
 71
3
 72
8
 73
4
 74
0
 40
0
 40
0
 40
0
 40
0
 40
1
 40
1
 40
1
 40
1
 10
434.935272
 20
2203.312004
 30
0.0
 10
436.629944
 20
2203.312004
 30
0.0
 10
437.905112
 20
2202.921524
 30
0.0
 10
438.760776
 20
2202.140644
 30
0.0
  0
SPLINE
  5
44a
100
AcDbEntity
  8
comments
 62
7
100
AcDbSpline
 70
8
 71
3
 72
8
 73
4
 74
0
 40
0
 40
0
 40
0
 40
0
 40
1
 40
1
 40
1
 40
1
 10
438.760776
 20
2202.140644
 30
0.0
 10
439.616416
 20
2201.368084
 30
0.0
 10
440.044240
 20
2200.246564
 30
0.0
 10
440.044256
 20
2198.776244
 30
0.0
  0
LWPOLYLINE
  5
44b
100
AcDbEntity
  8
comments
 62
7
100
AcDbPolyline
 90
2
 70
0
 10
431.869880
 20
2199.461604
 30
0.0
 10
429.527224
 20
2199.673444
 30
0.0
  0
SPLINE
  5
44c
100
AcDbEntity
  8
comments
 62
7
100
AcDbSpline
 70
8
 71
3
 72
8
 73
4
 74
0
 40
0
 40
0
 40
0
 40
0
 40
1
 40
1
 40
1
 40
1
 10
440.044256
 20
2192.969444
 30
0.0
 10
440.044240
 20
2192.304804
 30
0.0
 10
440.131464
 20
2191.802244
 30
0.0
 10
440.305936
 20
2191.461684
 30
0.0
  0
SPLINE
  5
44d
100
AcDbEntity
  8
comments
 62
7
100
AcDbSpline
 70
8
 71
3
 72
8
 73
4
 74
0
 40
0
 40
0
 40
0
 40
0
 40
1
 40
1
 40
1
 40
1
 10
440.305936
 20
2191.461684
 30
0.0
 10
440.480376
 20
2191.129364
 30
0.0
 10
440.812664
 20
2190.963204
 30
0.0
 10
441.302808
 20
2190.963204
 30
0.0
  0
SPLINE
  5
44e
100
AcDbEntity
  8
comments
 62
7
100
AcDbSpline
 70
8
 71
3
 72
8
 73
4
 74
0
 40
0
 40
0
 40
0
 40
0
 40
1
 40
1
 40
1
 40
1
 10
441.302808
 20
2190.963204
 30
0.0
 10
441.427400
 20
2190.963204
 30
0.0
 10
441.552016
 20
2190.971204
 30
0.0
 10
441.676632
 20
2190.988004
 30
0.0
  0
SPLINE
  5
44f
100
AcDbEntity
  8
comments
 62
7
100
AcDbSpline
 70
8
 71
3
 72
8
 73
4
 74
0
 40
0
 40
0
 40
0
 40
0
 40
1
 40
1
 40
1
 40
1
 10
441.676632
 20
2190.988004
 30
0.0
 10
441.801232
 20
2191.004804
 30
0.0
 10
441.921688
 20
2191.025604
 30
0.0
 10
442.038000
 20
2191.050404
 30
0.0
  0
LWPOLYLINE
  5
450
100
AcDbEntity
  8
comments
 62
7
100
AcDbPolyline
 90
2
 70
0
 10
440.044256
 20
2198.776244
 30
0.0
 10
440.044256
 20
2192.969444
 30
0.0
  0
SPLINE
  5
451
100
AcDbEntity
  8
comments
 62
7
100
AcDbSpline
 70
8
 71
3
 72
8
 73
4
 74
0
 40
0
 40
0
 40
0
 40
0
 40
1
 40
1
 40
1
 40
1
 10
442.038000
 20
2189.654804
 30
0.0
 10
441.755544
 20
2189.588404
 30
0.0
 10
441.473096
 20
2189.538484
 30
0.0
 10
441.190656
 20
2189.505284
 30
0.0
  0
SPLINE
  5
452
100
AcDbEntity
  8
comments
 62
7
100
AcDbSpline
 70
8
 71
3
 72
8
 73
4
 74
0
 40
0
 40
0
 40
0
 40
0
 40
1
 40
1
 40
1
 40
1
 10
441.190656
 20
2189.505284
 30
0.0
 10
440.916504
 20
2189.471684
 30
0.0
 10
440.621600
 20
2189.455684
 30
0.0
 10
440.305936
 20
2189.455684
 30
0.0
  0
SPLINE
  5
453
100
AcDbEntity
  8
comments
 62
7
100
AcDbSpline
 70
8
 71
3
 72
8
 73
4
 74
0
 40
0
 40
0
 40
0
 40
0
 40
1
 40
1
 40
1
 40
1
 10
440.305936
 20
2189.455684
 30
0.0
 10
439.882248
 20
2189.455684
 30
0.0
 10
439.516728
 20
2189.509284
 30
0.0
 10
439.209368
 20
2189.617684
 30
0.0
  0
SPLINE
  5
454
100
AcDbEntity
  8
comments
 62
7
100
AcDbSpline
 70
8
 71
3
 72
8
 73
4
 74
0
 40
0
 40
0
 40
0
 40
0
 40
1
 40
1
 40
1
 40
1
 10
439.209368
 20
2189.617684
 30
0.0
 10
438.910296
 20
2189.734004
 30
0.0
 10
438.665232
 20
2189.904244
 30
0.0
 10
438.474176
 20
2190.128564
 30
0.0
  0
SPLINE
  5
455
100
AcDbEntity
  8
comments
 62
7
100
AcDbSpline
 70
8
 71
3
 72
8
 73
4
 74
0
 40
0
 40
0
 40
0
 40
0
 40
1
 40
1
 40
1
 40
1
 10
438.474176
 20
2190.128564
 30
0.0
 10
438.283096
 20
2190.361204
 30
0.0
 10
438.137720
 20
2190.643604
 30
0.0
 10
438.038040
 20
2190.975924
 30
0.0
  0
SPLINE
  5
456
100
AcDbEntity
  8
comments
 62
7
100
AcDbSpline
 70
8
 71
3
 72
8
 73
4
 74
0
 40
0
 40
0
 40
0
 40
0
 40
1
 40
1
 40
1
 40
1
 10
438.038040
 20
2190.975924
 30
0.0
 10
437.938344
 20
2191.316484
 30
0.0
 10
437.876040
 20
2191.711124
 30
0.0
 10
437.851128
 20
2192.159684
 30
0.0
  0
LWPOLYLINE
  5
457
100
AcDbEntity
  8
comments
 62
7
100
AcDbPolyline
 90
2
 70
0
 10
442.038000
 20
2191.050404
 30
0.0
 10
442.038000
 20
2189.654804
 30
0.0
  0
SPLINE
  5
458
100
AcDbEntity
  8
comments
 62
7
100
AcDbSpline
 70
8
 71
3
 72
8
 73
4
 74
0
 40
0
 40
0
 40
0
 40
0
 40
1
 40
1
 40
1
 40
1
 10
437.776328
 20
2192.159684
 30
0.0
 10
437.535408
 20
2191.727764
 30
0.0
 10
437.269576
 20
2191.337284
 30
0.0
 10
436.978832
 20
2190.988404
 30
0.0
  0
SPLINE
  5
459
100
AcDbEntity
  8
comments
 62
7
100
AcDbSpline
 70
8
 71
3
 72
8
 73
4
 74
0
 40
0
 40
0
 40
0
 40
0
 40
1
 40
1
 40
1
 40
1
 10
436.978832
 20
2190.988404
 30
0.0
 10
436.696376
 20
2190.639444
 30
0.0
 10
436.364080
 20
2190.340404
 30
0.0
 10
435.981952
 20
2190.091204
 30
0.0
  0
SPLINE
  5
45a
100
AcDbEntity
  8
comments
 62
7
100
AcDbSpline
 70
8
 71
3
 72
8
 73
4
 74
0
 40
0
 40
0
 40
0
 40
0
 40
1
 40
1
 40
1
 40
1
 10
435.981952
 20
2190.091204
 30
0.0
 10
435.599816
 20
2189.850244
 30
0.0
 10
435.163680
 20
2189.663364
 30
0.0
 10
434.673560
 20
2189.530484
 30
0.0
  0
SPLINE
  5
45b
100
AcDbEntity
  8
comments
 62
7
100
AcDbSpline
 70
8
 71
3
 72
8
 73
4
 74
0
 40
0
 40
0
 40
0
 40
0
 40
1
 40
1
 40
1
 40
1
 10
434.673560
 20
2189.530484
 30
0.0
 10
434.191728
 20
2189.397524
 30
0.0
 10
433.635136
 20
2189.331044
 30
0.0
 10
433.003792
 20
2189.331044
 30
0.0
  0
SPLINE
  5
45c
100
AcDbEntity
  8
comments
 62
7
100
AcDbSpline
 70
8
 71
3
 72
8
 73
4
 74
0
 40
0
 40
0
 40
0
 40
0
 40
1
 40
1
 40
1
 40
1
 10
433.514688
 20
2191.013284
 30
0.0
 10
434.229112
 20
2191.013284
 30
0.0
 10
434.852160
 20
2191.142084
 30
0.0
 10
435.383832
 20
2191.399604
 30
0.0
  0
SPLINE
  5
45d
100
AcDbEntity
  8
comments
 62
7
100
AcDbSpline
 70
8
 71
3
 72
8
 73
4
 74
0
 40
0
 40
0
 40
0
 40
0
 40
1
 40
1
 40
1
 40
1
 10
435.383832
 20
2191.399604
 30
0.0
 10
435.923800
 20
2191.665444
 30
0.0
 10
436.368232
 20
2192.001844
 30
0.0
 10
436.717152
 20
2192.408964
 30
0.0
  0
SPLINE
  5
45e
100
AcDbEntity
  8
comments
 62
7
100
AcDbSpline
 70
8
 71
3
 72
8
 73
4
 74
0
 40
0
 40
0
 40
0
 40
0
 40
1
 40
1
 40
1
 40
1
 10
436.717152
 20
2192.408964
 30
0.0
 10
437.074352
 20
2192.816004
 30
0.0
 10
437.340184
 20
2193.260404
 30
0.0
 10
437.514648
 20
2193.742244
 30
0.0
  0
SPLINE
  5
45f
100
AcDbEntity
  8
comments
 62
7
100
AcDbSpline
 70
8
 71
3
 72
8
 73
4
 74
0
 40
0
 40
0
 40
0
 40
0
 40
1
 40
1
 40
1
 40
1
 10
437.514648
 20
2193.742244
 30
0.0
 10
437.689096
 20
2194.224084
 30
0.0
 10
437.776320
 20
2194.685124
 30
0.0
 10
437.776328
 20
2195.125444
 30
0.0
  0
LWPOLYLINE
  5
460
100
AcDbEntity
  8
comments
 62
7
100
AcDbPolyline
 90
2
 70
0
 10
437.851128
 20
2192.159684
 30
0.0
 10
437.776328
 20
2192.159684
 30
0.0
  0
SPLINE
  5
461
100
AcDbEntity
  8
comments
 62
7
100
AcDbSpline
 70
8
 71
3
 72
8
 73
4
 74
0
 40
0
 40
0
 40
0
 40
0
 40
1
 40
1
 40
1
 40
1
 10
435.321528
 20
2196.184804
 30
0.0
 10
434.773240
 20
2196.176804
 30
0.0
 10
434.249880
 20
2196.135204
 30
0.0
 10
433.751448
 20
2196.060244
 30
0.0
  0
SPLINE
  5
462
100
AcDbEntity
  8
comments
 62
7
100
AcDbSpline
 70
8
 71
3
 72
8
 73
4
 74
0
 40
0
 40
0
 40
0
 40
0
 40
1
 40
1
 40
1
 40
1
 10
433.751448
 20
2196.060244
 30
0.0
 10
433.261312
 20
2195.993844
 30
0.0
 10
432.829336
 20
2195.856644
 30
0.0
 10
432.455512
 20
2195.649044
 30
0.0
  0
SPLINE
  5
463
100
AcDbEntity
  8
comments
 62
7
100
AcDbSpline
 70
8
 71
3
 72
8
 73
4
 74
0
 40
0
 40
0
 40
0
 40
0
 40
1
 40
1
 40
1
 40
1
 10
432.455512
 20
2195.649044
 30
0.0
 10
432.081680
 20
2195.441284
 30
0.0
 10
431.782616
 20
2195.150564
 30
0.0
 10
431.558320
 20
2194.776724
 30
0.0
  0
SPLINE
  5
464
100
AcDbEntity
  8
comments
 62
7
100
AcDbSpline
 70
8
 71
3
 72
8
 73
4
 74
0
 40
0
 40
0
 40
0
 40
0
 40
1
 40
1
 40
1
 40
1
 10
431.558320
 20
2194.776724
 30
0.0
 10
431.342328
 20
2194.402884
 30
0.0
 10
431.234336
 20
2193.912804
 30
0.0
 10
431.234336
 20
2193.306324
 30
0.0
  0
SPLINE
  5
465
100
AcDbEntity
  8
comments
 62
7
100
AcDbSpline
 70
8
 71
3
 72
8
 73
4
 74
0
 40
0
 40
0
 40
0
 40
0
 40
1
 40
1
 40
1
 40
1
 10
431.234336
 20
2193.306324
 30
0.0
 10
431.234336
 20
2192.575284
 30
0.0
 10
431.429552
 20
2192.010404
 30
0.0
 10
431.820000
 20
2191.611684
 30
0.0
  0
SPLINE
  5
466
100
AcDbEntity
  8
comments
 62
7
100
AcDbSpline
 70
8
 71
3
 72
8
 73
4
 74
0
 40
0
 40
0
 40
0
 40
0
 40
1
 40
1
 40
1
 40
1
 10
431.820000
 20
2191.611684
 30
0.0
 10
432.218744
 20
2191.212884
 30
0.0
 10
432.783640
 20
2191.013524
 30
0.0
 10
433.514688
 20
2191.013524
 30
0.0
  0
LWPOLYLINE
  5
467
100
AcDbEntity
  8
comments
 62
7
100
AcDbPolyline
 90
3
 70
0
 10
437.776328
 20
2195.125444
 30
0.0
 10
437.776328
 20
2196.234404
 30
0.0
 10
435.321528
 20
2196.184804
 30
0.0
  0
SPLINE
  5
468
100
AcDbEntity
  8
comments
 62
7
100
AcDbSpline
 70
8
 71
3
 72
8
 73
4
 74
0
 40
0
 40
0
 40
0
 40
0
 40
1
 40
1
 40
1
 40
1
 10
443.819920
 20
2199.922884
 30
0.0
 10
443.819912
 20
2200.205284
 30
0.0
 10
443.815920
 20
2200.491924
 30
0.0
 10
443.807440
 20
2200.782644
 30
0.0
  0
SPLINE
  5
469
100
AcDbEntity
  8
comments
 62
7
100
AcDbSpline
 70
8
 71
3
 72
8
 73
4
 74
0
 40
0
 40
0
 40
0
 40
0
 40
1
 40
1
 40
1
 40
1
 10
443.807440
 20
2200.782644
 30
0.0
 10
443.807440
 20
2201.081764
 30
0.0
 10
443.803440
 20
2201.368324
 30
0.0
 10
443.794960
 20
2201.642484
 30
0.0
  0
SPLINE
  5
46a
100
AcDbEntity
  8
comments
 62
7
100
AcDbSpline
 70
8
 71
3
 72
8
 73
4
 74
0
 40
0
 40
0
 40
0
 40
0
 40
1
 40
1
 40
1
 40
1
 10
443.794960
 20
2201.642484
 30
0.0
 10
443.786640
 20
2201.916644
 30
0.0
 10
443.778320
 20
2202.174164
 30
0.0
 10
443.770000
 20
2202.415044
 30
0.0
  0
SPLINE
  5
46b
100
AcDbEntity
  8
comments
 62
7
100
AcDbSpline
 70
8
 71
3
 72
8
 73
4
 74
0
 40
0
 40
0
 40
0
 40
0
 40
1
 40
1
 40
1
 40
1
 10
443.770000
 20
2202.415044
 30
0.0
 10
443.761680
 20
2202.655924
 30
0.0
 10
443.753360
 20
2202.871924
 30
0.0
 10
443.745040
 20
2203.063044
 30
0.0
  0
LWPOLYLINE
  5
46c
100
AcDbEntity
  8
comments
 62
7
100
AcDbPolyline
 90
2
 70
0
 10
443.819920
 20
2189.580324
 30
0.0
 10
443.819920
 20
2199.922884
 30
0.0
  0
SPLINE
  5
46d
100
AcDbEntity
  8
comments
 62
7
100
AcDbSpline
 70
8
 71
3
 72
8
 73
4
 74
0
 40
0
 40
0
 40
0
 40
0
 40
1
 40
1
 40
1
 40
1
 10
445.863400
 20
2203.063044
 30
0.0
 10
445.871720
 20
2202.871924
 30
0.0
 10
445.880040
 20
2202.651764
 30
0.0
 10
445.888360
 20
2202.402564
 30
0.0
  0
SPLINE
  5
46e
100
AcDbEntity
  8
comments
 62
7
100
AcDbSpline
 70
8
 71
3
 72
8
 73
4
 74
0
 40
0
 40
0
 40
0
 40
0
 40
1
 40
1
 40
1
 40
1
 10
445.888360
 20
2202.402564
 30
0.0
 10
445.905000
 20
2202.161684
 30
0.0
 10
445.917400
 20
2201.912484
 30
0.0
 10
445.925720
 20
2201.654964
 30
0.0
  0
SPLINE
  5
46f
100
AcDbEntity
  8
comments
 62
7
100
AcDbSpline
 70
8
 71
3
 72
8
 73
4
 74
0
 40
0
 40
0
 40
0
 40
0
 40
1
 40
1
 40
1
 40
1
 10
445.925720
 20
2201.654964
 30
0.0
 10
445.942360
 20
2201.397364
 30
0.0
 10
445.950600
 20
2201.148164
 30
0.0
 10
445.950600
 20
2200.907284
 30
0.0
  0
SPLINE
  5
470
100
AcDbEntity
  8
comments
 62
7
100
AcDbSpline
 70
8
 71
3
 72
8
 73
4
 74
0
 40
0
 40
0
 40
0
 40
0
 40
1
 40
1
 40
1
 40
1
 10
445.950600
 20
2200.907284
 30
0.0
 10
445.958920
 20
2200.674644
 30
0.0
 10
445.963080
 20
2200.475284
 30
0.0
 10
445.963080
 20
2200.309124
 30
0.0
  0
LWPOLYLINE
  5
471
100
AcDbEntity
  8
comments
 62
7
100
AcDbPolyline
 90
2
 70
0
 10
443.745040
 20
2203.063044
 30
0.0
 10
445.863400
 20
2203.063044
 30
0.0
  0
SPLINE
  5
472
100
AcDbEntity
  8
comments
 62
7
100
AcDbSpline
 70
8
 71
3
 72
8
 73
4
 74
0
 40
0
 40
0
 40
0
 40
0
 40
1
 40
1
 40
1
 40
1
 10
446.012920
 20
2200.309124
 30
0.0
 10
446.170760
 20
2200.824164
 30
0.0
 10
446.336904
 20
2201.268644
 30
0.0
 10
446.511360
 20
2201.642484
 30
0.0
  0
SPLINE
  5
473
100
AcDbEntity
  8
comments
 62
7
100
AcDbSpline
 70
8
 71
3
 72
8
 73
4
 74
0
 40
0
 40
0
 40
0
 40
0
 40
1
 40
1
 40
1
 40
1
 10
446.511360
 20
2201.642484
 30
0.0
 10
446.694112
 20
2202.024564
 30
0.0
 10
446.905952
 20
2202.336164
 30
0.0
 10
447.146864
 20
2202.577044
 30
0.0
  0
SPLINE
  5
474
100
AcDbEntity
  8
comments
 62
7
100
AcDbSpline
 70
8
 71
3
 72
8
 73
4
 74
0
 40
0
 40
0
 40
0
 40
0
 40
1
 40
1
 40
1
 40
1
 10
447.146864
 20
2202.577044
 30
0.0
 10
447.387776
 20
2202.826244
 30
0.0
 10
447.674376
 20
2203.009044
 30
0.0
 10
448.006672
 20
2203.125364
 30
0.0
  0
SPLINE
  5
475
100
AcDbEntity
  8
comments
 62
7
100
AcDbSpline
 70
8
 71
3
 72
8
 73
4
 74
0
 40
0
 40
0
 40
0
 40
0
 40
1
 40
1
 40
1
 40
1
 10
448.006672
 20
2203.125364
 30
0.0
 10
448.338960
 20
2203.249924
 30
0.0
 10
448.741864
 20
2203.312244
 30
0.0
 10
449.215384
 20
2203.312244
 30
0.0
  0
SPLINE
  5
476
100
AcDbEntity
  8
comments
 62
7
100
AcDbSpline
 70
8
 71
3
 72
8
 73
4
 74
0
 40
0
 40
0
 40
0
 40
0
 40
1
 40
1
 40
1
 40
1
 10
449.215384
 20
2203.312244
 30
0.0
 10
449.398136
 20
2203.312244
 30
0.0
 10
449.572592
 20
2203.295444
 30
0.0
 10
449.738744
 20
2203.262644
 30
0.0
  0
SPLINE
  5
477
100
AcDbEntity
  8
comments
 62
7
100
AcDbSpline
 70
8
 71
3
 72
8
 73
4
 74
0
 40
0
 40
0
 40
0
 40
0
 40
1
 40
1
 40
1
 40
1
 10
449.738744
 20
2203.262644
 30
0.0
 10
449.904880
 20
2203.237844
 30
0.0
 10
450.033640
 20
2203.213044
 30
0.0
 10
450.125032
 20
2203.188244
 30
0.0
  0
LWPOLYLINE
  5
478
100
AcDbEntity
  8
comments
 62
7
100
AcDbPolyline
 90
2
 70
0
 10
445.963080
 20
2200.309124
 30
0.0
 10
446.012920
 20
2200.309124
 30
0.0
  0
SPLINE
  5
479
100
AcDbEntity
  8
comments
 62
7
100
AcDbSpline
 70
8
 71
3
 72
8
 73
4
 74
0
 40
0
 40
0
 40
0
 40
0
 40
1
 40
1
 40
1
 40
1
 10
450.125032
 20
2201.132244
 30
0.0
 10
449.975496
 20
2201.173844
 30
0.0
 10
449.801040
 20
2201.202644
 30
0.0
 10
449.601672
 20
2201.219444
 30
0.0
  0
SPLINE
  5
47a
100
AcDbEntity
  8
comments
 62
7
100
AcDbSpline
 70
8
 71
3
 72
8
 73
4
 74
0
 40
0
 40
0
 40
0
 40
0
 40
1
 40
1
 40
1
 40
1
 10
449.601672
 20
2201.219444
 30
0.0
 10
449.402288
 20
2201.244244
 30
0.0
 10
449.177992
 20
2201.257044
 30
0.0
 10
448.928784
 20
2201.257044
 30
0.0
  0
SPLINE
  5
47b
100
AcDbEntity
  8
comments
 62
7
100
AcDbSpline
 70
8
 71
3
 72
8
 73
4
 74
0
 40
0
 40
0
 40
0
 40
0
 40
1
 40
1
 40
1
 40
1
 10
448.928784
 20
2201.257044
 30
0.0
 10
448.413720
 20
2201.257044
 30
0.0
 10
447.973440
 20
2201.140724
 30
0.0
 10
447.607920
 20
2200.908164
 30
0.0
  0
SPLINE
  5
47c
100
AcDbEntity
  8
comments
 62
7
100
AcDbSpline
 70
8
 71
3
 72
8
 73
4
 74
0
 40
0
 40
0
 40
0
 40
0
 40
1
 40
1
 40
1
 40
1
 10
447.607920
 20
2200.908164
 30
0.0
 10
447.250704
 20
2200.675524
 30
0.0
 10
446.955792
 20
2200.351604
 30
0.0
 10
446.723192
 20
2199.936244
 30
0.0
  0
SPLINE
  5
47d
100
AcDbEntity
  8
comments
 62
7
100
AcDbSpline
 70
8
 71
3
 72
8
 73
4
 74
0
 40
0
 40
0
 40
0
 40
0
 40
1
 40
1
 40
1
 40
1
 10
446.723192
 20
2199.936244
 30
0.0
 10
446.498896
 20
2199.529124
 30
0.0
 10
446.332752
 20
2199.039044
 30
0.0
 10
446.224760
 20
2198.465844
 30
0.0
  0
SPLINE
  5
47e
100
AcDbEntity
  8
comments
 62
7
100
AcDbSpline
 70
8
 71
3
 72
8
 73
4
 74
0
 40
0
 40
0
 40
0
 40
0
 40
1
 40
1
 40
1
 40
1
 10
446.224760
 20
2198.465844
 30
0.0
 10
446.116760
 20
2197.900884
 30
0.0
 10
446.062760
 20
2197.282004
 30
0.0
 10
446.062768
 20
2196.609124
 30
0.0
  0
LWPOLYLINE
  5
47f
100
AcDbEntity
  8
comments
 62
7
100
AcDbPolyline
 90
2
 70
0
 10
450.125032
 20
2203.188244
 30
0.0
 10
450.125032
 20
2201.132244
 30
0.0
  0
SPLINE
  5
480
100
AcDbEntity
  8
comments
 62
7
100
AcDbSpline
 70
8
 71
3
 72
8
 73
4
 74
0
 40
0
 40
0
 40
0
 40
0
 40
1
 40
1
 40
1
 40
1
 10
460.804176
 20
2191.748484
 30
0.0
 10
460.388800
 20
2190.884564
 30
0.0
 10
459.836360
 20
2190.265604
 30
0.0
 10
459.146864
 20
2189.891844
 30
0.0
  0
SPLINE
  5
481
100
AcDbEntity
  8
comments
 62
7
100
AcDbSpline
 70
8
 71
3
 72
8
 73
4
 74
0
 40
0
 40
0
 40
0
 40
0
 40
1
 40
1
 40
1
 40
1
 10
459.146864
 20
2189.891844
 30
0.0
 10
458.465664
 20
2189.518004
 30
0.0
 10
457.618320
 20
2189.331044
 30
0.0
 10
456.604840
 20
2189.331044
 30
0.0
  0
SPLINE
  5
482
100
AcDbEntity
  8
comments
 62
7
100
AcDbSpline
 70
8
 71
3
 72
8
 73
4
 74
0
 40
0
 40
0
 40
0
 40
0
 40
1
 40
1
 40
1
 40
1
 10
456.604840
 20
2189.331044
 30
0.0
 10
454.901840
 20
2189.331044
 30
0.0
 10
453.647440
 20
2189.904244
 30
0.0
 10
452.841632
 20
2191.050644
 30
0.0
  0
SPLINE
  5
483
100
AcDbEntity
  8
comments
 62
7
100
AcDbSpline
 70
8
 71
3
 72
8
 73
4
 74
0
 40
0
 40
0
 40
0
 40
0
 40
1
 40
1
 40
1
 40
1
 10
452.841632
 20
2191.050644
 30
0.0
 10
452.044128
 20
2192.197124
 30
0.0
 10
451.645384
 20
2193.933284
 30
0.0
 10
451.645384
 20
2196.259364
 30
0.0
  0
SPLINE
  5
484
100
AcDbEntity
  8
comments
 62
7
100
AcDbSpline
 70
8
 71
3
 72
8
 73
4
 74
0
 40
0
 40
0
 40
0
 40
0
 40
1
 40
1
 40
1
 40
1
 10
451.645384
 20
2196.259364
 30
0.0
 10
451.645384
 20
2200.961284
 30
0.0
 10
453.298528
 20
2203.312244
 30
0.0
 10
456.604840
 20
2203.312244
 30
0.0
  0
SPLINE
  5
485
100
AcDbEntity
  8
comments
 62
7
100
AcDbSpline
 70
8
 71
3
 72
8
 73
4
 74
0
 40
0
 40
0
 40
0
 40
0
 40
1
 40
1
 40
1
 40
1
 10
456.604840
 20
2203.312244
 30
0.0
 10
457.626624
 20
2203.312244
 30
0.0
 10
458.478120
 20
2203.125284
 30
0.0
 10
459.159328
 20
2202.751524
 30
0.0
  0
SPLINE
  5
486
100
AcDbEntity
  8
comments
 62
7
100
AcDbSpline
 70
8
 71
3
 72
8
 73
4
 74
0
 40
0
 40
0
 40
0
 40
0
 40
1
 40
1
 40
1
 40
1
 10
459.159328
 20
2202.751524
 30
0.0
 10
459.840520
 20
2202.377684
 30
0.0
 10
460.388800
 20
2201.783684
 30
0.0
 10
460.804176
 20
2200.969604
 30
0.0
  0
LWPOLYLINE
  5
487
100
AcDbEntity
  8
comments
 62
7
100
AcDbPolyline
 90
3
 70
0
 10
446.062768
 20
2196.609124
 30
0.0
 10
446.062768
 20
2189.581204
 30
0.0
 10
443.819800
 20
2189.581204
 30
0.0
  0
SPLINE
  5
488
100
AcDbEntity
  8
comments
 62
7
100
AcDbSpline
 70
8
 71
3
 72
8
 73
4
 74
0
 40
0
 40
0
 40
0
 40
0
 40
1
 40
1
 40
1
 40
1
 10
460.829136
 20
2200.969604
 30
0.0
 10
460.829120
 20
2201.052644
 30
0.0
 10
460.825136
 20
2201.181444
 30
0.0
 10
460.816656
 20
2201.355844
 30
0.0
  0
SPLINE
  5
489
100
AcDbEntity
  8
comments
 62
7
100
AcDbSpline
 70
8
 71
3
 72
8
 73
4
 74
0
 40
0
 40
0
 40
0
 40
0
 40
1
 40
1
 40
1
 40
1
 10
460.816656
 20
2201.355844
 30
0.0
 10
460.816648
 20
2201.538644
 30
0.0
 10
460.812656
 20
2201.725524
 30
0.0
 10
460.804176
 20
2201.916644
 30
0.0
  0
SPLINE
  5
48a
100
AcDbEntity
  8
comments
 62
7
100
AcDbSpline
 70
8
 71
3
 72
8
 73
4
 74
0
 40
0
 40
0
 40
0
 40
0
 40
1
 40
1
 40
1
 40
1
 10
460.804176
 20
2201.916644
 30
0.0
 10
460.804160
 20
2202.116004
 30
0.0
 10
460.804160
 20
2202.302884
 30
0.0
 10
460.804176
 20
2202.477364
 30
0.0
  0
SPLINE
  5
48b
100
AcDbEntity
  8
comments
 62
7
100
AcDbSpline
 70
8
 71
3
 72
8
 73
4
 74
0
 40
0
 40
0
 40
0
 40
0
 40
1
 40
1
 40
1
 40
1
 10
460.804176
 20
2202.477364
 30
0.0
 10
460.804160
 20
2202.651764
 30
0.0
 10
460.804160
 20
2202.776404
 30
0.0
 10
460.804176
 20
2202.851204
 30
0.0
  0
LWPOLYLINE
  5
48c
100
AcDbEntity
  8
comments
 62
7
100
AcDbPolyline
 90
2
 70
0
 10
460.804176
 20
2200.969604
 30
0.0
 10
460.829136
 20
2200.969604
 30
0.0
  0
SPLINE
  5
48d
100
AcDbEntity
  8
comments
 62
7
100
AcDbSpline
 70
8
 71
3
 72
8
 73
4
 74
0
 40
0
 40
0
 40
0
 40
0
 40
1
 40
1
 40
1
 40
1
 10
463.047144
 20
2192.359044
 30
0.0
 10
463.047128
 20
2192.035124
 30
0.0
 10
463.047128
 20
2191.723604
 30
0.0
 10
463.047144
 20
2191.424484
 30
0.0
  0
SPLINE
  5
48e
100
AcDbEntity
  8
comments
 62
7
100
AcDbSpline
 70
8
 71
3
 72
8
 73
4
 74
0
 40
0
 40
0
 40
0
 40
0
 40
1
 40
1
 40
1
 40
1
 10
463.047144
 20
2191.424484
 30
0.0
 10
463.055464
 20
2191.125444
 30
0.0
 10
463.063784
 20
2190.851284
 30
0.0
 10
463.072024
 20
2190.602084
 30
0.0
  0
SPLINE
  5
48f
100
AcDbEntity
  8
comments
 62
7
100
AcDbSpline
 70
8
 71
3
 72
8
 73
4
 74
0
 40
0
 40
0
 40
0
 40
0
 40
1
 40
1
 40
1
 40
1
 10
463.072024
 20
2190.602084
 30
0.0
 10
463.080344
 20
2190.352884
 30
0.0
 10
463.088664
 20
2190.136884
 30
0.0
 10
463.096984
 20
2189.954084
 30
0.0
  0
SPLINE
  5
490
100
AcDbEntity
  8
comments
 62
7
100
AcDbSpline
 70
8
 71
3
 72
8
 73
4
 74
0
 40
0
 40
0
 40
0
 40
0
 40
1
 40
1
 40
1
 40
1
 10
463.096984
 20
2189.954084
 30
0.0
 10
463.105304
 20
2189.779684
 30
0.0
 10
463.113624
 20
2189.655044
 30
0.0
 10
463.121944
 20
2189.580324
 30
0.0
  0
LWPOLYLINE
  5
491
100
AcDbEntity
  8
comments
 62
7
100
AcDbPolyline
 90
4
 70
0
 10
460.804176
 20
2202.851204
 30
0.0
 10
460.804176
 20
2208.072324
 30
0.0
 10
463.047144
 20
2208.072324
 30
0.0
 10
463.047144
 20
2192.359044
 30
0.0
  0
SPLINE
  5
492
100
AcDbEntity
  8
comments
 62
7
100
AcDbSpline
 70
8
 71
3
 72
8
 73
4
 74
0
 40
0
 40
0
 40
0
 40
0
 40
1
 40
1
 40
1
 40
1
 10
460.978664
 20
2189.580324
 30
0.0
 10
460.962024
 20
2189.663364
 30
0.0
 10
460.945384
 20
2189.779684
 30
0.0
 10
460.928824
 20
2189.929204
 30
0.0
  0
SPLINE
  5
493
100
AcDbEntity
  8
comments
 62
7
100
AcDbSpline
 70
8
 71
3
 72
8
 73
4
 74
0
 40
0
 40
0
 40
0
 40
0
 40
1
 40
1
 40
1
 40
1
 10
460.928824
 20
2189.929204
 30
0.0
 10
460.920504
 20
2190.087044
 30
0.0
 10
460.908024
 20
2190.265604
 30
0.0
 10
460.891464
 20
2190.465044
 30
0.0
  0
SPLINE
  5
494
100
AcDbEntity
  8
comments
 62
7
100
AcDbSpline
 70
8
 71
3
 72
8
 73
4
 74
0
 40
0
 40
0
 40
0
 40
0
 40
1
 40
1
 40
1
 40
1
 10
460.891464
 20
2190.465044
 30
0.0
 10
460.883144
 20
2190.664404
 30
0.0
 10
460.874824
 20
2190.872084
 30
0.0
 10
460.866504
 20
2191.088084
 30
0.0
  0
SPLINE
  5
495
100
AcDbEntity
  8
comments
 62
7
100
AcDbSpline
 70
8
 71
3
 72
8
 73
4
 74
0
 40
0
 40
0
 40
0
 40
0
 40
1
 40
1
 40
1
 40
1
 10
460.866504
 20
2191.088084
 30
0.0
 10
460.858184
 20
2191.312324
 30
0.0
 10
460.854024
 20
2191.532484
 30
0.0
 10
460.854024
 20
2191.748484
 30
0.0
  0
LWPOLYLINE
  5
496
100
AcDbEntity
  8
comments
 62
7
100
AcDbPolyline
 90
2
 70
0
 10
463.121944
 20
2189.580324
 30
0.0
 10
460.978664
 20
2189.580324
 30
0.0
  0
SPLINE
  5
497
100
AcDbEntity
  8
comments
 62
7
100
AcDbSpline
 70
8
 71
3
 72
8
 73
4
 74
0
 40
0
 40
0
 40
0
 40
0
 40
1
 40
1
 40
1
 40
1
 10
454.000512
 20
2196.334084
 30
0.0
 10
454.000504
 20
2195.403684
 30
0.0
 10
454.058672
 20
2194.606164
 30
0.0
 10
454.174960
 20
2193.941604
 30
0.0
  0
SPLINE
  5
498
100
AcDbEntity
  8
comments
 62
7
100
AcDbSpline
 70
8
 71
3
 72
8
 73
4
 74
0
 40
0
 40
0
 40
0
 40
0
 40
1
 40
1
 40
1
 40
1
 10
454.174960
 20
2193.941604
 30
0.0
 10
454.291256
 20
2193.277044
 30
0.0
 10
454.478176
 20
2192.728724
 30
0.0
 10
454.735704
 20
2192.296804
 30
0.0
  0
SPLINE
  5
499
100
AcDbEntity
  8
comments
 62
7
100
AcDbSpline
 70
8
 71
3
 72
8
 73
4
 74
0
 40
0
 40
0
 40
0
 40
0
 40
1
 40
1
 40
1
 40
1
 10
454.735704
 20
2192.296804
 30
0.0
 10
454.993224
 20
2191.873124
 30
0.0
 10
455.321360
 20
2191.561604
 30
0.0
 10
455.720120
 20
2191.362244
 30
0.0
  0
SPLINE
  5
49a
100
AcDbEntity
  8
comments
 62
7
100
AcDbSpline
 70
8
 71
3
 72
8
 73
4
 74
0
 40
0
 40
0
 40
0
 40
0
 40
1
 40
1
 40
1
 40
1
 10
455.720120
 20
2191.362244
 30
0.0
 10
456.118864
 20
2191.162804
 30
0.0
 10
456.604840
 20
2191.063124
 30
0.0
 10
457.178048
 20
2191.063124
 30
0.0
  0
SPLINE
  5
49b
100
AcDbEntity
  8
comments
 62
7
100
AcDbSpline
 70
8
 71
3
 72
8
 73
4
 74
0
 40
0
 40
0
 40
0
 40
0
 40
1
 40
1
 40
1
 40
1
 10
457.178048
 20
2191.063124
 30
0.0
 10
457.767856
 20
2191.063124
 30
0.0
 10
458.287064
 20
2191.158644
 30
0.0
 10
458.735664
 20
2191.349764
 30
0.0
  0
SPLINE
  5
49c
100
AcDbEntity
  8
comments
 62
7
100
AcDbSpline
 70
8
 71
3
 72
8
 73
4
 74
0
 40
0
 40
0
 40
0
 40
0
 40
1
 40
1
 40
1
 40
1
 10
458.735664
 20
2191.349764
 30
0.0
 10
459.192560
 20
2191.540804
 30
0.0
 10
459.570536
 20
2191.848164
 30
0.0
 10
459.869608
 20
2192.271844
 30
0.0
  0
SPLINE
  5
49d
100
AcDbEntity
  8
comments
 62
7
100
AcDbSpline
 70
8
 71
3
 72
8
 73
4
 74
0
 40
0
 40
0
 40
0
 40
0
 40
1
 40
1
 40
1
 40
1
 10
459.869608
 20
2192.271844
 30
0.0
 10
460.176968
 20
2192.703844
 30
0.0
 10
460.409576
 20
2193.264564
 30
0.0
 10
460.567424
 20
2193.954084
 30
0.0
  0
SPLINE
  5
49e
100
AcDbEntity
  8
comments
 62
7
100
AcDbSpline
 70
8
 71
3
 72
8
 73
4
 74
0
 40
0
 40
0
 40
0
 40
0
 40
1
 40
1
 40
1
 40
1
 10
460.567424
 20
2193.954084
 30
0.0
 10
460.725248
 20
2194.643604
 30
0.0
 10
460.804168
 20
2195.486804
 30
0.0
 10
460.804184
 20
2196.483684
 30
0.0
  0
SPLINE
  5
49f
100
AcDbEntity
  8
comments
 62
7
100
AcDbSpline
 70
8
 71
3
 72
8
 73
4
 74
0
 40
0
 40
0
 40
0
 40
0
 40
1
 40
1
 40
1
 40
1
 10
460.804184
 20
2196.483684
 30
0.0
 10
460.804168
 20
2197.438964
 30
0.0
 10
460.725224
 20
2198.244804
 30
0.0
 10
460.567424
 20
2198.901044
 30
0.0
  0
SPLINE
  5
4a0
100
AcDbEntity
  8
comments
 62
7
100
AcDbSpline
 70
8
 71
3
 72
8
 73
4
 74
0
 40
0
 40
0
 40
0
 40
0
 40
1
 40
1
 40
1
 40
1
 10
460.567424
 20
2198.901044
 30
0.0
 10
460.409576
 20
2199.565684
 30
0.0
 10
460.176968
 20
2200.101444
 30
0.0
 10
459.869608
 20
2200.508564
 30
0.0
  0
SPLINE
  5
4a1
100
AcDbEntity
  8
comments
 62
7
100
AcDbSpline
 70
8
 71
3
 72
8
 73
4
 74
0
 40
0
 40
0
 40
0
 40
0
 40
1
 40
1
 40
1
 40
1
 10
459.869608
 20
2200.508564
 30
0.0
 10
459.562232
 20
2200.915604
 30
0.0
 10
459.184248
 20
2201.206324
 30
0.0
 10
458.735664
 20
2201.380804
 30
0.0
  0
SPLINE
  5
4a2
100
AcDbEntity
  8
comments
 62
7
100
AcDbSpline
 70
8
 71
3
 72
8
 73
4
 74
0
 40
0
 40
0
 40
0
 40
0
 40
1
 40
1
 40
1
 40
1
 10
458.735664
 20
2201.380804
 30
0.0
 10
458.295368
 20
2201.563524
 30
0.0
 10
457.784472
 20
2201.654964
 30
0.0
 10
457.202968
 20
2201.654964
 30
0.0
  0
SPLINE
  5
4a3
100
AcDbEntity
  8
comments
 62
7
100
AcDbSpline
 70
8
 71
3
 72
8
 73
4
 74
0
 40
0
 40
0
 40
0
 40
0
 40
1
 40
1
 40
1
 40
1
 10
457.202968
 20
2201.654964
 30
0.0
 10
456.654680
 20
2201.654964
 30
0.0
 10
456.181168
 20
2201.559364
 30
0.0
 10
455.782424
 20
2201.368324
 30
0.0
  0
SPLINE
  5
4a4
100
AcDbEntity
  8
comments
 62
7
100
AcDbSpline
 70
8
 71
3
 72
8
 73
4
 74
0
 40
0
 40
0
 40
0
 40
0
 40
1
 40
1
 40
1
 40
1
 10
455.782424
 20
2201.368324
 30
0.0
 10
455.383664
 20
2201.177284
 30
0.0
 10
455.051376
 20
2200.869924
 30
0.0
 10
454.785544
 20
2200.446244
 30
0.0
  0
SPLINE
  5
4a5
100
AcDbEntity
  8
comments
 62
7
100
AcDbSpline
 70
8
 71
3
 72
8
 73
4
 74
0
 40
0
 40
0
 40
0
 40
0
 40
1
 40
1
 40
1
 40
1
 10
454.785544
 20
2200.446244
 30
0.0
 10
454.519712
 20
2200.022564
 30
0.0
 10
454.320336
 20
2199.470084
 30
0.0
 10
454.187424
 20
2198.788964
 30
0.0
  0
SPLINE
  5
4a6
100
AcDbEntity
  8
comments
 62
7
100
AcDbSpline
 70
8
 71
3
 72
8
 73
4
 74
0
 40
0
 40
0
 40
0
 40
0
 40
1
 40
1
 40
1
 40
1
 10
454.187424
 20
2198.788964
 30
0.0
 10
454.062808
 20
2198.116004
 30
0.0
 10
454.000504
 20
2197.297764
 30
0.0
 10
454.000512
 20
2196.334084
 30
0.0
  0
LWPOLYLINE
  5
4a7
100
AcDbEntity
  8
comments
 62
7
100
AcDbPolyline
 90
2
 70
0
 10
460.854024
 20
2191.748484
 30
0.0
 10
460.804184
 20
2191.748484
 30
0.0
  0
LWPOLYLINE
  5
4a8
100
AcDbEntity
  8
comments
 62
1
100
AcDbPolyline
 90
2
 70
0
 10
2409.448819
 20
1374.803149
 30
0.0
 10
2451.968504
 20
1318.110237
 30
0.0
  0
ENDSEC
  0
SECTION
  2
OBJECTS
  0
DICTIONARY
  5
C
330
0
100
AcDbDictionary
  3
ACAD_GROUP
350
D
  3
ACAD_MLINESTYLE
350
17
  0
DICTIONARY
  5
D
330
C
100
AcDbDictionary
  0
DICTIONARY
  5
1A
330
C
100
AcDbDictionary
  0
DICTIONARY
  5
17
330
C
100
AcDbDictionary
  3
STANDARD
350
18
  0
DICTIONARY
  5
19
330
C
100
AcDbDictionary
  0
ENDSEC
  0
EOF
