  0
SECTION
  2
HEADER
  9
$ACADVER
  1
AC1021
  9
$ACADMAINTVER
 70
    25
  9
$DWGCODEPAGE
  3
ANSI_1252
  9
$INSBASE
 10
0.0
 20
0.0
 30
0.0
  9
$EXTMIN
 10
-7.87951
 20
-10.04652
 30
0.0
  9
$EXTMAX
 10
6.76681
 20
12.2007
 30
0.0
  9
$LIMMIN
 10
0.0
 20
0.0
  9
$LIMMAX
 10
12.0
 20
9.0
  9
$ORTHOMODE
 70
     0
  9
$REGENMODE
 70
     1
  9
$FILLMODE
 70
     1
  9
$QTEXTMODE
 70
     0
  9
$MIRRTEXT
 70
     1
  9
$LTSCALE
 40
1.0
  9
$ATTMODE
 70
     1
  9
$TEXTSIZE
 40
0.2
  9
$TRACEWID
 40
0.05
  9
$TEXTSTYLE
  7
Standard
  9
$CLAYER
  8
0
  9
$CELTYPE
  6
ByLayer
  9
$CECOLOR
 62
   256
  9
$CELTSCALE
 40
1.0
  9
$DISPSILH
 70
     0
  9
$DIMSCALE
 40
1.0
  9
$DIMASZ
 40
0.18
  9
$DIMEXO
 40
0.0625
  9
$DIMDLI
 40
0.38
  9
$DIMRND
 40
0.0
  9
$DIMDLE
 40
0.0
  9
$DIMEXE
 40
0.18
  9
$DIMTP
 40
0.0
  9
$DIMTM
 40
0.0
  9
$DIMTXT
 40
0.18
  9
$DIMCEN
 40
0.09
  9
$DIMTSZ
 40
0.0
  9
$DIMTOL
 70
     0
  9
$DIMLIM
 70
     0
  9
$DIMTIH
 70
     1
  9
$DIMTOH
 70
     1
  9
$DIMSE1
 70
     0
  9
$DIMSE2
 70
     0
  9
$DIMTAD
 70
     0
  9
$DIMZIN
 70
     0
  9
$DIMBLK
  1

  9
$DIMASO
 70
     1
  9
$DIMSHO
 70
     1
  9
$DIMPOST
  1

  9
$DIMAPOST
  1

  9
$DIMALT
 70
     0
  9
$DIMALTD
 70
     2
  9
$DIMALTF
 40
25.4
  9
$DIMLFAC
 40
1.0
  9
$DIMTOFL
 70
     0
  9
$DIMTVP
 40
0.0
  9
$DIMTIX
 70
     0
  9
$DIMSOXD
 70
     0
  9
$DIMSAH
 70
     0
  9
$DIMBLK1
  1

  9
$DIMBLK2
  1

  9
$DIMSTYLE
  2
Standard
  9
$DIMCLRD
 70
     0
  9
$DIMCLRE
 70
     0
  9
$DIMCLRT
 70
     0
  9
$DIMTFAC
 40
1.0
  9
$DIMGAP
 40
0.09
  9
$DIMJUST
 70
     0
  9
$DIMSD1
 70
     0
  9
$DIMSD2
 70
     0
  9
$DIMTOLJ
 70
     1
  9
$DIMTZIN
 70
     0
  9
$DIMALTZ
 70
     0
  9
$DIMALTTZ
 70
     0
  9
$DIMUPT
 70
     0
  9
$DIMDEC
 70
     4
  9
$DIMTDEC
 70
     4
  9
$DIMALTU
 70
     2
  9
$DIMALTTD
 70
     2
  9
$DIMTXSTY
  7
Standard
  9
$DIMAUNIT
 70
     0
  9
$DIMADEC
 70
     0
  9
$DIMALTRND
 40
0.0
  9
$DIMAZIN
 70
     0
  9
$DIMDSEP
 70
    46
  9
$DIMATFIT
 70
     3
  9
$DIMFRAC
 70
     0
  9
$DIMLDRBLK
  1

  9
$DIMLUNIT
 70
     2
  9
$DIMLWD
 70
    -2
  9
$DIMLWE
 70
    -2
  9
$DIMTMOVE
 70
     0
  9
$DIMFXL
 40
1.0
  9
$DIMFXLON
 70
     0
  9
$DIMJOGANG
 40
0.7853981633974483
  9
$DIMTFILL
 70
     0
  9
$DIMTFILLCLR
 70
     0
  9
$DIMARCSYM
 70
     0
  9
$DIMLTYPE
  6

  9
$DIMLTEX1
  6

  9
$DIMLTEX2
  6

  9
$LUNITS
 70
     2
  9
$LUPREC
 70
     4
  9
$SKETCHINC
 40
0.1
  9
$FILLETRAD
 40
0.5
  9
$AUNITS
 70
     0
  9
$AUPREC
 70
     0
  9
$MENU
  1
.
  9
$ELEVATION
 40
0.0
  9
$PELEVATION
 40
0.0
  9
$THICKNESS
 40
0.0
  9
$LIMCHECK
 70
     0
  9
$CHAMFERA
 40
0.5
  9
$CHAMFERB
 40
0.5
  9
$CHAMFERC
 40
1.0
  9
$CHAMFERD
 40
0.0
  9
$SKPOLY
 70
     0
  9
$TDCREATE
 40
2456237.526189213
  9
$TDUCREATE
 40
2456237.484522546
  9
$TDUPDATE
 40
2456237.52618941
  9
$TDUUPDATE
 40
2456237.484522743
  9
$TDINDWG
 40
0.0000000116
  9
$TDUSRTIMER
 40
0.0000000116
  9
$USRTIMER
 70
     1
  9
$ANGBASE
 50
0.0
  9
$ANGDIR
 70
     0
  9
$PDMODE
 70
     0
  9
$PDSIZE
 40
0.0
  9
$PLINEWID
 40
0.0
  9
$SPLFRAME
 70
     0
  9
$SPLINETYPE
 70
     6
  9
$SPLINESEGS
 70
     8
  9
$HANDSEED
  5
114
  9
$SURFTAB1
 70
     6
  9
$SURFTAB2
 70
     6
  9
$SURFTYPE
 70
     6
  9
$SURFU
 70
     6
  9
$SURFV
 70
     6
  9
$UCSBASE
  2

  9
$UCSNAME
  2

  9
$UCSORG
 10
0.0
 20
0.0
 30
0.0
  9
$UCSXDIR
 10
1.0
 20
0.0
 30
0.0
  9
$UCSYDIR
 10
0.0
 20
1.0
 30
0.0
  9
$UCSORTHOREF
  2

  9
$UCSORTHOVIEW
 70
     0
  9
$UCSORGTOP
 10
0.0
 20
0.0
 30
0.0
  9
$UCSORGBOTTOM
 10
0.0
 20
0.0
 30
0.0
  9
$UCSORGLEFT
 10
0.0
 20
0.0
 30
0.0
  9
$UCSORGRIGHT
 10
0.0
 20
0.0
 30
0.0
  9
$UCSORGFRONT
 10
0.0
 20
0.0
 30
0.0
  9
$UCSORGBACK
 10
0.0
 20
0.0
 30
0.0
  9
$PUCSBASE
  2

  9
$PUCSNAME
  2

  9
$PUCSORG
 10
0.0
 20
0.0
 30
0.0
  9
$PUCSXDIR
 10
1.0
 20
0.0
 30
0.0
  9
$PUCSYDIR
 10
0.0
 20
1.0
 30
0.0
  9
$PUCSORTHOREF
  2

  9
$PUCSORTHOVIEW
 70
     0
  9
$PUCSORGTOP
 10
0.0
 20
0.0
 30
0.0
  9
$PUCSORGBOTTOM
 10
0.0
 20
0.0
 30
0.0
  9
$PUCSORGLEFT
 10
0.0
 20
0.0
 30
0.0
  9
$PUCSORGRIGHT
 10
0.0
 20
0.0
 30
0.0
  9
$PUCSORGFRONT
 10
0.0
 20
0.0
 30
0.0
  9
$PUCSORGBACK
 10
0.0
 20
0.0
 30
0.0
  9
$USERI1
 70
     0
  9
$USERI2
 70
     0
  9
$USERI3
 70
     0
  9
$USERI4
 70
     0
  9
$USERI5
 70
     0
  9
$USERR1
 40
0.0
  9
$USERR2
 40
0.0
  9
$USERR3
 40
0.0
  9
$USERR4
 40
0.0
  9
$USERR5
 40
0.0
  9
$WORLDVIEW
 70
     1
  9
$SHADEDGE
 70
     3
  9
$SHADEDIF
 70
    70
  9
$TILEMODE
 70
     1
  9
$MAXACTVP
 70
    64
  9
$PINSBASE
 10
0.0
 20
0.0
 30
0.0
  9
$PLIMCHECK
 70
     0
  9
$PEXTMIN
 10
1.000000000000000E+20
 20
1.000000000000000E+20
 30
1.000000000000000E+20
  9
$PEXTMAX
 10
-1.000000000000000E+20
 20
-1.000000000000000E+20
 30
-1.000000000000000E+20
  9
$PLIMMIN
 10
0.0
 20
0.0
  9
$PLIMMAX
 10
12.0
 20
9.0
  9
$UNITMODE
 70
     0
  9
$VISRETAIN
 70
     1
  9
$PLINEGEN
 70
     0
  9
$PSLTSCALE
 70
     1
  9
$TREEDEPTH
 70
  3020
  9
$CMLSTYLE
  2
Standard
  9
$CMLJUST
 70
     0
  9
$CMLSCALE
 40
1.0
  9
$PROXYGRAPHICS
 70
     1
  9
$MEASUREMENT
 70
     0
  9
$CELWEIGHT
370
    -1
  9
$ENDCAPS
280
     0
  9
$JOINSTYLE
280
     0
  9
$LWDISPLAY
290
     0
  9
$INSUNITS
 70
     5
  9
$HYPERLINKBASE
  1

  9
$STYLESHEET
  1

  9
$XEDIT
290
     1
  9
$CEPSNTYPE
380
     0
  9
$PSTYLEMODE
290
     1
  9
$FINGERPRINTGUID
  2
{71720474-257E-47B3-B101-1A8A9C421AF1}
  9
$VERSIONGUID
  2
{FAEB1C32-E019-11D5-929B-00C0DF256EC4}
  9
$EXTNAMES
290
     1
  9
$PSVPSCALE
 40
0.0
  9
$OLESTARTUP
290
     0
  9
$SORTENTS
280
   127
  9
$INDEXCTL
280
     0
  9
$HIDETEXT
280
     1
  9
$XCLIPFRAME
290
     0
  9
$HALOGAP
280
     0
  9
$OBSCOLOR
 70
   257
  9
$OBSLTYPE
280
     0
  9
$INTERSECTIONDISPLAY
280
     0
  9
$INTERSECTIONCOLOR
 70
   257
  9
$DIMASSOC
280
     2
  9
$PROJECTNAME
  1

  9
$CAMERADISPLAY
290
     0
  9
$LENSLENGTH
 40
50.0
  9
$CAMERAHEIGHT
 40
0.0
  9
$STEPSPERSEC
 40
2.0
  9
$STEPSIZE
 40
6.0
  9
$3DDWFPREC
 40
2.0
  9
$PSOLWIDTH
 40
0.25
  9
$PSOLHEIGHT
 40
4.0
  9
$LOFTANG1
 40
1.570796326794897
  9
$LOFTANG2
 40
1.570796326794897
  9
$LOFTMAG1
 40
0.0
  9
$LOFTMAG2
 40
0.0
  9
$LOFTPARAM
 70
     7
  9
$LOFTNORMALS
280
     1
  9
$LATITUDE
 40
37.795
  9
$LONGITUDE
 40
-122.394
  9
$NORTHDIRECTION
 40
0.0
  9
$TIMEZONE
 70
 -8000
  9
$LIGHTGLYPHDISPLAY
280
     1
  9
$TILEMODELIGHTSYNCH
280
     1
  9
$SOLIDHIST
280
     1
  9
$SHOWHIST
280
     1
  9
$DWFFRAME
280
     2
  9
$DGNFRAME
280
     2
  9
$REALWORLDSCALE
290
     1
  9
$INTERFERECOLOR
 62
   256
  9
$CSHADOW
280
     0
  9
$SHADOWPLANELOCATION
 40
0.0
  0
ENDSEC
  0
SECTION
  2
CLASSES
  0
CLASS
  1
ACDBDICTIONARYWDFLT
  2
AcDbDictionaryWithDefault
  3
ObjectDBX Classes
 90
        0
 91
        4
280
     0
281
     0
  0
CLASS
  1
VISUALSTYLE
  2
AcDbVisualStyle
  3
ObjectDBX Classes
 90
     4095
 91
        4
280
     0
281
     0
  0
CLASS
  1
MATERIAL
  2
AcDbMaterial
  3
ObjectDBX Classes
 90
     1153
 91
        4
280
     0
281
     0
  0
ENDSEC
  0
SECTION
  2
TABLES
  0
TABLE
  2
VPORT
  5
8
330
0
100
AcDbSymbolTable
 70
     1
  0
VPORT
  5
29
330
8
100
AcDbSymbolTableRecord
100
AcDbViewportTableRecord
  2
*Active
 70
     0
 10
0.0
 20
0.0
 11
1.0
 21
1.0
 12
10.42990654205607
 22
4.5
 13
0.0
 23
0.0
 14
0.5
 24
0.5
 15
0.5
 25
0.5
 16
0.0
 26
0.0
 36
1.0
 17
0.0
 27
0.0
 37
0.0
 40
9.0
 41
1.972972972850329
 42
50.0
 43
0.0
 44
0.0
 50
0.0
 51
0.0
 71
     0
 72
   100
 73
     1
 74
     3
 75
     0
 76
     0
 77
     0
 78
     0
281
     0
 65
     1
110
0.0
120
0.0
130
0.0
111
1.0
121
0.0
131
0.0
112
0.0
122
1.0
132
0.0
 79
     0
146
0.0
 60
     3
 61
     5
292
     1
282
     1
141
0.0
142
0.0
 63
   250
  0
ENDTAB
  0
TABLE
  2
LTYPE
  5
5
330
0
100
AcDbSymbolTable
 70
     1
  0
LTYPE
  5
14
330
5
100
AcDbSymbolTableRecord
100
AcDbLinetypeTableRecord
  2
ByBlock
 70
     0
  3

 72
    65
 73
     0
 40
0.0
  0
LTYPE
  5
15
330
5
100
AcDbSymbolTableRecord
100
AcDbLinetypeTableRecord
  2
ByLayer
 70
     0
  3

 72
    65
 73
     0
 40
0.0
  0
LTYPE
  5
16
330
5
100
AcDbSymbolTableRecord
100
AcDbLinetypeTableRecord
  2
Continuous
 70
     0
  3
Solid line
 72
    65
 73
     0
 40
0.0
  0
ENDTAB
  0
TABLE
  2
LAYER
  5
2
330
0
100
AcDbSymbolTable
 70
     2
  0
LAYER
  5
10
330
2
100
AcDbSymbolTableRecord
100
AcDbLayerTableRecord
  2
0
 70
     0
 62
     7
  6
Continuous
370
    -3
390
F
347
3E
  0
LAYER
  5
40
330
2
100
AcDbSymbolTableRecord
100
AcDbLayerTableRecord
  2
Laag 1
 70
     0
 62
     7
  6
Continuous
370
    -3
390
F
347
3E
  0
ENDTAB
  0
TABLE
  2
STYLE
  5
3
330
0
100
AcDbSymbolTable
 70
     1
  0
STYLE
  5
11
330
3
100
AcDbSymbolTableRecord
100
AcDbTextStyleTableRecord
  2
Standard
 70
     0
 40
0.0
 41
1.0
 50
0.0
 71
     0
 42
0.2
  3
txt
  4

  0
ENDTAB
  0
TABLE
  2
VIEW
  5
6
330
0
100
AcDbSymbolTable
 70
     0
  0
ENDTAB
  0
TABLE
  2
UCS
  5
7
330
0
100
AcDbSymbolTable
 70
     0
  0
ENDTAB
  0
TABLE
  2
APPID
  5
9
330
0
100
AcDbSymbolTable
 70
     2
  0
APPID
  5
12
330
9
100
AcDbSymbolTableRecord
100
AcDbRegAppTableRecord
  2
ACAD
 70
     0
  0
APPID
  5
3F
330
9
100
AcDbSymbolTableRecord
100
AcDbRegAppTableRecord
  2
ODA
 70
     0
  0
ENDTAB
  0
TABLE
  2
DIMSTYLE
  5
A
330
0
100
AcDbSymbolTable
 70
     1
100
AcDbDimStyleTable
  0
DIMSTYLE
105
27
330
A
100
AcDbSymbolTableRecord
100
AcDbDimStyleTableRecord
  2
Standard
 70
     0
178
     0
340
11
  0
ENDTAB
  0
TABLE
  2
BLOCK_RECORD
  5
1
330
0
100
AcDbSymbolTable
 70
     1
  0
BLOCK_RECORD
  5
1F
330
1
100
AcDbSymbolTableRecord
100
AcDbBlockTableRecord
  2
*Model_Space
340
22
 70
     0
280
     1
281
     0
  0
BLOCK_RECORD
  5
1B
330
1
100
AcDbSymbolTableRecord
100
AcDbBlockTableRecord
  2
*Paper_Space
340
1E
 70
     0
280
     1
281
     0
  0
BLOCK_RECORD
  5
23
330
1
100
AcDbSymbolTableRecord
100
AcDbBlockTableRecord
  2
*Paper_Space0
340
26
 70
     0
280
     1
281
     0
  0
ENDTAB
  0
ENDSEC
  0
SECTION
  2
BLOCKS
  0
BLOCK
  5
20
330
1F
100
AcDbEntity
  8
0
100
AcDbBlockBegin
  2
*Model_Space
 70
     0
 10
0.0
 20
0.0
 30
0.0
  3
*Model_Space
  1

  0
ENDBLK
  5
21
330
1F
100
AcDbEntity
  8
0
100
AcDbBlockEnd
  0
BLOCK
  5
1C
330
1B
100
AcDbEntity
 67
     1
  8
0
100
AcDbBlockBegin
  2
*Paper_Space
 70
     0
 10
0.0
 20
0.0
 30
0.0
  3
*Paper_Space
  1

  0
ENDBLK
  5
1D
330
1B
100
AcDbEntity
 67
     1
  8
0
100
AcDbBlockEnd
  0
BLOCK
  5
24
330
23
100
AcDbEntity
  8
0
100
AcDbBlockBegin
  2
*Paper_Space0
 70
     0
 10
0.0
 20
0.0
 30
0.0
  3
*Paper_Space0
  1

  0
ENDBLK
  5
25
330
23
100
AcDbEntity
  8
0
100
AcDbBlockEnd
  0
ENDSEC
  0
SECTION
  2
ENTITIES
  0
SPLINE
  5
41
330
1F
100
AcDbEntity
  8
Laag 1
 62
   250
370
    50
100
AcDbSpline
210
0.0
220
0.0
230
1.0
 70
    11
 71
     3
 72
    28
 73
    24
 74
     0
 42
0.0000000001
 43
0.0000000001
 12
1.0
 22
0.0
 32
0.0
 13
1.0
 23
0.0
 33
0.0
 40
0.0
 40
0.0
 40
0.0
 40
0.0
 40
0.1428571428571428
 40
0.1428571428571428
 40
0.1428571428571428
 40
0.1428571428571428
 40
0.2857142857142857
 40
0.2857142857142857
 40
0.2857142857142857
 40
0.2857142857142857
 40
0.4285714285714285
 40
0.4285714285714285
 40
0.4285714285714285
 40
0.4285714285714285
 40
0.5714285714285714
 40
0.5714285714285714
 40
0.5714285714285714
 40
0.5714285714285714
 40
0.7142857142857143
 40
0.7142857142857143
 40
0.7142857142857143
 40
0.7142857142857143
 40
1.0
 40
1.0
 40
1.0
 40
1.0
 10
2.7713
 20
-6.33801
 30
0.0
 10
2.7713
 20
-6.33801
 30
0.0
 10
2.89787
 20
-5.73194
 30
0.0
 10
2.89787
 20
-5.73194
 30
0.0
 10
2.89787
 20
-5.73194
 30
0.0
 10
2.89787
 20
-5.73194
 30
0.0
 10
2.97887
 20
-5.73194
 30
0.0
 10
2.97887
 20
-5.73194
 30
0.0
 10
2.97887
 20
-5.73194
 30
0.0
 10
2.97887
 20
-5.73194
 30
0.0
 10
2.86683
 20
-6.26943
 30
0.0
 10
2.86683
 20
-6.26943
 30
0.0
 10
2.86683
 20
-6.26943
 30
0.0
 10
2.86683
 20
-6.26943
 30
0.0
 10
3.18136
 20
-6.26943
 30
0.0
 10
3.18136
 20
-6.26943
 30
0.0
 10
3.18136
 20
-6.26943
 30
0.0
 10
3.18136
 20
-6.26943
 30
0.0
 10
3.16697
 20
-6.33801
 30
0.0
 10
3.16697
 20
-6.33801
 30
0.0
 10
3.16697
 20
-6.33801
 30
0.0
 10
3.16697
 20
-6.33801
 30
0.0
 10
2.7713
 20
-6.33801
 30
0.0
 10
2.7713
 20
-6.33801
 30
0.0
  0
SPLINE
  5
42
330
1F
100
AcDbEntity
  8
Laag 1
 62
   250
370
    50
100
AcDbSpline
210
0.0
220
0.0
230
1.0
 70
    11
 71
     3
 72
    36
 73
    32
 74
     0
 42
0.0000000001
 43
0.0000000001
 12
1.0
 22
0.0
 32
0.0
 13
1.0
 23
0.0
 33
0.0
 40
0.0
 40
0.0
 40
0.0
 40
0.0
 40
0.1111111111111111
 40
0.1111111111111111
 40
0.1111111111111111
 40
0.1111111111111111
 40
0.2222222222222222
 40
0.2222222222222222
 40
0.2222222222222222
 40
0.2222222222222222
 40
0.3333333333333333
 40
0.3333333333333333
 40
0.3333333333333333
 40
0.3333333333333333
 40
0.4444444444444444
 40
0.4444444444444444
 40
0.4444444444444444
 40
0.4444444444444444
 40
0.5555555555555556
 40
0.5555555555555556
 40
0.5555555555555556
 40
0.5555555555555556
 40
0.6666666666666666
 40
0.6666666666666666
 40
0.6666666666666666
 40
0.6666666666666666
 40
0.7777777777777778
 40
0.7777777777777778
 40
0.7777777777777778
 40
0.7777777777777778
 40
1.0
 40
1.0
 40
1.0
 40
1.0
 10
3.1914
 20
-6.33801
 30
0.0
 10
3.1914
 20
-6.33801
 30
0.0
 10
3.53486
 20
-5.73194
 30
0.0
 10
3.53486
 20
-5.73194
 30
0.0
 10
3.53486
 20
-5.73194
 30
0.0
 10
3.53486
 20
-5.73194
 30
0.0
 10
3.63039
 20
-5.73194
 30
0.0
 10
3.63039
 20
-5.73194
 30
0.0
 10
3.63039
 20
-5.73194
 30
0.0
 10
3.63039
 20
-5.73194
 30
0.0
 10
3.73044
 20
-6.33801
 30
0.0
 10
3.73044
 20
-6.33801
 30
0.0
 10
3.73044
 20
-6.33801
 30
0.0
 10
3.73044
 20
-6.33801
 30
0.0
 10
3.65198
 20
-6.33801
 30
0.0
 10
3.65198
 20
-6.33801
 30
0.0
 10
3.65198
 20
-6.33801
 30
0.0
 10
3.65198
 20
-6.33801
 30
0.0
 10
3.62263
 20
-6.1636
 30
0.0
 10
3.62263
 20
-6.1636
 30
0.0
 10
3.62263
 20
-6.1636
 30
0.0
 10
3.62263
 20
-6.1636
 30
0.0
 10
3.37738
 20
-6.1636
 30
0.0
 10
3.37738
 20
-6.1636
 30
0.0
 10
3.37738
 20
-6.1636
 30
0.0
 10
3.37738
 20
-6.1636
 30
0.0
 10
3.2803
 20
-6.33801
 30
0.0
 10
3.2803
 20
-6.33801
 30
0.0
 10
3.2803
 20
-6.33801
 30
0.0
 10
3.2803
 20
-6.33801
 30
0.0
 10
3.1914
 20
-6.33801
 30
0.0
 10
3.1914
 20
-6.33801
 30
0.0
  0
SPLINE
  5
43
330
1F
100
AcDbEntity
  8
Laag 1
 62
   250
370
    50
100
AcDbSpline
210
0.0
220
0.0
230
1.0
 70
    11
 71
     3
 72
    24
 73
    20
 74
     0
 42
0.0000000001
 43
0.0000000001
 12
1.0
 22
0.0
 32
0.0
 13
1.0
 23
0.0
 33
0.0
 40
0.0
 40
0.0
 40
0.0
 40
0.0
 40
0.1666666666666667
 40
0.1666666666666667
 40
0.1666666666666667
 40
0.1666666666666667
 40
0.3333333333333333
 40
0.3333333333333333
 40
0.3333333333333333
 40
0.3333333333333333
 40
0.5
 40
0.5
 40
0.5
 40
0.5
 40
0.6666666666666666
 40
0.6666666666666666
 40
0.6666666666666666
 40
0.6666666666666666
 40
1.0
 40
1.0
 40
1.0
 40
1.0
 10
3.4121
 20
-6.10101
 30
0.0
 10
3.4121
 20
-6.10101
 30
0.0
 10
3.61262
 20
-6.10101
 30
0.0
 10
3.61262
 20
-6.10101
 30
0.0
 10
3.61262
 20
-6.10101
 30
0.0
 10
3.61262
 20
-6.10101
 30
0.0
 10
3.58905
 20
-5.94889
 30
0.0
 10
3.58905
 20
-5.94889
 30
0.0
 10
3.58905
 20
-5.94889
 30
0.0
 10
3.58002
 20
-5.88849
 30
0.0
 10
3.57438
 20
-5.83825
 30
0.0
 10
3.57212
 20
-5.79804
 30
0.0
 10
3.57212
 20
-5.79804
 30
0.0
 10
3.55829
 20
-5.83276
 30
0.0
 10
3.53826
 20
-5.87395
 30
0.0
 10
3.51173
 20
-5.92166
 30
0.0
 10
3.51173
 20
-5.92166
 30
0.0
 10
3.51173
 20
-5.92166
 30
0.0
 10
3.4121
 20
-6.10101
 30
0.0
 10
3.4121
 20
-6.10101
 30
0.0
  0
SPLINE
  5
44
330
1F
100
AcDbEntity
  8
Laag 1
 62
   250
370
    50
100
AcDbSpline
210
0.0
220
0.0
230
1.0
 70
    11
 71
     3
 72
    48
 73
    44
 74
     0
 42
0.0000000001
 43
0.0000000001
 12
1.0
 22
0.0
 32
0.0
 13
1.0
 23
0.0
 33
0.0
 40
0.0
 40
0.0
 40
0.0
 40
0.0
 40
0.0833333333333333
 40
0.0833333333333333
 40
0.0833333333333333
 40
0.0833333333333333
 40
0.1666666666666667
 40
0.1666666666666667
 40
0.1666666666666667
 40
0.1666666666666667
 40
0.25
 40
0.25
 40
0.25
 40
0.25
 40
0.3333333333333333
 40
0.3333333333333333
 40
0.3333333333333333
 40
0.3333333333333333
 40
0.4166666666666667
 40
0.4166666666666667
 40
0.4166666666666667
 40
0.4166666666666667
 40
0.5
 40
0.5
 40
0.5
 40
0.5
 40
0.5833333333333334
 40
0.5833333333333334
 40
0.5833333333333334
 40
0.5833333333333334
 40
0.6666666666666666
 40
0.6666666666666666
 40
0.6666666666666666
 40
0.6666666666666666
 40
0.75
 40
0.75
 40
0.75
 40
0.75
 40
0.8333333333333334
 40
0.8333333333333334
 40
0.8333333333333334
 40
0.8333333333333334
 40
1.0
 40
1.0
 40
1.0
 40
1.0
 10
3.8504
 20
-6.08411
 30
0.0
 10
3.8504
 20
-5.97616
 30
0.0
 10
3.88158
 20
-5.88868
 30
0.0
 10
3.94395
 20
-5.82179
 30
0.0
 10
3.94395
 20
-5.82179
 30
0.0
 10
4.00647
 20
-5.75504
 30
0.0
 10
4.0821
 20
-5.7216
 30
0.0
 10
4.17114
 20
-5.7216
 30
0.0
 10
4.17114
 20
-5.7216
 30
0.0
 10
4.24664
 20
-5.7216
 30
0.0
 10
4.30816
 20
-5.74615
 30
0.0
 10
4.35571
 20
-5.7954
 30
0.0
 10
4.35571
 20
-5.7954
 30
0.0
 10
4.40327
 20
-5.84451
 30
0.0
 10
4.42711
 20
-5.91055
 30
0.0
 10
4.42711
 20
-5.99324
 30
0.0
 10
4.42711
 20
-5.99324
 30
0.0
 10
4.42711
 20
-6.05222
 30
0.0
 10
4.41512
 20
-6.10683
 30
0.0
 10
4.39113
 20
-6.15734
 30
0.0
 10
4.39113
 20
-6.15734
 30
0.0
 10
4.37321
 20
-6.19503
 30
0.0
 10
4.35063
 20
-6.22762
 30
0.0
 10
4.32326
 20
-6.25514
 30
0.0
 10
4.32326
 20
-6.25514
 30
0.0
 10
4.29601
 20
-6.28251
 30
0.0
 10
4.26681
 20
-6.30368
 30
0.0
 10
4.23563
 20
-6.3185
 30
0.0
 10
4.23563
 20
-6.3185
 30
0.0
 10
4.19428
 20
-6.33839
 30
0.0
 10
4.15054
 20
-6.34827
 30
0.0
 10
4.10426
 20
-6.34827
 30
0.0
 10
4.10426
 20
-6.34827
 30
0.0
 10
4.05571
 20
-6.34827
 30
0.0
 10
4.01155
 20
-6.3367
 30
0.0
 10
3.97175
 20
-6.31356
 30
0.0
 10
3.97175
 20
-6.31356
 30
0.0
 10
3.93182
 20
-6.29042
 30
0.0
 10
3.90176
 20
-6.2581
 30
0.0
 10
3.88116
 20
-6.21662
 30
0.0
 10
3.88116
 20
-6.21662
 30
0.0
 10
3.8607
 20
-6.17513
 30
0.0
 10
3.8504
 20
-6.13096
 30
0.0
 10
3.8504
 20
-6.08411
 30
0.0
  0
SPLINE
  5
45
330
1F
100
AcDbEntity
  8
Laag 1
 62
   250
370
    50
100
AcDbSpline
210
0.0
220
0.0
230
1.0
 70
    11
 71
     3
 72
    48
 73
    44
 74
     0
 42
0.0000000001
 43
0.0000000001
 12
1.0
 22
0.0
 32
0.0
 13
1.0
 23
0.0
 33
0.0
 40
0.0
 40
0.0
 40
0.0
 40
0.0
 40
0.0833333333333333
 40
0.0833333333333333
 40
0.0833333333333333
 40
0.0833333333333333
 40
0.1666666666666667
 40
0.1666666666666667
 40
0.1666666666666667
 40
0.1666666666666667
 40
0.25
 40
0.25
 40
0.25
 40
0.25
 40
0.3333333333333333
 40
0.3333333333333333
 40
0.3333333333333333
 40
0.3333333333333333
 40
0.4166666666666667
 40
0.4166666666666667
 40
0.4166666666666667
 40
0.4166666666666667
 40
0.5
 40
0.5
 40
0.5
 40
0.5
 40
0.5833333333333334
 40
0.5833333333333334
 40
0.5833333333333334
 40
0.5833333333333334
 40
0.6666666666666666
 40
0.6666666666666666
 40
0.6666666666666666
 40
0.6666666666666666
 40
0.75
 40
0.75
 40
0.75
 40
0.75
 40
0.8333333333333334
 40
0.8333333333333334
 40
0.8333333333333334
 40
0.8333333333333334
 40
1.0
 40
1.0
 40
1.0
 40
1.0
 10
3.9301
 20
-6.08821
 30
0.0
 10
3.9301
 20
-6.12377
 30
0.0
 10
3.93757
 20
-6.1565
 30
0.0
 10
3.95225
 20
-6.18628
 30
0.0
 10
3.95225
 20
-6.18628
 30
0.0
 10
3.96707
 20
-6.21605
 30
0.0
 10
3.98894
 20
-6.23933
 30
0.0
 10
4.01815
 20
-6.25613
 30
0.0
 10
4.01815
 20
-6.25613
 30
0.0
 10
4.04736
 20
-6.27292
 30
0.0
 10
4.07812
 20
-6.28138
 30
0.0
 10
4.11043
 20
-6.28138
 30
0.0
 10
4.11043
 20
-6.28138
 30
0.0
 10
4.14148
 20
-6.28138
 30
0.0
 10
4.17111
 20
-6.27391
 30
0.0
 10
4.19933
 20
-6.25923
 30
0.0
 10
4.19933
 20
-6.25923
 30
0.0
 10
4.22741
 20
-6.24441
 30
0.0
 10
4.25253
 20
-6.22395
 30
0.0
 10
4.27469
 20
-6.19757
 30
0.0
 10
4.27469
 20
-6.19757
 30
0.0
 10
4.29684
 20
-6.17132
 30
0.0
 10
4.31434
 20
-6.13886
 30
0.0
 10
4.32718
 20
-6.10048
 30
0.0
 10
4.32718
 20
-6.10048
 30
0.0
 10
4.34002
 20
-6.06196
 30
0.0
 10
4.34637
 20
-6.02414
 30
0.0
 10
4.34637
 20
-5.98703
 30
0.0
 10
4.34637
 20
-5.98703
 30
0.0
 10
4.34637
 20
-5.92663
 30
0.0
 10
4.32958
 20
-5.87852
 30
0.0
 10
4.29585
 20
-5.84267
 30
0.0
 10
4.29585
 20
-5.84267
 30
0.0
 10
4.26199
 20
-5.80683
 30
0.0
 10
4.22036
 20
-5.78891
 30
0.0
 10
4.17069
 20
-5.78891
 30
0.0
 10
4.17069
 20
-5.78891
 30
0.0
 10
4.10733
 20
-5.78891
 30
0.0
 10
4.05145
 20
-5.816
 30
0.0
 10
4.00291
 20
-5.87019
 30
0.0
 10
4.00291
 20
-5.87019
 30
0.0
 10
3.95437
 20
-5.92438
 30
0.0
 10
3.9301
 20
-5.99705
 30
0.0
 10
3.9301
 20
-6.08821
 30
0.0
  0
SPLINE
  5
46
330
1F
100
AcDbEntity
  8
Laag 1
 62
   250
370
    50
100
AcDbSpline
210
0.0
220
0.0
230
1.0
 70
    11
 71
     3
 72
   156
 73
   152
 74
     0
 42
0.0000000001
 43
0.0000000001
 12
1.0
 22
0.0
 32
0.0
 13
1.0
 23
0.0
 33
0.0
 40
0.0
 40
0.0
 40
0.0
 40
0.0
 40
0.0256410256410256
 40
0.0256410256410256
 40
0.0256410256410256
 40
0.0256410256410256
 40
0.0512820512820513
 40
0.0512820512820513
 40
0.0512820512820513
 40
0.0512820512820513
 40
0.0769230769230769
 40
0.0769230769230769
 40
0.0769230769230769
 40
0.0769230769230769
 40
0.1025641025641026
 40
0.1025641025641026
 40
0.1025641025641026
 40
0.1025641025641026
 40
0.1282051282051282
 40
0.1282051282051282
 40
0.1282051282051282
 40
0.1282051282051282
 40
0.1538461538461539
 40
0.1538461538461539
 40
0.1538461538461539
 40
0.1538461538461539
 40
0.1794871794871795
 40
0.1794871794871795
 40
0.1794871794871795
 40
0.1794871794871795
 40
0.2051282051282051
 40
0.2051282051282051
 40
0.2051282051282051
 40
0.2051282051282051
 40
0.2307692307692308
 40
0.2307692307692308
 40
0.2307692307692308
 40
0.2307692307692308
 40
0.2564102564102564
 40
0.2564102564102564
 40
0.2564102564102564
 40
0.2564102564102564
 40
0.282051282051282
 40
0.282051282051282
 40
0.282051282051282
 40
0.282051282051282
 40
0.3076923076923077
 40
0.3076923076923077
 40
0.3076923076923077
 40
0.3076923076923077
 40
0.3333333333333333
 40
0.3333333333333333
 40
0.3333333333333333
 40
0.3333333333333333
 40
0.358974358974359
 40
0.358974358974359
 40
0.358974358974359
 40
0.358974358974359
 40
0.3846153846153846
 40
0.3846153846153846
 40
0.3846153846153846
 40
0.3846153846153846
 40
0.4102564102564102
 40
0.4102564102564102
 40
0.4102564102564102
 40
0.4102564102564102
 40
0.4358974358974359
 40
0.4358974358974359
 40
0.4358974358974359
 40
0.4358974358974359
 40
0.4615384615384616
 40
0.4615384615384616
 40
0.4615384615384616
 40
0.4615384615384616
 40
0.4871794871794872
 40
0.4871794871794872
 40
0.4871794871794872
 40
0.4871794871794872
 40
0.5128205128205128
 40
0.5128205128205128
 40
0.5128205128205128
 40
0.5128205128205128
 40
0.5384615384615384
 40
0.5384615384615384
 40
0.5384615384615384
 40
0.5384615384615384
 40
0.5641025641025641
 40
0.5641025641025641
 40
0.5641025641025641
 40
0.5641025641025641
 40
0.5897435897435898
 40
0.5897435897435898
 40
0.5897435897435898
 40
0.5897435897435898
 40
0.6153846153846154
 40
0.6153846153846154
 40
0.6153846153846154
 40
0.6153846153846154
 40
0.6410256410256411
 40
0.6410256410256411
 40
0.6410256410256411
 40
0.6410256410256411
 40
0.6666666666666666
 40
0.6666666666666666
 40
0.6666666666666666
 40
0.6666666666666666
 40
0.6923076923076923
 40
0.6923076923076923
 40
0.6923076923076923
 40
0.6923076923076923
 40
0.717948717948718
 40
0.717948717948718
 40
0.717948717948718
 40
0.717948717948718
 40
0.7435897435897436
 40
0.7435897435897436
 40
0.7435897435897436
 40
0.7435897435897436
 40
0.7692307692307693
 40
0.7692307692307693
 40
0.7692307692307693
 40
0.7692307692307693
 40
0.7948717948717948
 40
0.7948717948717948
 40
0.7948717948717948
 40
0.7948717948717948
 40
0.8205128205128205
 40
0.8205128205128205
 40
0.8205128205128205
 40
0.8205128205128205
 40
0.8461538461538461
 40
0.8461538461538461
 40
0.8461538461538461
 40
0.8461538461538461
 40
0.8717948717948718
 40
0.8717948717948718
 40
0.8717948717948718
 40
0.8717948717948718
 40
0.8974358974358975
 40
0.8974358974358975
 40
0.8974358974358975
 40
0.8974358974358975
 40
0.9230769230769231
 40
0.9230769230769231
 40
0.9230769230769231
 40
0.9230769230769231
 40
0.9487179487179487
 40
0.9487179487179487
 40
0.9487179487179487
 40
0.9487179487179487
 40
1.0
 40
1.0
 40
1.0
 40
1.0
 10
4.4912
 20
-6.14201
 30
0.0
 10
4.4912
 20
-6.14201
 30
0.0
 10
4.57051
 20
-6.13467
 30
0.0
 10
4.57051
 20
-6.13467
 30
0.0
 10
4.57051
 20
-6.13467
 30
0.0
 10
4.57051
 20
-6.13467
 30
0.0
 10
4.56981
 20
-6.1557
 30
0.0
 10
4.56981
 20
-6.1557
 30
0.0
 10
4.56981
 20
-6.1557
 30
0.0
 10
4.56981
 20
-6.17912
 30
0.0
 10
4.57517
 20
-6.20057
 30
0.0
 10
4.58589
 20
-6.22004
 30
0.0
 10
4.58589
 20
-6.22004
 30
0.0
 10
4.59662
 20
-6.23937
 30
0.0
 10
4.6144
 20
-6.25447
 30
0.0
 10
4.63923
 20
-6.26506
 30
0.0
 10
4.63923
 20
-6.26506
 30
0.0
 10
4.66393
 20
-6.27564
 30
0.0
 10
4.69342
 20
-6.281
 30
0.0
 10
4.72771
 20
-6.281
 30
0.0
 10
4.72771
 20
-6.281
 30
0.0
 10
4.77611
 20
-6.281
 30
0.0
 10
4.81322
 20
-6.27042
 30
0.0
 10
4.83862
 20
-6.24911
 30
0.0
 10
4.83862
 20
-6.24911
 30
0.0
 10
4.86416
 20
-6.22794
 30
0.0
 10
4.87686
 20
-6.20367
 30
0.0
 10
4.87686
 20
-6.1763
 30
0.0
 10
4.87686
 20
-6.1763
 30
0.0
 10
4.87686
 20
-6.15738
 30
0.0
 10
4.87009
 20
-6.14003
 30
0.0
 10
4.85668
 20
-6.12423
 30
0.0
 10
4.85668
 20
-6.12423
 30
0.0
 10
4.84285
 20
-6.10885
 30
0.0
 10
4.80518
 20
-6.08796
 30
0.0
 10
4.7438
 20
-6.06143
 30
0.0
 10
4.7438
 20
-6.06143
 30
0.0
 10
4.6961
 20
-6.04083
 30
0.0
 10
4.66364
 20
-6.02489
 30
0.0
 10
4.64629
 20
-6.01388
 30
0.0
 10
4.64629
 20
-6.01388
 30
0.0
 10
4.6189
 20
-5.99595
 30
0.0
 10
4.59888
 20
-5.97649
 30
0.0
 10
4.58589
 20
-5.95546
 30
0.0
 10
4.58589
 20
-5.95546
 30
0.0
 10
4.57291
 20
-5.93429
 30
0.0
 10
4.56642
 20
-5.91031
 30
0.0
 10
4.56642
 20
-5.88321
 30
0.0
 10
4.56642
 20
-5.88321
 30
0.0
 10
4.56642
 20
-5.85217
 30
0.0
 10
4.57502
 20
-5.82395
 30
0.0
 10
4.5921
 20
-5.79897
 30
0.0
 10
4.5921
 20
-5.79897
 30
0.0
 10
4.60918
 20
-5.77385
 30
0.0
 10
4.63415
 20
-5.75466
 30
0.0
 10
4.66703
 20
-5.7414
 30
0.0
 10
4.66703
 20
-5.7414
 30
0.0
 10
4.70005
 20
-5.72827
 30
0.0
 10
4.73716
 20
-5.72164
 30
0.0
 10
4.77851
 20
-5.72164
 30
0.0
 10
4.77851
 20
-5.72164
 30
0.0
 10
4.8279
 20
-5.72164
 30
0.0
 10
4.86952
 20
-5.72983
 30
0.0
 10
4.90339
 20
-5.74648
 30
0.0
 10
4.90339
 20
-5.74648
 30
0.0
 10
4.93726
 20
-5.76299
 30
0.0
 10
4.96181
 20
-5.78499
 30
0.0
 10
4.97719
 20
-5.81252
 30
0.0
 10
4.97719
 20
-5.81252
 30
0.0
 10
4.99243
 20
-5.84017
 30
0.0
 10
5.00005
 20
-5.86642
 30
0.0
 10
5.00005
 20
-5.89154
 30
0.0
 10
5.00005
 20
-5.89154
 30
0.0
 10
5.00005
 20
-5.89408
 30
0.0
 10
4.99995
 20
-5.89817
 30
0.0
 10
4.99965
 20
-5.90396
 30
0.0
 10
4.99965
 20
-5.90396
 30
0.0
 10
4.99965
 20
-5.90396
 30
0.0
 10
4.92161
 20
-5.91016
 30
0.0
 10
4.92161
 20
-5.91016
 30
0.0
 10
4.92161
 20
-5.91016
 30
0.0
 10
4.92161
 20
-5.89308
 30
0.0
 10
4.92006
 20
-5.87968
 30
0.0
 10
4.91695
 20
-5.87009
 30
0.0
 10
4.91695
 20
-5.87009
 30
0.0
 10
4.91145
 20
-5.85316
 30
0.0
 10
4.90299
 20
-5.83905
 30
0.0
 10
4.89142
 20
-5.82747
 30
0.0
 10
4.89142
 20
-5.82747
 30
0.0
 10
4.87985
 20
-5.8159
 30
0.0
 10
4.8639
 20
-5.80659
 30
0.0
 10
4.84358
 20
-5.79953
 30
0.0
 10
4.84358
 20
-5.79953
 30
0.0
 10
4.8234
 20
-5.79248
 30
0.0
 10
4.80068
 20
-5.78895
 30
0.0
 10
4.77571
 20
-5.78895
 30
0.0
 10
4.77571
 20
-5.78895
 30
0.0
 10
4.73154
 20
-5.78895
 30
0.0
 10
4.69725
 20
-5.79897
 30
0.0
 10
4.6727
 20
-5.81873
 30
0.0
 10
4.6727
 20
-5.81873
 30
0.0
 10
4.65393
 20
-5.83397
 30
0.0
 10
4.64461
 20
-5.854
 30
0.0
 10
4.64461
 20
-5.87912
 30
0.0
 10
4.64461
 20
-5.87912
 30
0.0
 10
4.64461
 20
-5.89408
 30
0.0
 10
4.64842
 20
-5.90734
 30
0.0
 10
4.65619
 20
-5.91905
 30
0.0
 10
4.65619
 20
-5.91905
 30
0.0
 10
4.66395
 20
-5.93077
 30
0.0
 10
4.67778
 20
-5.9422
 30
0.0
 10
4.69795
 20
-5.95349
 30
0.0
 10
4.69795
 20
-5.95349
 30
0.0
 10
4.71221
 20
-5.96153
 30
0.0
 10
4.74621
 20
-5.97733
 30
0.0
 10
4.79998
 20
-6.00104
 30
0.0
 10
4.79998
 20
-6.00104
 30
0.0
 10
4.84358
 20
-6.02037
 30
0.0
 10
4.87364
 20
-6.03546
 30
0.0
 10
4.89015
 20
-6.04662
 30
0.0
 10
4.89015
 20
-6.04662
 30
0.0
 10
4.91216
 20
-6.06115
 30
0.0
 10
4.92909
 20
-6.07893
 30
0.0
 10
4.94095
 20
-6.09968
 30
0.0
 10
4.94095
 20
-6.09968
 30
0.0
 10
4.9528
 20
-6.12042
 30
0.0
 10
4.95873
 20
-6.14411
 30
0.0
 10
4.95873
 20
-6.17051
 30
0.0
 10
4.95873
 20
-6.17051
 30
0.0
 10
4.95873
 20
-6.20339
 30
0.0
 10
4.94884
 20
-6.23358
 30
0.0
 10
4.92881
 20
-6.26139
 30
0.0
 10
4.92881
 20
-6.26139
 30
0.0
 10
4.90877
 20
-6.28904
 30
0.0
 10
4.88126
 20
-6.31049
 30
0.0
 10
4.84598
 20
-6.32559
 30
0.0
 10
4.84598
 20
-6.32559
 30
0.0
 10
4.8107
 20
-6.34083
 30
0.0
 10
4.7702
 20
-6.34831
 30
0.0
 10
4.72477
 20
-6.34831
 30
0.0
 10
4.72477
 20
-6.34831
 30
0.0
 10
4.65619
 20
-6.34831
 30
0.0
 10
4.60017
 20
-6.33335
 30
0.0
 10
4.5567
 20
-6.30344
 30
0.0
 10
4.5567
 20
-6.30344
 30
0.0
 10
4.51338
 20
-6.27352
 30
0.0
 10
4.49151
 20
-6.21975
 30
0.0
 10
4.49122
 20
-6.14201
 30
0.0
 10
4.49122
 20
-6.14201
 30
0.0
 10
4.49122
 20
-6.14201
 30
0.0
 10
4.4912
 20
-6.14201
 30
0.0
 10
4.4912
 20
-6.14201
 30
0.0
  0
SPLINE
  5
47
330
1F
100
AcDbEntity
  8
Laag 1
 62
   250
370
     9
100
AcDbSpline
210
0.0
220
0.0
230
1.0
 70
    11
 71
     3
 72
    20
 73
    16
 74
     0
 42
0.0000000001
 43
0.0000000001
 12
1.0
 22
0.0
 32
0.0
 13
1.0
 23
0.0
 33
0.0
 40
0.0
 40
0.0
 40
0.0
 40
0.0
 40
0.2
 40
0.2
 40
0.2
 40
0.2
 40
0.4
 40
0.4
 40
0.4
 40
0.4
 40
0.6
 40
0.6
 40
0.6
 40
0.6
 40
1.0
 40
1.0
 40
1.0
 40
1.0
 10
-4.5927
 20
11.73951
 30
0.0
 10
-4.78599
 20
11.73951
 30
0.0
 10
-4.94269
 20
11.58281
 30
0.0
 10
-4.94269
 20
11.38952
 30
0.0
 10
-4.94269
 20
11.38952
 30
0.0
 10
-4.9427
 20
11.19622
 30
0.0
 10
-4.786
 20
11.03952
 30
0.0
 10
-4.5927
 20
11.03952
 30
0.0
 10
-4.5927
 20
11.03952
 30
0.0
 10
-4.3994
 20
11.03951
 30
0.0
 10
-4.2427
 20
11.19621
 30
0.0
 10
-4.2427
 20
11.38951
 30
0.0
 10
-4.2427
 20
11.38951
 30
0.0
 10
-4.24269
 20
11.58281
 30
0.0
 10
-4.39939
 20
11.73951
 30
0.0
 10
-4.5927
 20
11.73951
 30
0.0
  0
SPLINE
  5
48
330
1F
100
AcDbEntity
  8
Laag 1
 62
   250
370
     9
100
AcDbSpline
210
0.0
220
0.0
230
1.0
 70
    27
 71
     3
 72
     8
 73
     4
 74
     0
 42
0.0000000001
 43
0.0000000001
 12
1.0
 22
0.0
 32
0.0
 13
1.0
 23
0.0
 33
0.0
 40
0.0
 40
0.0
 40
0.0
 40
0.0
 40
1.0
 40
1.0
 40
1.0
 40
1.0
 10
-4.5927
 20
11.73951
 30
0.0
 10
-4.5927
 20
11.73951
 30
0.0
 10
-4.5927
 20
11.73951
 30
0.0
 10
-4.5927
 20
11.73951
 30
0.0
  0
SPLINE
  5
49
330
1F
100
AcDbEntity
  8
Laag 1
 62
   250
370
     9
100
AcDbSpline
210
0.0
220
0.0
230
1.0
 70
    24
 71
     3
 72
     8
 73
     4
 74
     0
 42
0.0000000001
 43
0.0000000001
 12
1.0
 22
0.0
 32
0.0
 13
1.0
 23
0.0
 33
0.0
 40
0.0
 40
0.0
 40
0.0
 40
0.0
 40
1.0
 40
1.0
 40
1.0
 40
1.0
 10
-4.94269
 20
11.38952
 30
0.0
 10
-4.94269
 20
11.38952
 30
0.0
 10
-4.94269
 20
11.38951
 30
0.0
 10
-4.94269
 20
11.38951
 30
0.0
  0
SPLINE
  5
4A
330
1F
100
AcDbEntity
  8
Laag 1
 62
   250
370
     9
100
AcDbSpline
210
0.0
220
0.0
230
1.0
 70
    24
 71
     3
 72
     8
 73
     4
 74
     0
 42
0.0000000001
 43
0.0000000001
 12
1.0
 22
0.0
 32
0.0
 13
1.0
 23
0.0
 33
0.0
 40
0.0
 40
0.0
 40
0.0
 40
0.0
 40
1.0
 40
1.0
 40
1.0
 40
1.0
 10
-4.5927
 20
11.13952
 30
0.0
 10
-4.5927
 20
11.13952
 30
0.0
 10
-4.5927
 20
11.13951
 30
0.0
 10
-4.5927
 20
11.13951
 30
0.0
  0
SPLINE
  5
4B
330
1F
100
AcDbEntity
  8
Laag 1
 62
   250
370
     9
100
AcDbSpline
210
0.0
220
0.0
230
1.0
 70
    27
 71
     3
 72
     8
 73
     4
 74
     0
 42
0.0000000001
 43
0.0000000001
 12
1.0
 22
0.0
 32
0.0
 13
1.0
 23
0.0
 33
0.0
 40
0.0
 40
0.0
 40
0.0
 40
0.0
 40
1.0
 40
1.0
 40
1.0
 40
1.0
 10
-4.2427
 20
11.38951
 30
0.0
 10
-4.2427
 20
11.38951
 30
0.0
 10
-4.2427
 20
11.38951
 30
0.0
 10
-4.2427
 20
11.38951
 30
0.0
  0
SPLINE
  5
4C
330
1F
100
AcDbEntity
  8
Laag 1
 62
   250
370
     9
100
AcDbSpline
210
0.0
220
0.0
230
1.0
 70
    27
 71
     3
 72
     8
 73
     4
 74
     0
 42
0.0000000001
 43
0.0000000001
 12
1.0
 22
0.0
 32
0.0
 13
1.0
 23
0.0
 33
0.0
 40
0.0
 40
0.0
 40
0.0
 40
0.0
 40
1.0
 40
1.0
 40
1.0
 40
1.0
 10
-4.5927
 20
11.73951
 30
0.0
 10
-4.5927
 20
11.73951
 30
0.0
 10
-4.5927
 20
11.73951
 30
0.0
 10
-4.5927
 20
11.73951
 30
0.0
  0
SPLINE
  5
4D
330
1F
100
AcDbEntity
  8
Laag 1
 62
   250
370
     9
100
AcDbSpline
210
0.0
220
0.0
230
1.0
 70
    11
 71
     3
 72
    20
 73
    16
 74
     0
 42
0.0000000001
 43
0.0000000001
 12
1.0
 22
0.0
 32
0.0
 13
1.0
 23
0.0
 33
0.0
 40
0.0
 40
0.0
 40
0.0
 40
0.0
 40
0.2
 40
0.2
 40
0.2
 40
0.2
 40
0.4
 40
0.4
 40
0.4
 40
0.4
 40
0.6
 40
0.6
 40
0.6
 40
0.6
 40
1.0
 40
1.0
 40
1.0
 40
1.0
 10
3.3292
 20
11.7407
 30
0.0
 10
3.1359
 20
11.7407
 30
0.0
 10
2.9792
 20
11.584
 30
0.0
 10
2.9792
 20
11.39071
 30
0.0
 10
2.9792
 20
11.39071
 30
0.0
 10
2.97919
 20
11.19741
 30
0.0
 10
3.13589
 20
11.04071
 30
0.0
 10
3.32919
 20
11.04071
 30
0.0
 10
3.32919
 20
11.04071
 30
0.0
 10
3.52249
 20
11.0407
 30
0.0
 10
3.67919
 20
11.1974
 30
0.0
 10
3.67919
 20
11.3907
 30
0.0
 10
3.67919
 20
11.3907
 30
0.0
 10
3.6792
 20
11.584
 30
0.0
 10
3.5225
 20
11.7407
 30
0.0
 10
3.3292
 20
11.7407
 30
0.0
  0
SPLINE
  5
4E
330
1F
100
AcDbEntity
  8
Laag 1
 62
   250
370
     9
100
AcDbSpline
210
0.0
220
0.0
230
1.0
 70
    27
 71
     3
 72
     8
 73
     4
 74
     0
 42
0.0000000001
 43
0.0000000001
 12
1.0
 22
0.0
 32
0.0
 13
1.0
 23
0.0
 33
0.0
 40
0.0
 40
0.0
 40
0.0
 40
0.0
 40
1.0
 40
1.0
 40
1.0
 40
1.0
 10
3.3292
 20
11.7407
 30
0.0
 10
3.3292
 20
11.7407
 30
0.0
 10
3.3292
 20
11.7407
 30
0.0
 10
3.3292
 20
11.7407
 30
0.0
  0
SPLINE
  5
4F
330
1F
100
AcDbEntity
  8
Laag 1
 62
   250
370
     9
100
AcDbSpline
210
0.0
220
0.0
230
1.0
 70
    24
 71
     3
 72
     8
 73
     4
 74
     0
 42
0.0000000001
 43
0.0000000001
 12
1.0
 22
0.0
 32
0.0
 13
1.0
 23
0.0
 33
0.0
 40
0.0
 40
0.0
 40
0.0
 40
0.0
 40
1.0
 40
1.0
 40
1.0
 40
1.0
 10
2.9792
 20
11.39071
 30
0.0
 10
2.9792
 20
11.39071
 30
0.0
 10
2.9792
 20
11.3907
 30
0.0
 10
2.9792
 20
11.3907
 30
0.0
  0
SPLINE
  5
50
330
1F
100
AcDbEntity
  8
Laag 1
 62
   250
370
     9
100
AcDbSpline
210
0.0
220
0.0
230
1.0
 70
    24
 71
     3
 72
     8
 73
     4
 74
     0
 42
0.0000000001
 43
0.0000000001
 12
1.0
 22
0.0
 32
0.0
 13
1.0
 23
0.0
 33
0.0
 40
0.0
 40
0.0
 40
0.0
 40
0.0
 40
1.0
 40
1.0
 40
1.0
 40
1.0
 10
3.3292
 20
11.14071
 30
0.0
 10
3.3292
 20
11.14071
 30
0.0
 10
3.3292
 20
11.1407
 30
0.0
 10
3.3292
 20
11.1407
 30
0.0
  0
SPLINE
  5
51
330
1F
100
AcDbEntity
  8
Laag 1
 62
   250
370
     9
100
AcDbSpline
210
0.0
220
0.0
230
1.0
 70
    27
 71
     3
 72
     8
 73
     4
 74
     0
 42
0.0000000001
 43
0.0000000001
 12
1.0
 22
0.0
 32
0.0
 13
1.0
 23
0.0
 33
0.0
 40
0.0
 40
0.0
 40
0.0
 40
0.0
 40
1.0
 40
1.0
 40
1.0
 40
1.0
 10
3.6792
 20
11.3907
 30
0.0
 10
3.6792
 20
11.3907
 30
0.0
 10
3.6792
 20
11.3907
 30
0.0
 10
3.6792
 20
11.3907
 30
0.0
  0
SPLINE
  5
52
330
1F
100
AcDbEntity
  8
Laag 1
 62
   250
370
     9
100
AcDbSpline
210
0.0
220
0.0
230
1.0
 70
    27
 71
     3
 72
     8
 73
     4
 74
     0
 42
0.0000000001
 43
0.0000000001
 12
1.0
 22
0.0
 32
0.0
 13
1.0
 23
0.0
 33
0.0
 40
0.0
 40
0.0
 40
0.0
 40
0.0
 40
1.0
 40
1.0
 40
1.0
 40
1.0
 10
3.3292
 20
11.7407
 30
0.0
 10
3.3292
 20
11.7407
 30
0.0
 10
3.3292
 20
11.7407
 30
0.0
 10
3.3292
 20
11.7407
 30
0.0
  0
SPLINE
  5
53
330
1F
100
AcDbEntity
  8
Laag 1
 62
   250
370
     9
100
AcDbSpline
210
0.0
220
0.0
230
1.0
 70
    11
 71
     3
 72
    20
 73
    16
 74
     0
 42
0.0000000001
 43
0.0000000001
 12
1.0
 22
0.0
 32
0.0
 13
1.0
 23
0.0
 33
0.0
 40
0.0
 40
0.0
 40
0.0
 40
0.0
 40
0.2
 40
0.2
 40
0.2
 40
0.2
 40
0.4
 40
0.4
 40
0.4
 40
0.4
 40
0.6
 40
0.6
 40
0.6
 40
0.6
 40
1.0
 40
1.0
 40
1.0
 40
1.0
 10
2.4073
 20
8.40835
 30
0.0
 10
2.13115
 20
8.40835
 30
0.0
 10
1.9073
 20
8.1845
 30
0.0
 10
1.9073
 20
7.90836
 30
0.0
 10
1.9073
 20
7.90836
 30
0.0
 10
1.90729
 20
7.63221
 30
0.0
 10
2.13115
 20
7.40836
 30
0.0
 10
2.40729
 20
7.40836
 30
0.0
 10
2.40729
 20
7.40836
 30
0.0
 10
2.68344
 20
7.40835
 30
0.0
 10
2.90729
 20
7.63221
 30
0.0
 10
2.90729
 20
7.90835
 30
0.0
 10
2.90729
 20
7.90835
 30
0.0
 10
2.9073
 20
8.1845
 30
0.0
 10
2.68344
 20
8.40835
 30
0.0
 10
2.4073
 20
8.40835
 30
0.0
  0
SPLINE
  5
54
330
1F
100
AcDbEntity
  8
Laag 1
 62
   250
370
     9
100
AcDbSpline
210
0.0
220
0.0
230
1.0
 70
    27
 71
     3
 72
     8
 73
     4
 74
     0
 42
0.0000000001
 43
0.0000000001
 12
1.0
 22
0.0
 32
0.0
 13
1.0
 23
0.0
 33
0.0
 40
0.0
 40
0.0
 40
0.0
 40
0.0
 40
1.0
 40
1.0
 40
1.0
 40
1.0
 10
2.4073
 20
8.40835
 30
0.0
 10
2.4073
 20
8.40835
 30
0.0
 10
2.4073
 20
8.40835
 30
0.0
 10
2.4073
 20
8.40835
 30
0.0
  0
SPLINE
  5
55
330
1F
100
AcDbEntity
  8
Laag 1
 62
   250
370
     9
100
AcDbSpline
210
0.0
220
0.0
230
1.0
 70
    24
 71
     3
 72
     8
 73
     4
 74
     0
 42
0.0000000001
 43
0.0000000001
 12
1.0
 22
0.0
 32
0.0
 13
1.0
 23
0.0
 33
0.0
 40
0.0
 40
0.0
 40
0.0
 40
0.0
 40
1.0
 40
1.0
 40
1.0
 40
1.0
 10
1.9073
 20
7.90836
 30
0.0
 10
1.9073
 20
7.90836
 30
0.0
 10
1.9073
 20
7.90835
 30
0.0
 10
1.9073
 20
7.90835
 30
0.0
  0
SPLINE
  5
56
330
1F
100
AcDbEntity
  8
Laag 1
 62
   250
370
     9
100
AcDbSpline
210
0.0
220
0.0
230
1.0
 70
    24
 71
     3
 72
     8
 73
     4
 74
     0
 42
0.0000000001
 43
0.0000000001
 12
1.0
 22
0.0
 32
0.0
 13
1.0
 23
0.0
 33
0.0
 40
0.0
 40
0.0
 40
0.0
 40
0.0
 40
1.0
 40
1.0
 40
1.0
 40
1.0
 10
2.4073
 20
7.40836
 30
0.0
 10
2.4073
 20
7.40836
 30
0.0
 10
2.4073
 20
7.40835
 30
0.0
 10
2.4073
 20
7.40835
 30
0.0
  0
SPLINE
  5
57
330
1F
100
AcDbEntity
  8
Laag 1
 62
   250
370
     9
100
AcDbSpline
210
0.0
220
0.0
230
1.0
 70
    27
 71
     3
 72
     8
 73
     4
 74
     0
 42
0.0000000001
 43
0.0000000001
 12
1.0
 22
0.0
 32
0.0
 13
1.0
 23
0.0
 33
0.0
 40
0.0
 40
0.0
 40
0.0
 40
0.0
 40
1.0
 40
1.0
 40
1.0
 40
1.0
 10
2.9073
 20
7.90835
 30
0.0
 10
2.9073
 20
7.90835
 30
0.0
 10
2.9073
 20
7.90835
 30
0.0
 10
2.9073
 20
7.90835
 30
0.0
  0
SPLINE
  5
58
330
1F
100
AcDbEntity
  8
Laag 1
 62
   250
370
     9
100
AcDbSpline
210
0.0
220
0.0
230
1.0
 70
    27
 71
     3
 72
     8
 73
     4
 74
     0
 42
0.0000000001
 43
0.0000000001
 12
1.0
 22
0.0
 32
0.0
 13
1.0
 23
0.0
 33
0.0
 40
0.0
 40
0.0
 40
0.0
 40
0.0
 40
1.0
 40
1.0
 40
1.0
 40
1.0
 10
2.4073
 20
8.40835
 30
0.0
 10
2.4073
 20
8.40835
 30
0.0
 10
2.4073
 20
8.40835
 30
0.0
 10
2.4073
 20
8.40835
 30
0.0
  0
SPLINE
  5
59
330
1F
100
AcDbEntity
  8
Laag 1
 62
   250
370
     9
100
AcDbSpline
210
0.0
220
0.0
230
1.0
 70
    11
 71
     3
 72
    20
 73
    16
 74
     0
 42
0.0000000001
 43
0.0000000001
 12
1.0
 22
0.0
 32
0.0
 13
1.0
 23
0.0
 33
0.0
 40
0.0
 40
0.0
 40
0.0
 40
0.0
 40
0.2
 40
0.2
 40
0.2
 40
0.2
 40
0.4
 40
0.4
 40
0.4
 40
0.4
 40
0.6
 40
0.6
 40
0.6
 40
0.6
 40
1.0
 40
1.0
 40
1.0
 40
1.0
 10
-1.0927
 20
2.50839
 30
0.0
 10
-1.42408
 20
2.50839
 30
0.0
 10
-1.6927
 20
2.23977
 30
0.0
 10
-1.6927
 20
1.9084
 30
0.0
 10
-1.6927
 20
1.9084
 30
0.0
 10
-1.69271
 20
1.57702
 30
0.0
 10
-1.42408
 20
1.3084
 30
0.0
 10
-1.09271
 20
1.3084
 30
0.0
 10
-1.09271
 20
1.3084
 30
0.0
 10
-0.76134
 20
1.30839
 30
0.0
 10
-0.49273
 20
1.57701
 30
0.0
 10
-0.49273
 20
1.90839
 30
0.0
 10
-0.49273
 20
1.90839
 30
0.0
 10
-0.49272
 20
2.23976
 30
0.0
 10
-0.76133
 20
2.50839
 30
0.0
 10
-1.0927
 20
2.50839
 30
0.0
  0
SPLINE
  5
5A
330
1F
100
AcDbEntity
  8
Laag 1
 62
   250
370
     9
100
AcDbSpline
210
0.0
220
0.0
230
1.0
 70
    27
 71
     3
 72
     8
 73
     4
 74
     0
 42
0.0000000001
 43
0.0000000001
 12
1.0
 22
0.0
 32
0.0
 13
1.0
 23
0.0
 33
0.0
 40
0.0
 40
0.0
 40
0.0
 40
0.0
 40
1.0
 40
1.0
 40
1.0
 40
1.0
 10
-1.0927
 20
2.50839
 30
0.0
 10
-1.0927
 20
2.50839
 30
0.0
 10
-1.0927
 20
2.50839
 30
0.0
 10
-1.0927
 20
2.50839
 30
0.0
  0
SPLINE
  5
5B
330
1F
100
AcDbEntity
  8
Laag 1
 62
   250
370
     9
100
AcDbSpline
210
0.0
220
0.0
230
1.0
 70
    24
 71
     3
 72
     8
 73
     4
 74
     0
 42
0.0000000001
 43
0.0000000001
 12
1.0
 22
0.0
 32
0.0
 13
1.0
 23
0.0
 33
0.0
 40
0.0
 40
0.0
 40
0.0
 40
0.0
 40
1.0
 40
1.0
 40
1.0
 40
1.0
 10
-1.6927
 20
1.90839
 30
0.0
 10
-1.6927
 20
1.90839
 30
0.0
 10
-1.6927
 20
1.90838
 30
0.0
 10
-1.6927
 20
1.90838
 30
0.0
  0
SPLINE
  5
5C
330
1F
100
AcDbEntity
  8
Laag 1
 62
   250
370
     9
100
AcDbSpline
210
0.0
220
0.0
230
1.0
 70
    24
 71
     3
 72
     8
 73
     4
 74
     0
 42
0.0000000001
 43
0.0000000001
 12
1.0
 22
0.0
 32
0.0
 13
1.0
 23
0.0
 33
0.0
 40
0.0
 40
0.0
 40
0.0
 40
0.0
 40
1.0
 40
1.0
 40
1.0
 40
1.0
 10
-1.09271
 20
1.30839
 30
0.0
 10
-1.09271
 20
1.30839
 30
0.0
 10
-1.09271
 20
1.30838
 30
0.0
 10
-1.09271
 20
1.30838
 30
0.0
  0
SPLINE
  5
5D
330
1F
100
AcDbEntity
  8
Laag 1
 62
   250
370
     9
100
AcDbSpline
210
0.0
220
0.0
230
1.0
 70
    27
 71
     3
 72
     8
 73
     4
 74
     0
 42
0.0000000001
 43
0.0000000001
 12
1.0
 22
0.0
 32
0.0
 13
1.0
 23
0.0
 33
0.0
 40
0.0
 40
0.0
 40
0.0
 40
0.0
 40
1.0
 40
1.0
 40
1.0
 40
1.0
 10
-0.49273
 20
1.90839
 30
0.0
 10
-0.49273
 20
1.90839
 30
0.0
 10
-0.49273
 20
1.90839
 30
0.0
 10
-0.49273
 20
1.90839
 30
0.0
  0
SPLINE
  5
5E
330
1F
100
AcDbEntity
  8
Laag 1
 62
   250
370
     9
100
AcDbSpline
210
0.0
220
0.0
230
1.0
 70
    27
 71
     3
 72
     8
 73
     4
 74
     0
 42
0.0000000001
 43
0.0000000001
 12
1.0
 22
0.0
 32
0.0
 13
1.0
 23
0.0
 33
0.0
 40
0.0
 40
0.0
 40
0.0
 40
0.0
 40
1.0
 40
1.0
 40
1.0
 40
1.0
 10
-1.0927
 20
2.50839
 30
0.0
 10
-1.0927
 20
2.50839
 30
0.0
 10
-1.0927
 20
2.50839
 30
0.0
 10
-1.0927
 20
2.50839
 30
0.0
  0
SPLINE
  5
5F
330
1F
100
AcDbEntity
  8
Laag 1
 62
   250
370
     9
100
AcDbSpline
210
0.0
220
0.0
230
1.0
 70
    11
 71
     3
 72
    20
 73
    16
 74
     0
 42
0.0000000001
 43
0.0000000001
 12
1.0
 22
0.0
 32
0.0
 13
1.0
 23
0.0
 33
0.0
 40
0.0
 40
0.0
 40
0.0
 40
0.0
 40
0.2
 40
0.2
 40
0.2
 40
0.2
 40
0.4
 40
0.4
 40
0.4
 40
0.4
 40
0.6
 40
0.6
 40
0.6
 40
0.6
 40
1.0
 40
1.0
 40
1.0
 40
1.0
 10
-4.54675
 20
2.50689
 30
0.0
 10
-4.87812
 20
2.50689
 30
0.0
 10
-5.14674
 20
2.23827
 30
0.0
 10
-5.14674
 20
1.9069
 30
0.0
 10
-5.14674
 20
1.9069
 30
0.0
 10
-5.14675
 20
1.57553
 30
0.0
 10
-4.87812
 20
1.3069
 30
0.0
 10
-4.54675
 20
1.3069
 30
0.0
 10
-4.54675
 20
1.3069
 30
0.0
 10
-4.21538
 20
1.30689
 30
0.0
 10
-3.94675
 20
1.57552
 30
0.0
 10
-3.94675
 20
1.90689
 30
0.0
 10
-3.94675
 20
1.90689
 30
0.0
 10
-3.94674
 20
2.23826
 30
0.0
 10
-4.21537
 20
2.50689
 30
0.0
 10
-4.54675
 20
2.50689
 30
0.0
  0
SPLINE
  5
60
330
1F
100
AcDbEntity
  8
Laag 1
 62
   250
370
     9
100
AcDbSpline
210
0.0
220
0.0
230
1.0
 70
    27
 71
     3
 72
     8
 73
     4
 74
     0
 42
0.0000000001
 43
0.0000000001
 12
1.0
 22
0.0
 32
0.0
 13
1.0
 23
0.0
 33
0.0
 40
0.0
 40
0.0
 40
0.0
 40
0.0
 40
1.0
 40
1.0
 40
1.0
 40
1.0
 10
-4.54675
 20
2.50689
 30
0.0
 10
-4.54675
 20
2.50689
 30
0.0
 10
-4.54675
 20
2.50689
 30
0.0
 10
-4.54675
 20
2.50689
 30
0.0
  0
SPLINE
  5
61
330
1F
100
AcDbEntity
  8
Laag 1
 62
   250
370
     9
100
AcDbSpline
210
0.0
220
0.0
230
1.0
 70
    24
 71
     3
 72
     8
 73
     4
 74
     0
 42
0.0000000001
 43
0.0000000001
 12
1.0
 22
0.0
 32
0.0
 13
1.0
 23
0.0
 33
0.0
 40
0.0
 40
0.0
 40
0.0
 40
0.0
 40
1.0
 40
1.0
 40
1.0
 40
1.0
 10
-5.14674
 20
1.90689
 30
0.0
 10
-5.14674
 20
1.90689
 30
0.0
 10
-5.14674
 20
1.90688
 30
0.0
 10
-5.14674
 20
1.90688
 30
0.0
  0
SPLINE
  5
62
330
1F
100
AcDbEntity
  8
Laag 1
 62
   250
370
     9
100
AcDbSpline
210
0.0
220
0.0
230
1.0
 70
    24
 71
     3
 72
     8
 73
     4
 74
     0
 42
0.0000000001
 43
0.0000000001
 12
1.0
 22
0.0
 32
0.0
 13
1.0
 23
0.0
 33
0.0
 40
0.0
 40
0.0
 40
0.0
 40
0.0
 40
1.0
 40
1.0
 40
1.0
 40
1.0
 10
-4.54675
 20
1.30689
 30
0.0
 10
-4.54675
 20
1.30689
 30
0.0
 10
-4.54675
 20
1.30688
 30
0.0
 10
-4.54675
 20
1.30688
 30
0.0
  0
SPLINE
  5
63
330
1F
100
AcDbEntity
  8
Laag 1
 62
   250
370
     9
100
AcDbSpline
210
0.0
220
0.0
230
1.0
 70
    27
 71
     3
 72
     8
 73
     4
 74
     0
 42
0.0000000001
 43
0.0000000001
 12
1.0
 22
0.0
 32
0.0
 13
1.0
 23
0.0
 33
0.0
 40
0.0
 40
0.0
 40
0.0
 40
0.0
 40
1.0
 40
1.0
 40
1.0
 40
1.0
 10
-3.94675
 20
1.90689
 30
0.0
 10
-3.94675
 20
1.90689
 30
0.0
 10
-3.94675
 20
1.90689
 30
0.0
 10
-3.94675
 20
1.90689
 30
0.0
  0
SPLINE
  5
64
330
1F
100
AcDbEntity
  8
Laag 1
 62
   250
370
     9
100
AcDbSpline
210
0.0
220
0.0
230
1.0
 70
    27
 71
     3
 72
     8
 73
     4
 74
     0
 42
0.0000000001
 43
0.0000000001
 12
1.0
 22
0.0
 32
0.0
 13
1.0
 23
0.0
 33
0.0
 40
0.0
 40
0.0
 40
0.0
 40
0.0
 40
1.0
 40
1.0
 40
1.0
 40
1.0
 10
-4.54675
 20
2.50689
 30
0.0
 10
-4.54675
 20
2.50689
 30
0.0
 10
-4.54675
 20
2.50689
 30
0.0
 10
-4.54675
 20
2.50689
 30
0.0
  0
SPLINE
  5
65
330
1F
100
AcDbEntity
  8
Laag 1
 62
   250
370
     9
100
AcDbSpline
210
0.0
220
0.0
230
1.0
 70
    11
 71
     3
 72
    20
 73
    16
 74
     0
 42
0.0000000001
 43
0.0000000001
 12
1.0
 22
0.0
 32
0.0
 13
1.0
 23
0.0
 33
0.0
 40
0.0
 40
0.0
 40
0.0
 40
0.0
 40
0.2
 40
0.2
 40
0.2
 40
0.2
 40
0.4
 40
0.4
 40
0.4
 40
0.4
 40
0.6
 40
0.6
 40
0.6
 40
0.6
 40
1.0
 40
1.0
 40
1.0
 40
1.0
 10
5.9473
 20
1.51409
 30
0.0
 10
5.754
 20
1.51409
 30
0.0
 10
5.5973
 20
1.35739
 30
0.0
 10
5.5973
 20
1.1641
 30
0.0
 10
5.5973
 20
1.1641
 30
0.0
 10
5.59729
 20
0.97081
 30
0.0
 10
5.75399
 20
0.81411
 30
0.0
 10
5.94729
 20
0.81411
 30
0.0
 10
5.94729
 20
0.81411
 30
0.0
 10
6.14059
 20
0.8141
 30
0.0
 10
6.29729
 20
0.9708
 30
0.0
 10
6.29729
 20
1.16409
 30
0.0
 10
6.29729
 20
1.16409
 30
0.0
 10
6.2973
 20
1.35739
 30
0.0
 10
6.1406
 20
1.51409
 30
0.0
 10
5.9473
 20
1.51409
 30
0.0
  0
SPLINE
  5
66
330
1F
100
AcDbEntity
  8
Laag 1
 62
   250
370
     9
100
AcDbSpline
210
0.0
220
0.0
230
1.0
 70
    24
 71
     3
 72
     8
 73
     4
 74
     0
 42
0.0000000001
 43
0.0000000001
 12
1.0
 22
0.0
 32
0.0
 13
1.0
 23
0.0
 33
0.0
 40
0.0
 40
0.0
 40
0.0
 40
0.0
 40
1.0
 40
1.0
 40
1.0
 40
1.0
 10
5.5973
 20
1.16409
 30
0.0
 10
5.5973
 20
1.16409
 30
0.0
 10
5.5973
 20
1.16408
 30
0.0
 10
5.5973
 20
1.16408
 30
0.0
  0
SPLINE
  5
67
330
1F
100
AcDbEntity
  8
Laag 1
 62
   250
370
     9
100
AcDbSpline
210
0.0
220
0.0
230
1.0
 70
    24
 71
     3
 72
     8
 73
     4
 74
     0
 42
0.0000000001
 43
0.0000000001
 12
1.0
 22
0.0
 32
0.0
 13
1.0
 23
0.0
 33
0.0
 40
0.0
 40
0.0
 40
0.0
 40
0.0
 40
1.0
 40
1.0
 40
1.0
 40
1.0
 10
5.9473
 20
0.81409
 30
0.0
 10
5.9473
 20
0.81409
 30
0.0
 10
5.9473
 20
0.81408
 30
0.0
 10
5.9473
 20
0.81408
 30
0.0
  0
SPLINE
  5
68
330
1F
100
AcDbEntity
  8
Laag 1
 62
   250
370
     9
100
AcDbSpline
210
0.0
220
0.0
230
1.0
 70
    27
 71
     3
 72
     8
 73
     4
 74
     0
 42
0.0000000001
 43
0.0000000001
 12
1.0
 22
0.0
 32
0.0
 13
1.0
 23
0.0
 33
0.0
 40
0.0
 40
0.0
 40
0.0
 40
0.0
 40
1.0
 40
1.0
 40
1.0
 40
1.0
 10
6.2973
 20
1.16409
 30
0.0
 10
6.2973
 20
1.16409
 30
0.0
 10
6.2973
 20
1.16409
 30
0.0
 10
6.2973
 20
1.16409
 30
0.0
  0
SPLINE
  5
69
330
1F
100
AcDbEntity
  8
Laag 1
 62
   250
370
     9
100
AcDbSpline
210
0.0
220
0.0
230
1.0
 70
    11
 71
     3
 72
    20
 73
    16
 74
     0
 42
0.0000000001
 43
0.0000000001
 12
1.0
 22
0.0
 32
0.0
 13
1.0
 23
0.0
 33
0.0
 40
0.0
 40
0.0
 40
0.0
 40
0.0
 40
0.2
 40
0.2
 40
0.2
 40
0.2
 40
0.4
 40
0.4
 40
0.4
 40
0.4
 40
0.6
 40
0.6
 40
0.6
 40
0.6
 40
1.0
 40
1.0
 40
1.0
 40
1.0
 10
-7.07631
 20
1.48799
 30
0.0
 10
-7.26961
 20
1.48799
 30
0.0
 10
-7.42631
 20
1.33129
 30
0.0
 10
-7.42631
 20
1.138
 30
0.0
 10
-7.42631
 20
1.138
 30
0.0
 10
-7.42632
 20
0.94471
 30
0.0
 10
-7.26962
 20
0.78801
 30
0.0
 10
-7.07632
 20
0.78801
 30
0.0
 10
-7.07632
 20
0.78801
 30
0.0
 10
-6.88302
 20
0.788
 30
0.0
 10
-6.72632
 20
0.9447
 30
0.0
 10
-6.72632
 20
1.13799
 30
0.0
 10
-6.72632
 20
1.13799
 30
0.0
 10
-6.72631
 20
1.33129
 30
0.0
 10
-6.88301
 20
1.48799
 30
0.0
 10
-7.07631
 20
1.48799
 30
0.0
  0
SPLINE
  5
6A
330
1F
100
AcDbEntity
  8
Laag 1
 62
   250
370
     9
100
AcDbSpline
210
0.0
220
0.0
230
1.0
 70
    27
 71
     3
 72
     8
 73
     4
 74
     0
 42
0.0000000001
 43
0.0000000001
 12
1.0
 22
0.0
 32
0.0
 13
1.0
 23
0.0
 33
0.0
 40
0.0
 40
0.0
 40
0.0
 40
0.0
 40
1.0
 40
1.0
 40
1.0
 40
1.0
 10
-7.07631
 20
1.48799
 30
0.0
 10
-7.07631
 20
1.48799
 30
0.0
 10
-7.07631
 20
1.48799
 30
0.0
 10
-7.07631
 20
1.48799
 30
0.0
  0
SPLINE
  5
6B
330
1F
100
AcDbEntity
  8
Laag 1
 62
   250
370
     9
100
AcDbSpline
210
0.0
220
0.0
230
1.0
 70
    24
 71
     3
 72
     8
 73
     4
 74
     0
 42
0.0000000001
 43
0.0000000001
 12
1.0
 22
0.0
 32
0.0
 13
1.0
 23
0.0
 33
0.0
 40
0.0
 40
0.0
 40
0.0
 40
0.0
 40
1.0
 40
1.0
 40
1.0
 40
1.0
 10
-7.42631
 20
1.13809
 30
0.0
 10
-7.42631
 20
1.13809
 30
0.0
 10
-7.42631
 20
1.13808
 30
0.0
 10
-7.42631
 20
1.13808
 30
0.0
  0
SPLINE
  5
6C
330
1F
100
AcDbEntity
  8
Laag 1
 62
   250
370
     9
100
AcDbSpline
210
0.0
220
0.0
230
1.0
 70
    24
 71
     3
 72
     8
 73
     4
 74
     0
 42
0.0000000001
 43
0.0000000001
 12
1.0
 22
0.0
 32
0.0
 13
1.0
 23
0.0
 33
0.0
 40
0.0
 40
0.0
 40
0.0
 40
0.0
 40
1.0
 40
1.0
 40
1.0
 40
1.0
 10
-7.07632
 20
0.78809
 30
0.0
 10
-7.07632
 20
0.78809
 30
0.0
 10
-7.07632
 20
0.78808
 30
0.0
 10
-7.07632
 20
0.78808
 30
0.0
  0
SPLINE
  5
6D
330
1F
100
AcDbEntity
  8
Laag 1
 62
   250
370
     9
100
AcDbSpline
210
0.0
220
0.0
230
1.0
 70
    27
 71
     3
 72
     8
 73
     4
 74
     0
 42
0.0000000001
 43
0.0000000001
 12
1.0
 22
0.0
 32
0.0
 13
1.0
 23
0.0
 33
0.0
 40
0.0
 40
0.0
 40
0.0
 40
0.0
 40
1.0
 40
1.0
 40
1.0
 40
1.0
 10
-6.72632
 20
1.13799
 30
0.0
 10
-6.72632
 20
1.13799
 30
0.0
 10
-6.72632
 20
1.13799
 30
0.0
 10
-6.72632
 20
1.13799
 30
0.0
  0
SPLINE
  5
6E
330
1F
100
AcDbEntity
  8
Laag 1
 62
   250
370
     9
100
AcDbSpline
210
0.0
220
0.0
230
1.0
 70
    27
 71
     3
 72
     8
 73
     4
 74
     0
 42
0.0000000001
 43
0.0000000001
 12
1.0
 22
0.0
 32
0.0
 13
1.0
 23
0.0
 33
0.0
 40
0.0
 40
0.0
 40
0.0
 40
0.0
 40
1.0
 40
1.0
 40
1.0
 40
1.0
 10
-7.07631
 20
1.48799
 30
0.0
 10
-7.07631
 20
1.48799
 30
0.0
 10
-7.07631
 20
1.48799
 30
0.0
 10
-7.07631
 20
1.48799
 30
0.0
  0
SPLINE
  5
6F
330
1F
100
AcDbEntity
  8
Laag 1
 62
   250
370
     9
100
AcDbSpline
210
0.0
220
0.0
230
1.0
 70
    11
 71
     3
 72
    20
 73
    16
 74
     0
 42
0.0000000001
 43
0.0000000001
 12
1.0
 22
0.0
 32
0.0
 13
1.0
 23
0.0
 33
0.0
 40
0.0
 40
0.0
 40
0.0
 40
0.0
 40
0.2
 40
0.2
 40
0.2
 40
0.2
 40
0.4
 40
0.4
 40
0.4
 40
0.4
 40
0.6
 40
0.6
 40
0.6
 40
0.6
 40
1.0
 40
1.0
 40
1.0
 40
1.0
 10
3.9073
 20
-1.75881
 30
0.0
 10
3.57592
 20
-1.75881
 30
0.0
 10
3.3073
 20
-2.02743
 30
0.0
 10
3.3073
 20
-2.3588
 30
0.0
 10
3.3073
 20
-2.3588
 30
0.0
 10
3.30729
 20
-2.69017
 30
0.0
 10
3.57592
 20
-2.9588
 30
0.0
 10
3.90729
 20
-2.9588
 30
0.0
 10
3.90729
 20
-2.9588
 30
0.0
 10
4.23866
 20
-2.95881
 30
0.0
 10
4.50729
 20
-2.69018
 30
0.0
 10
4.50729
 20
-2.35881
 30
0.0
 10
4.50729
 20
-2.35881
 30
0.0
 10
4.5073
 20
-2.02744
 30
0.0
 10
4.23867
 20
-1.75881
 30
0.0
 10
3.9073
 20
-1.75881
 30
0.0
  0
SPLINE
  5
70
330
1F
100
AcDbEntity
  8
Laag 1
 62
   250
370
     9
100
AcDbSpline
210
0.0
220
0.0
230
1.0
 70
    24
 71
     3
 72
     8
 73
     4
 74
     0
 42
0.0000000001
 43
0.0000000001
 12
1.0
 22
0.0
 32
0.0
 13
1.0
 23
0.0
 33
0.0
 40
0.0
 40
0.0
 40
0.0
 40
0.0
 40
1.0
 40
1.0
 40
1.0
 40
1.0
 10
3.3073
 20
-2.35881
 30
0.0
 10
3.3073
 20
-2.35881
 30
0.0
 10
3.3073
 20
-2.35882
 30
0.0
 10
3.3073
 20
-2.35882
 30
0.0
  0
SPLINE
  5
71
330
1F
100
AcDbEntity
  8
Laag 1
 62
   250
370
     9
100
AcDbSpline
210
0.0
220
0.0
230
1.0
 70
    24
 71
     3
 72
     8
 73
     4
 74
     0
 42
0.0000000001
 43
0.0000000001
 12
1.0
 22
0.0
 32
0.0
 13
1.0
 23
0.0
 33
0.0
 40
0.0
 40
0.0
 40
0.0
 40
0.0
 40
1.0
 40
1.0
 40
1.0
 40
1.0
 10
3.9073
 20
-2.95881
 30
0.0
 10
3.9073
 20
-2.95881
 30
0.0
 10
3.9073
 20
-2.95882
 30
0.0
 10
3.9073
 20
-2.95882
 30
0.0
  0
SPLINE
  5
72
330
1F
100
AcDbEntity
  8
Laag 1
 62
   250
370
     9
100
AcDbSpline
210
0.0
220
0.0
230
1.0
 70
    27
 71
     3
 72
     8
 73
     4
 74
     0
 42
0.0000000001
 43
0.0000000001
 12
1.0
 22
0.0
 32
0.0
 13
1.0
 23
0.0
 33
0.0
 40
0.0
 40
0.0
 40
0.0
 40
0.0
 40
1.0
 40
1.0
 40
1.0
 40
1.0
 10
4.5073
 20
-2.35881
 30
0.0
 10
4.5073
 20
-2.35881
 30
0.0
 10
4.5073
 20
-2.35881
 30
0.0
 10
4.5073
 20
-2.35881
 30
0.0
  0
SPLINE
  5
73
330
1F
100
AcDbEntity
  8
Laag 1
 62
   250
370
     9
100
AcDbSpline
210
0.0
220
0.0
230
1.0
 70
    11
 71
     3
 72
    20
 73
    16
 74
     0
 42
0.0000000001
 43
0.0000000001
 12
1.0
 22
0.0
 32
0.0
 13
1.0
 23
0.0
 33
0.0
 40
0.0
 40
0.0
 40
0.0
 40
0.0
 40
0.2
 40
0.2
 40
0.2
 40
0.2
 40
0.4
 40
0.4
 40
0.4
 40
0.4
 40
0.6
 40
0.6
 40
0.6
 40
0.6
 40
1.0
 40
1.0
 40
1.0
 40
1.0
 10
-2.19651
 20
-5.10771
 30
0.0
 10
-2.58311
 20
-5.10771
 30
0.0
 10
-2.89651
 20
-5.42111
 30
0.0
 10
-2.89651
 20
-5.8077
 30
0.0
 10
-2.89651
 20
-5.8077
 30
0.0
 10
-2.89652
 20
-6.1943
 30
0.0
 10
-2.58312
 20
-6.5077
 30
0.0
 10
-2.19652
 20
-6.5077
 30
0.0
 10
-2.19652
 20
-6.5077
 30
0.0
 10
-1.80992
 20
-6.50771
 30
0.0
 10
-1.49652
 20
-6.19431
 30
0.0
 10
-1.49652
 20
-5.80771
 30
0.0
 10
-1.49652
 20
-5.80771
 30
0.0
 10
-1.49651
 20
-5.42111
 30
0.0
 10
-1.80991
 20
-5.10771
 30
0.0
 10
-2.19651
 20
-5.10771
 30
0.0
  0
SPLINE
  5
74
330
1F
100
AcDbEntity
  8
Laag 1
 62
   250
370
     9
100
AcDbSpline
210
0.0
220
0.0
230
1.0
 70
    27
 71
     3
 72
     8
 73
     4
 74
     0
 42
0.0000000001
 43
0.0000000001
 12
1.0
 22
0.0
 32
0.0
 13
1.0
 23
0.0
 33
0.0
 40
0.0
 40
0.0
 40
0.0
 40
0.0
 40
1.0
 40
1.0
 40
1.0
 40
1.0
 10
-2.19651
 20
-5.10771
 30
0.0
 10
-2.19651
 20
-5.10771
 30
0.0
 10
-2.19651
 20
-5.10771
 30
0.0
 10
-2.19651
 20
-5.10771
 30
0.0
  0
SPLINE
  5
75
330
1F
100
AcDbEntity
  8
Laag 1
 62
   250
370
     9
100
AcDbSpline
210
0.0
220
0.0
230
1.0
 70
    24
 71
     3
 72
     8
 73
     4
 74
     0
 42
0.0000000001
 43
0.0000000001
 12
1.0
 22
0.0
 32
0.0
 13
1.0
 23
0.0
 33
0.0
 40
0.0
 40
0.0
 40
0.0
 40
0.0
 40
1.0
 40
1.0
 40
1.0
 40
1.0
 10
-2.89651
 20
-5.80771
 30
0.0
 10
-2.89651
 20
-5.80771
 30
0.0
 10
-2.89651
 20
-5.80772
 30
0.0
 10
-2.89651
 20
-5.80772
 30
0.0
  0
SPLINE
  5
76
330
1F
100
AcDbEntity
  8
Laag 1
 62
   250
370
     9
100
AcDbSpline
210
0.0
220
0.0
230
1.0
 70
    24
 71
     3
 72
     8
 73
     4
 74
     0
 42
0.0000000001
 43
0.0000000001
 12
1.0
 22
0.0
 32
0.0
 13
1.0
 23
0.0
 33
0.0
 40
0.0
 40
0.0
 40
0.0
 40
0.0
 40
1.0
 40
1.0
 40
1.0
 40
1.0
 10
-2.19652
 20
-6.50771
 30
0.0
 10
-2.19652
 20
-6.50771
 30
0.0
 10
-2.19652
 20
-6.50772
 30
0.0
 10
-2.19652
 20
-6.50772
 30
0.0
  0
SPLINE
  5
77
330
1F
100
AcDbEntity
  8
Laag 1
 62
   250
370
     9
100
AcDbSpline
210
0.0
220
0.0
230
1.0
 70
    27
 71
     3
 72
     8
 73
     4
 74
     0
 42
0.0000000001
 43
0.0000000001
 12
1.0
 22
0.0
 32
0.0
 13
1.0
 23
0.0
 33
0.0
 40
0.0
 40
0.0
 40
0.0
 40
0.0
 40
1.0
 40
1.0
 40
1.0
 40
1.0
 10
-1.49652
 20
-5.80771
 30
0.0
 10
-1.49652
 20
-5.80771
 30
0.0
 10
-1.49652
 20
-5.80771
 30
0.0
 10
-1.49652
 20
-5.80771
 30
0.0
  0
SPLINE
  5
78
330
1F
100
AcDbEntity
  8
Laag 1
 62
   250
370
     9
100
AcDbSpline
210
0.0
220
0.0
230
1.0
 70
    27
 71
     3
 72
     8
 73
     4
 74
     0
 42
0.0000000001
 43
0.0000000001
 12
1.0
 22
0.0
 32
0.0
 13
1.0
 23
0.0
 33
0.0
 40
0.0
 40
0.0
 40
0.0
 40
0.0
 40
1.0
 40
1.0
 40
1.0
 40
1.0
 10
-2.19651
 20
-5.10771
 30
0.0
 10
-2.19651
 20
-5.10771
 30
0.0
 10
-2.19651
 20
-5.10771
 30
0.0
 10
-2.19651
 20
-5.10771
 30
0.0
  0
SPLINE
  5
79
330
1F
100
AcDbEntity
  8
Laag 1
 62
   250
370
     9
100
AcDbSpline
210
0.0
220
0.0
230
1.0
 70
    11
 71
     3
 72
    20
 73
    16
 74
     0
 42
0.0000000001
 43
0.0000000001
 12
1.0
 22
0.0
 32
0.0
 13
1.0
 23
0.0
 33
0.0
 40
0.0
 40
0.0
 40
0.0
 40
0.0
 40
0.2
 40
0.2
 40
0.2
 40
0.2
 40
0.4
 40
0.4
 40
0.4
 40
0.4
 40
0.6
 40
0.6
 40
0.6
 40
0.6
 40
1.0
 40
1.0
 40
1.0
 40
1.0
 10
-4.5927
 20
-8.74161
 30
0.0
 10
-4.78599
 20
-8.74161
 30
0.0
 10
-4.94269
 20
-8.89831
 30
0.0
 10
-4.94269
 20
-9.0916
 30
0.0
 10
-4.94269
 20
-9.0916
 30
0.0
 10
-4.9427
 20
-9.2849
 30
0.0
 10
-4.786
 20
-9.4416
 30
0.0
 10
-4.5927
 20
-9.4416
 30
0.0
 10
-4.5927
 20
-9.4416
 30
0.0
 10
-4.3994
 20
-9.44161
 30
0.0
 10
-4.2427
 20
-9.2849
 30
0.0
 10
-4.2427
 20
-9.09161
 30
0.0
 10
-4.2427
 20
-9.09161
 30
0.0
 10
-4.24269
 20
-8.89831
 30
0.0
 10
-4.39939
 20
-8.74161
 30
0.0
 10
-4.5927
 20
-8.74161
 30
0.0
  0
SPLINE
  5
7A
330
1F
100
AcDbEntity
  8
Laag 1
 62
   250
370
     9
100
AcDbSpline
210
0.0
220
0.0
230
1.0
 70
    27
 71
     3
 72
     8
 73
     4
 74
     0
 42
0.0000000001
 43
0.0000000001
 12
1.0
 22
0.0
 32
0.0
 13
1.0
 23
0.0
 33
0.0
 40
0.0
 40
0.0
 40
0.0
 40
0.0
 40
1.0
 40
1.0
 40
1.0
 40
1.0
 10
-4.5927
 20
-8.74161
 30
0.0
 10
-4.5927
 20
-8.74161
 30
0.0
 10
-4.5927
 20
-8.74161
 30
0.0
 10
-4.5927
 20
-8.74161
 30
0.0
  0
SPLINE
  5
7B
330
1F
100
AcDbEntity
  8
Laag 1
 62
   250
370
     9
100
AcDbSpline
210
0.0
220
0.0
230
1.0
 70
    24
 71
     3
 72
     8
 73
     4
 74
     0
 42
0.0000000001
 43
0.0000000001
 12
1.0
 22
0.0
 32
0.0
 13
1.0
 23
0.0
 33
0.0
 40
0.0
 40
0.0
 40
0.0
 40
0.0
 40
1.0
 40
1.0
 40
1.0
 40
1.0
 10
-4.94269
 20
-9.09161
 30
0.0
 10
-4.94269
 20
-9.09161
 30
0.0
 10
-4.94269
 20
-9.09162
 30
0.0
 10
-4.94269
 20
-9.09162
 30
0.0
  0
SPLINE
  5
7C
330
1F
100
AcDbEntity
  8
Laag 1
 62
   250
370
     9
100
AcDbSpline
210
0.0
220
0.0
230
1.0
 70
    24
 71
     3
 72
     8
 73
     4
 74
     0
 42
0.0000000001
 43
0.0000000001
 12
1.0
 22
0.0
 32
0.0
 13
1.0
 23
0.0
 33
0.0
 40
0.0
 40
0.0
 40
0.0
 40
0.0
 40
1.0
 40
1.0
 40
1.0
 40
1.0
 10
-4.5927
 20
-9.44161
 30
0.0
 10
-4.5927
 20
-9.44161
 30
0.0
 10
-4.5927
 20
-9.44162
 30
0.0
 10
-4.5927
 20
-9.44162
 30
0.0
  0
SPLINE
  5
7D
330
1F
100
AcDbEntity
  8
Laag 1
 62
   250
370
     9
100
AcDbSpline
210
0.0
220
0.0
230
1.0
 70
    27
 71
     3
 72
     8
 73
     4
 74
     0
 42
0.0000000001
 43
0.0000000001
 12
1.0
 22
0.0
 32
0.0
 13
1.0
 23
0.0
 33
0.0
 40
0.0
 40
0.0
 40
0.0
 40
0.0
 40
1.0
 40
1.0
 40
1.0
 40
1.0
 10
-4.2427
 20
-9.09161
 30
0.0
 10
-4.2427
 20
-9.09161
 30
0.0
 10
-4.2427
 20
-9.09161
 30
0.0
 10
-4.2427
 20
-9.09161
 30
0.0
  0
SPLINE
  5
7E
330
1F
100
AcDbEntity
  8
Laag 1
 62
   250
370
     9
100
AcDbSpline
210
0.0
220
0.0
230
1.0
 70
    27
 71
     3
 72
     8
 73
     4
 74
     0
 42
0.0000000001
 43
0.0000000001
 12
1.0
 22
0.0
 32
0.0
 13
1.0
 23
0.0
 33
0.0
 40
0.0
 40
0.0
 40
0.0
 40
0.0
 40
1.0
 40
1.0
 40
1.0
 40
1.0
 10
-4.5927
 20
-8.74161
 30
0.0
 10
-4.5927
 20
-8.74161
 30
0.0
 10
-4.5927
 20
-8.74161
 30
0.0
 10
-4.5927
 20
-8.74161
 30
0.0
  0
SPLINE
  5
7F
330
1F
100
AcDbEntity
  8
Laag 1
 62
   250
370
     9
100
AcDbSpline
210
0.0
220
0.0
230
1.0
 70
    11
 71
     3
 72
    20
 73
    16
 74
     0
 42
0.0000000001
 43
0.0000000001
 12
1.0
 22
0.0
 32
0.0
 13
1.0
 23
0.0
 33
0.0
 40
0.0
 40
0.0
 40
0.0
 40
0.0
 40
0.2
 40
0.2
 40
0.2
 40
0.2
 40
0.4
 40
0.4
 40
0.4
 40
0.4
 40
0.6
 40
0.6
 40
0.6
 40
0.6
 40
1.0
 40
1.0
 40
1.0
 40
1.0
 10
3.3292
 20
-8.74181
 30
0.0
 10
3.1359
 20
-8.74181
 30
0.0
 10
2.9792
 20
-8.8985
 30
0.0
 10
2.9792
 20
-9.0918
 30
0.0
 10
2.9792
 20
-9.0918
 30
0.0
 10
2.97919
 20
-9.2851
 30
0.0
 10
3.13589
 20
-9.4418
 30
0.0
 10
3.32919
 20
-9.4418
 30
0.0
 10
3.32919
 20
-9.4418
 30
0.0
 10
3.52249
 20
-9.44181
 30
0.0
 10
3.67919
 20
-9.2851
 30
0.0
 10
3.67919
 20
-9.09181
 30
0.0
 10
3.67919
 20
-9.09181
 30
0.0
 10
3.6792
 20
-8.8985
 30
0.0
 10
3.5225
 20
-8.74181
 30
0.0
 10
3.3292
 20
-8.74181
 30
0.0
  0
SPLINE
  5
80
330
1F
100
AcDbEntity
  8
Laag 1
 62
   250
370
     9
100
AcDbSpline
210
0.0
220
0.0
230
1.0
 70
    27
 71
     3
 72
     8
 73
     4
 74
     0
 42
0.0000000001
 43
0.0000000001
 12
1.0
 22
0.0
 32
0.0
 13
1.0
 23
0.0
 33
0.0
 40
0.0
 40
0.0
 40
0.0
 40
0.0
 40
1.0
 40
1.0
 40
1.0
 40
1.0
 10
3.3292
 20
-8.74181
 30
0.0
 10
3.3292
 20
-8.74181
 30
0.0
 10
3.3292
 20
-8.74181
 30
0.0
 10
3.3292
 20
-8.74181
 30
0.0
  0
SPLINE
  5
81
330
1F
100
AcDbEntity
  8
Laag 1
 62
   250
370
     9
100
AcDbSpline
210
0.0
220
0.0
230
1.0
 70
    24
 71
     3
 72
     8
 73
     4
 74
     0
 42
0.0000000001
 43
0.0000000001
 12
1.0
 22
0.0
 32
0.0
 13
1.0
 23
0.0
 33
0.0
 40
0.0
 40
0.0
 40
0.0
 40
0.0
 40
1.0
 40
1.0
 40
1.0
 40
1.0
 10
2.9792
 20
-9.09181
 30
0.0
 10
2.9792
 20
-9.09181
 30
0.0
 10
2.9792
 20
-9.09182
 30
0.0
 10
2.9792
 20
-9.09182
 30
0.0
  0
SPLINE
  5
82
330
1F
100
AcDbEntity
  8
Laag 1
 62
   250
370
     9
100
AcDbSpline
210
0.0
220
0.0
230
1.0
 70
    27
 71
     3
 72
     8
 73
     4
 74
     0
 42
0.0000000001
 43
0.0000000001
 12
1.0
 22
0.0
 32
0.0
 13
1.0
 23
0.0
 33
0.0
 40
0.0
 40
0.0
 40
0.0
 40
0.0
 40
1.0
 40
1.0
 40
1.0
 40
1.0
 10
3.6792
 20
-9.09181
 30
0.0
 10
3.6792
 20
-9.09181
 30
0.0
 10
3.6792
 20
-9.09181
 30
0.0
 10
3.6792
 20
-9.09181
 30
0.0
  0
SPLINE
  5
83
330
1F
100
AcDbEntity
  8
Laag 1
 62
   250
370
     9
100
AcDbSpline
210
0.0
220
0.0
230
1.0
 70
    27
 71
     3
 72
     8
 73
     4
 74
     0
 42
0.0000000001
 43
0.0000000001
 12
1.0
 22
0.0
 32
0.0
 13
1.0
 23
0.0
 33
0.0
 40
0.0
 40
0.0
 40
0.0
 40
0.0
 40
1.0
 40
1.0
 40
1.0
 40
1.0
 10
3.3292
 20
-8.74181
 30
0.0
 10
3.3292
 20
-8.74181
 30
0.0
 10
3.3292
 20
-8.74181
 30
0.0
 10
3.3292
 20
-8.74181
 30
0.0
  0
SPLINE
  5
84
330
1F
100
AcDbEntity
  8
Laag 1
 62
   250
370
     9
100
AcDbSpline
210
0.0
220
0.0
230
1.0
 70
    11
 71
     3
 72
    20
 73
    16
 74
     0
 42
0.0000000001
 43
0.0000000001
 12
1.0
 22
0.0
 32
0.0
 13
1.0
 23
0.0
 33
0.0
 40
0.0
 40
0.0
 40
0.0
 40
0.0
 40
0.2
 40
0.2
 40
0.2
 40
0.2
 40
0.4
 40
0.4
 40
0.4
 40
0.4
 40
0.6
 40
0.6
 40
0.6
 40
0.6
 40
1.0
 40
1.0
 40
1.0
 40
1.0
 10
2.9073
 20
5.15835
 30
0.0
 10
2.21694
 20
5.15835
 30
0.0
 10
1.6573
 20
4.59871
 30
0.0
 10
1.6573
 20
3.90836
 30
0.0
 10
1.6573
 20
3.90836
 30
0.0
 10
1.65729
 20
3.218
 30
0.0
 10
2.21694
 20
2.65836
 30
0.0
 10
2.90729
 20
2.65836
 30
0.0
 10
2.90729
 20
2.65836
 30
0.0
 10
3.59765
 20
2.65835
 30
0.0
 10
4.15729
 20
3.21799
 30
0.0
 10
4.15729
 20
3.90835
 30
0.0
 10
4.15729
 20
3.90835
 30
0.0
 10
4.1573
 20
4.59871
 30
0.0
 10
3.59765
 20
5.15835
 30
0.0
 10
2.9073
 20
5.15835
 30
0.0
  0
SPLINE
  5
85
330
1F
100
AcDbEntity
  8
Laag 1
 62
   250
370
     9
100
AcDbSpline
210
0.0
220
0.0
230
1.0
 70
    27
 71
     3
 72
     8
 73
     4
 74
     0
 42
0.0000000001
 43
0.0000000001
 12
1.0
 22
0.0
 32
0.0
 13
1.0
 23
0.0
 33
0.0
 40
0.0
 40
0.0
 40
0.0
 40
0.0
 40
1.0
 40
1.0
 40
1.0
 40
1.0
 10
2.9073
 20
5.15835
 30
0.0
 10
2.9073
 20
5.15835
 30
0.0
 10
2.9073
 20
5.15835
 30
0.0
 10
2.9073
 20
5.15835
 30
0.0
  0
SPLINE
  5
86
330
1F
100
AcDbEntity
  8
Laag 1
 62
   250
370
     9
100
AcDbSpline
210
0.0
220
0.0
230
1.0
 70
    27
 71
     3
 72
     8
 73
     4
 74
     0
 42
0.0000000001
 43
0.0000000001
 12
1.0
 22
0.0
 32
0.0
 13
1.0
 23
0.0
 33
0.0
 40
0.0
 40
0.0
 40
0.0
 40
0.0
 40
1.0
 40
1.0
 40
1.0
 40
1.0
 10
1.6573
 20
3.90836
 30
0.0
 10
1.6573
 20
3.90836
 30
0.0
 10
1.6573
 20
3.90836
 30
0.0
 10
1.6573
 20
3.90836
 30
0.0
  0
SPLINE
  5
87
330
1F
100
AcDbEntity
  8
Laag 1
 62
   250
370
     9
100
AcDbSpline
210
0.0
220
0.0
230
1.0
 70
    27
 71
     3
 72
     8
 73
     4
 74
     0
 42
0.0000000001
 43
0.0000000001
 12
1.0
 22
0.0
 32
0.0
 13
1.0
 23
0.0
 33
0.0
 40
0.0
 40
0.0
 40
0.0
 40
0.0
 40
1.0
 40
1.0
 40
1.0
 40
1.0
 10
4.1573
 20
3.90835
 30
0.0
 10
4.1573
 20
3.90835
 30
0.0
 10
4.1573
 20
3.90835
 30
0.0
 10
4.1573
 20
3.90835
 30
0.0
  0
SPLINE
  5
88
330
1F
100
AcDbEntity
  8
Laag 1
 62
   250
370
     9
100
AcDbSpline
210
0.0
220
0.0
230
1.0
 70
    27
 71
     3
 72
     8
 73
     4
 74
     0
 42
0.0000000001
 43
0.0000000001
 12
1.0
 22
0.0
 32
0.0
 13
1.0
 23
0.0
 33
0.0
 40
0.0
 40
0.0
 40
0.0
 40
0.0
 40
1.0
 40
1.0
 40
1.0
 40
1.0
 10
2.9073
 20
5.15835
 30
0.0
 10
2.9073
 20
5.15835
 30
0.0
 10
2.9073
 20
5.15835
 30
0.0
 10
2.9073
 20
5.15835
 30
0.0
  0
SPLINE
  5
89
330
1F
100
AcDbEntity
  8
Laag 1
 62
   250
370
     9
100
AcDbSpline
210
0.0
220
0.0
230
1.0
 70
    11
 71
     3
 72
    20
 73
    16
 74
     0
 42
0.0000000001
 43
0.0000000001
 12
1.0
 22
0.0
 32
0.0
 13
1.0
 23
0.0
 33
0.0
 40
0.0
 40
0.0
 40
0.0
 40
0.0
 40
0.2
 40
0.2
 40
0.2
 40
0.2
 40
0.4
 40
0.4
 40
0.4
 40
0.4
 40
0.6
 40
0.6
 40
0.6
 40
0.6
 40
1.0
 40
1.0
 40
1.0
 40
1.0
 10
-3.09269
 20
9.40835
 30
0.0
 10
-4.19726
 20
9.40835
 30
0.0
 10
-5.09269
 20
8.51293
 30
0.0
 10
-5.09269
 20
7.40836
 30
0.0
 10
-5.09269
 20
7.40836
 30
0.0
 10
-5.0927
 20
6.30379
 30
0.0
 10
-4.19727
 20
5.40836
 30
0.0
 10
-3.0927
 20
5.40836
 30
0.0
 10
-3.0927
 20
5.40836
 30
0.0
 10
-1.98813
 20
5.40835
 30
0.0
 10
-1.0927
 20
6.30378
 30
0.0
 10
-1.0927
 20
7.40835
 30
0.0
 10
-1.0927
 20
7.40835
 30
0.0
 10
-1.09269
 20
8.51292
 30
0.0
 10
-1.98812
 20
9.40835
 30
0.0
 10
-3.09269
 20
9.40835
 30
0.0
  0
SPLINE
  5
8A
330
1F
100
AcDbEntity
  8
Laag 1
 62
   250
370
     9
100
AcDbSpline
210
0.0
220
0.0
230
1.0
 70
    27
 71
     3
 72
     8
 73
     4
 74
     0
 42
0.0000000001
 43
0.0000000001
 12
1.0
 22
0.0
 32
0.0
 13
1.0
 23
0.0
 33
0.0
 40
0.0
 40
0.0
 40
0.0
 40
0.0
 40
1.0
 40
1.0
 40
1.0
 40
1.0
 10
-3.09269
 20
9.50835
 30
0.0
 10
-3.09269
 20
9.50835
 30
0.0
 10
-3.09269
 20
9.50835
 30
0.0
 10
-3.09269
 20
9.50835
 30
0.0
  0
SPLINE
  5
8B
330
1F
100
AcDbEntity
  8
Laag 1
 62
   250
370
     9
100
AcDbSpline
210
0.0
220
0.0
230
1.0
 70
    27
 71
     3
 72
     8
 73
     4
 74
     0
 42
0.0000000001
 43
0.0000000001
 12
1.0
 22
0.0
 32
0.0
 13
1.0
 23
0.0
 33
0.0
 40
0.0
 40
0.0
 40
0.0
 40
0.0
 40
1.0
 40
1.0
 40
1.0
 40
1.0
 10
-5.09269
 20
7.40836
 30
0.0
 10
-5.09269
 20
7.40836
 30
0.0
 10
-5.09269
 20
7.40836
 30
0.0
 10
-5.09269
 20
7.40836
 30
0.0
  0
SPLINE
  5
8C
330
1F
100
AcDbEntity
  8
Laag 1
 62
   250
370
     9
100
AcDbSpline
210
0.0
220
0.0
230
1.0
 70
    24
 71
     3
 72
     8
 73
     4
 74
     0
 42
0.0000000001
 43
0.0000000001
 12
1.0
 22
0.0
 32
0.0
 13
1.0
 23
0.0
 33
0.0
 40
0.0
 40
0.0
 40
0.0
 40
0.0
 40
1.0
 40
1.0
 40
1.0
 40
1.0
 10
-3.0927
 20
5.40836
 30
0.0
 10
-3.0927
 20
5.40836
 30
0.0
 10
-3.0927
 20
5.40835
 30
0.0
 10
-3.0927
 20
5.40835
 30
0.0
  0
SPLINE
  5
8D
330
1F
100
AcDbEntity
  8
Laag 1
 62
   250
370
     9
100
AcDbSpline
210
0.0
220
0.0
230
1.0
 70
    27
 71
     3
 72
     8
 73
     4
 74
     0
 42
0.0000000001
 43
0.0000000001
 12
1.0
 22
0.0
 32
0.0
 13
1.0
 23
0.0
 33
0.0
 40
0.0
 40
0.0
 40
0.0
 40
0.0
 40
1.0
 40
1.0
 40
1.0
 40
1.0
 10
-1.0927
 20
7.40835
 30
0.0
 10
-1.0927
 20
7.40835
 30
0.0
 10
-1.0927
 20
7.40835
 30
0.0
 10
-1.0927
 20
7.40835
 30
0.0
  0
SPLINE
  5
8E
330
1F
100
AcDbEntity
  8
Laag 1
 62
   250
370
     9
100
AcDbSpline
210
0.0
220
0.0
230
1.0
 70
    27
 71
     3
 72
     8
 73
     4
 74
     0
 42
0.0000000001
 43
0.0000000001
 12
1.0
 22
0.0
 32
0.0
 13
1.0
 23
0.0
 33
0.0
 40
0.0
 40
0.0
 40
0.0
 40
0.0
 40
1.0
 40
1.0
 40
1.0
 40
1.0
 10
-3.09269
 20
9.50835
 30
0.0
 10
-3.09269
 20
9.50835
 30
0.0
 10
-3.09269
 20
9.50835
 30
0.0
 10
-3.09269
 20
9.50835
 30
0.0
  0
SPLINE
  5
8F
330
1F
100
AcDbEntity
  8
Laag 1
370
     9
100
AcDbSpline
210
0.0
220
0.0
230
1.0
 70
    11
 71
     3
 72
    24
 73
    20
 74
     0
 42
0.0000000001
 43
0.0000000001
 12
1.0
 22
0.0
 32
0.0
 13
1.0
 23
0.0
 33
0.0
 40
0.0
 40
0.0
 40
0.0
 40
0.0
 40
0.1666666666666667
 40
0.1666666666666667
 40
0.1666666666666667
 40
0.1666666666666667
 40
0.3333333333333333
 40
0.3333333333333333
 40
0.3333333333333333
 40
0.3333333333333333
 40
0.5
 40
0.5
 40
0.5
 40
0.5
 40
0.6666666666666666
 40
0.6666666666666666
 40
0.6666666666666666
 40
0.6666666666666666
 40
1.0
 40
1.0
 40
1.0
 40
1.0
 10
-7.8757
 20
-10.04271
 30
0.0
 10
-7.8757
 20
-10.04271
 30
0.0
 10
6.763
 20
-10.04271
 30
0.0
 10
6.763
 20
-10.04271
 30
0.0
 10
6.763
 20
-10.04271
 30
0.0
 10
6.763
 20
-10.04271
 30
0.0
 10
6.763
 20
12.19689
 30
0.0
 10
6.763
 20
12.19689
 30
0.0
 10
6.763
 20
12.19689
 30
0.0
 10
6.763
 20
12.19689
 30
0.0
 10
-7.8757
 20
12.19689
 30
0.0
 10
-7.8757
 20
12.19689
 30
0.0
 10
-7.8757
 20
12.19689
 30
0.0
 10
-7.8757
 20
12.19689
 30
0.0
 10
-7.8757
 20
-10.04271
 30
0.0
 10
-7.8757
 20
-10.04271
 30
0.0
 10
-7.8757
 20
-10.04271
 30
0.0
 10
-7.8757
 20
-10.04271
 30
0.0
 10
-7.8757
 20
-10.04271
 30
0.0
 10
-7.8757
 20
-10.04271
 30
0.0
  0
SPLINE
  5
90
330
1F
100
AcDbEntity
  8
Laag 1
 62
   250
370
     9
100
AcDbSpline
210
0.0
220
0.0
230
1.0
 70
    11
 71
     3
 72
    20
 73
    16
 74
     0
 42
0.0000000001
 43
0.0000000001
 12
1.0
 22
0.0
 32
0.0
 13
1.0
 23
0.0
 33
0.0
 40
0.0
 40
0.0
 40
0.0
 40
0.0
 40
0.2
 40
0.2
 40
0.2
 40
0.2
 40
0.4
 40
0.4
 40
0.4
 40
0.4
 40
0.6
 40
0.6
 40
0.6
 40
0.6
 40
1.0
 40
1.0
 40
1.0
 40
1.0
 10
-5.93936
 20
-0.63761
 30
0.0
 10
-5.99458
 20
-0.63761
 30
0.0
 10
-6.03935
 20
-0.68238
 30
0.0
 10
-6.03935
 20
-0.7376
 30
0.0
 10
-6.03935
 20
-0.7376
 30
0.0
 10
-6.03936
 20
-0.79283
 30
0.0
 10
-5.99458
 20
-0.8376
 30
0.0
 10
-5.93936
 20
-0.8376
 30
0.0
 10
-5.93936
 20
-0.8376
 30
0.0
 10
-5.88413
 20
-0.83761
 30
0.0
 10
-5.83936
 20
-0.79283
 30
0.0
 10
-5.83936
 20
-0.73761
 30
0.0
 10
-5.83936
 20
-0.73761
 30
0.0
 10
-5.83935
 20
-0.68238
 30
0.0
 10
-5.88413
 20
-0.63761
 30
0.0
 10
-5.93936
 20
-0.63761
 30
0.0
  0
SPLINE
  5
91
330
1F
100
AcDbEntity
  8
Laag 1
 62
   250
370
     9
100
AcDbSpline
210
0.0
220
0.0
230
1.0
 70
    27
 71
     3
 72
     8
 73
     4
 74
     0
 42
0.0000000001
 43
0.0000000001
 12
1.0
 22
0.0
 32
0.0
 13
1.0
 23
0.0
 33
0.0
 40
0.0
 40
0.0
 40
0.0
 40
0.0
 40
1.0
 40
1.0
 40
1.0
 40
1.0
 10
-5.93936
 20
-0.63761
 30
0.0
 10
-5.93936
 20
-0.63761
 30
0.0
 10
-5.93936
 20
-0.63761
 30
0.0
 10
-5.93936
 20
-0.63761
 30
0.0
  0
SPLINE
  5
92
330
1F
100
AcDbEntity
  8
Laag 1
 62
   250
370
     9
100
AcDbSpline
210
0.0
220
0.0
230
1.0
 70
    24
 71
     3
 72
     8
 73
     4
 74
     0
 42
0.0000000001
 43
0.0000000001
 12
1.0
 22
0.0
 32
0.0
 13
1.0
 23
0.0
 33
0.0
 40
0.0
 40
0.0
 40
0.0
 40
0.0
 40
1.0
 40
1.0
 40
1.0
 40
1.0
 10
-6.03935
 20
-0.73761
 30
0.0
 10
-6.03935
 20
-0.73761
 30
0.0
 10
-6.03935
 20
-0.73762
 30
0.0
 10
-6.03935
 20
-0.73762
 30
0.0
  0
SPLINE
  5
93
330
1F
100
AcDbEntity
  8
Laag 1
 62
   250
370
     9
100
AcDbSpline
210
0.0
220
0.0
230
1.0
 70
    27
 71
     3
 72
     8
 73
     4
 74
     0
 42
0.0000000001
 43
0.0000000001
 12
1.0
 22
0.0
 32
0.0
 13
1.0
 23
0.0
 33
0.0
 40
0.0
 40
0.0
 40
0.0
 40
0.0
 40
1.0
 40
1.0
 40
1.0
 40
1.0
 10
-5.83936
 20
-0.73761
 30
0.0
 10
-5.83936
 20
-0.73761
 30
0.0
 10
-5.83936
 20
-0.73761
 30
0.0
 10
-5.83936
 20
-0.73761
 30
0.0
  0
SPLINE
  5
94
330
1F
100
AcDbEntity
  8
Laag 1
 62
   250
370
     9
100
AcDbSpline
210
0.0
220
0.0
230
1.0
 70
    27
 71
     3
 72
     8
 73
     4
 74
     0
 42
0.0000000001
 43
0.0000000001
 12
1.0
 22
0.0
 32
0.0
 13
1.0
 23
0.0
 33
0.0
 40
0.0
 40
0.0
 40
0.0
 40
0.0
 40
1.0
 40
1.0
 40
1.0
 40
1.0
 10
-5.93936
 20
-0.63761
 30
0.0
 10
-5.93936
 20
-0.63761
 30
0.0
 10
-5.93936
 20
-0.63761
 30
0.0
 10
-5.93936
 20
-0.63761
 30
0.0
  0
SPLINE
  5
95
330
1F
100
AcDbEntity
  8
Laag 1
 62
   250
370
     9
100
AcDbSpline
210
0.0
220
0.0
230
1.0
 70
    11
 71
     3
 72
    20
 73
    16
 74
     0
 42
0.0000000001
 43
0.0000000001
 12
1.0
 22
0.0
 32
0.0
 13
1.0
 23
0.0
 33
0.0
 40
0.0
 40
0.0
 40
0.0
 40
0.0
 40
0.2
 40
0.2
 40
0.2
 40
0.2
 40
0.4
 40
0.4
 40
0.4
 40
0.4
 40
0.6
 40
0.6
 40
0.6
 40
0.6
 40
1.0
 40
1.0
 40
1.0
 40
1.0
 10
-5.93939
 20
-7.12521
 30
0.0
 10
-5.99461
 20
-7.12521
 30
0.0
 10
-6.03938
 20
-7.16997
 30
0.0
 10
-6.03938
 20
-7.22519
 30
0.0
 10
-6.03938
 20
-7.22519
 30
0.0
 10
-6.03939
 20
-7.28043
 30
0.0
 10
-5.99461
 20
-7.32519
 30
0.0
 10
-5.93939
 20
-7.32519
 30
0.0
 10
-5.93939
 20
-7.32519
 30
0.0
 10
-5.88416
 20
-7.32521
 30
0.0
 10
-5.83939
 20
-7.28043
 30
0.0
 10
-5.83939
 20
-7.22521
 30
0.0
 10
-5.83939
 20
-7.22521
 30
0.0
 10
-5.83938
 20
-7.16997
 30
0.0
 10
-5.88416
 20
-7.12521
 30
0.0
 10
-5.93939
 20
-7.12521
 30
0.0
  0
SPLINE
  5
96
330
1F
100
AcDbEntity
  8
Laag 1
 62
   250
370
     9
100
AcDbSpline
210
0.0
220
0.0
230
1.0
 70
    27
 71
     3
 72
     8
 73
     4
 74
     0
 42
0.0000000001
 43
0.0000000001
 12
1.0
 22
0.0
 32
0.0
 13
1.0
 23
0.0
 33
0.0
 40
0.0
 40
0.0
 40
0.0
 40
0.0
 40
1.0
 40
1.0
 40
1.0
 40
1.0
 10
-5.93939
 20
-7.12521
 30
0.0
 10
-5.93939
 20
-7.12521
 30
0.0
 10
-5.93939
 20
-7.12521
 30
0.0
 10
-5.93939
 20
-7.12521
 30
0.0
  0
SPLINE
  5
97
330
1F
100
AcDbEntity
  8
Laag 1
 62
   250
370
     9
100
AcDbSpline
210
0.0
220
0.0
230
1.0
 70
    24
 71
     3
 72
     8
 73
     4
 74
     0
 42
0.0000000001
 43
0.0000000001
 12
1.0
 22
0.0
 32
0.0
 13
1.0
 23
0.0
 33
0.0
 40
0.0
 40
0.0
 40
0.0
 40
0.0
 40
1.0
 40
1.0
 40
1.0
 40
1.0
 10
-6.03938
 20
-7.22521
 30
0.0
 10
-6.03938
 20
-7.22521
 30
0.0
 10
-6.03938
 20
-7.22523
 30
0.0
 10
-6.03938
 20
-7.22523
 30
0.0
  0
SPLINE
  5
98
330
1F
100
AcDbEntity
  8
Laag 1
 62
   250
370
     9
100
AcDbSpline
210
0.0
220
0.0
230
1.0
 70
    24
 71
     3
 72
     8
 73
     4
 74
     0
 42
0.0000000001
 43
0.0000000001
 12
1.0
 22
0.0
 32
0.0
 13
1.0
 23
0.0
 33
0.0
 40
0.0
 40
0.0
 40
0.0
 40
0.0
 40
1.0
 40
1.0
 40
1.0
 40
1.0
 10
-5.93939
 20
-7.32521
 30
0.0
 10
-5.93939
 20
-7.32521
 30
0.0
 10
-5.93939
 20
-7.32523
 30
0.0
 10
-5.93939
 20
-7.32523
 30
0.0
  0
SPLINE
  5
99
330
1F
100
AcDbEntity
  8
Laag 1
 62
   250
370
     9
100
AcDbSpline
210
0.0
220
0.0
230
1.0
 70
    27
 71
     3
 72
     8
 73
     4
 74
     0
 42
0.0000000001
 43
0.0000000001
 12
1.0
 22
0.0
 32
0.0
 13
1.0
 23
0.0
 33
0.0
 40
0.0
 40
0.0
 40
0.0
 40
0.0
 40
1.0
 40
1.0
 40
1.0
 40
1.0
 10
-5.93939
 20
-7.12521
 30
0.0
 10
-5.93939
 20
-7.12521
 30
0.0
 10
-5.93939
 20
-7.12521
 30
0.0
 10
-5.93939
 20
-7.12521
 30
0.0
  0
SPLINE
  5
9A
330
1F
100
AcDbEntity
  8
Laag 1
 62
   250
370
     9
100
AcDbSpline
210
0.0
220
0.0
230
1.0
 70
    11
 71
     3
 72
    20
 73
    16
 74
     0
 42
0.0000000001
 43
0.0000000001
 12
1.0
 22
0.0
 32
0.0
 13
1.0
 23
0.0
 33
0.0
 40
0.0
 40
0.0
 40
0.0
 40
0.0
 40
0.2
 40
0.2
 40
0.2
 40
0.2
 40
0.4
 40
0.4
 40
0.4
 40
0.4
 40
0.6
 40
0.6
 40
0.6
 40
0.6
 40
1.0
 40
1.0
 40
1.0
 40
1.0
 10
1.58269
 20
-0.64561
 30
0.0
 10
1.52746
 20
-0.64561
 30
0.0
 10
1.48269
 20
-0.69038
 30
0.0
 10
1.48269
 20
-0.7456
 30
0.0
 10
1.48269
 20
-0.7456
 30
0.0
 10
1.48268
 20
-0.80083
 30
0.0
 10
1.52746
 20
-0.8456
 30
0.0
 10
1.58268
 20
-0.8456
 30
0.0
 10
1.58268
 20
-0.8456
 30
0.0
 10
1.63791
 20
-0.84561
 30
0.0
 10
1.68268
 20
-0.80083
 30
0.0
 10
1.68268
 20
-0.74561
 30
0.0
 10
1.68268
 20
-0.74561
 30
0.0
 10
1.68269
 20
-0.69038
 30
0.0
 10
1.63791
 20
-0.64561
 30
0.0
 10
1.58269
 20
-0.64561
 30
0.0
  0
SPLINE
  5
9B
330
1F
100
AcDbEntity
  8
Laag 1
 62
   250
370
     9
100
AcDbSpline
210
0.0
220
0.0
230
1.0
 70
    27
 71
     3
 72
     8
 73
     4
 74
     0
 42
0.0000000001
 43
0.0000000001
 12
1.0
 22
0.0
 32
0.0
 13
1.0
 23
0.0
 33
0.0
 40
0.0
 40
0.0
 40
0.0
 40
0.0
 40
1.0
 40
1.0
 40
1.0
 40
1.0
 10
1.58269
 20
-0.64561
 30
0.0
 10
1.58269
 20
-0.64561
 30
0.0
 10
1.58269
 20
-0.64561
 30
0.0
 10
1.58269
 20
-0.64561
 30
0.0
  0
SPLINE
  5
9C
330
1F
100
AcDbEntity
  8
Laag 1
 62
   250
370
     9
100
AcDbSpline
210
0.0
220
0.0
230
1.0
 70
    24
 71
     3
 72
     8
 73
     4
 74
     0
 42
0.0000000001
 43
0.0000000001
 12
1.0
 22
0.0
 32
0.0
 13
1.0
 23
0.0
 33
0.0
 40
0.0
 40
0.0
 40
0.0
 40
0.0
 40
1.0
 40
1.0
 40
1.0
 40
1.0
 10
1.48269
 20
-0.74561
 30
0.0
 10
1.48269
 20
-0.74561
 30
0.0
 10
1.48269
 20
-0.74562
 30
0.0
 10
1.48269
 20
-0.74562
 30
0.0
  0
SPLINE
  5
9D
330
1F
100
AcDbEntity
  8
Laag 1
 62
   250
370
     9
100
AcDbSpline
210
0.0
220
0.0
230
1.0
 70
    27
 71
     3
 72
     8
 73
     4
 74
     0
 42
0.0000000001
 43
0.0000000001
 12
1.0
 22
0.0
 32
0.0
 13
1.0
 23
0.0
 33
0.0
 40
0.0
 40
0.0
 40
0.0
 40
0.0
 40
1.0
 40
1.0
 40
1.0
 40
1.0
 10
1.6827
 20
-0.74561
 30
0.0
 10
1.6827
 20
-0.74561
 30
0.0
 10
1.6827
 20
-0.74561
 30
0.0
 10
1.6827
 20
-0.74561
 30
0.0
  0
SPLINE
  5
9E
330
1F
100
AcDbEntity
  8
Laag 1
 62
   250
370
     9
100
AcDbSpline
210
0.0
220
0.0
230
1.0
 70
    27
 71
     3
 72
     8
 73
     4
 74
     0
 42
0.0000000001
 43
0.0000000001
 12
1.0
 22
0.0
 32
0.0
 13
1.0
 23
0.0
 33
0.0
 40
0.0
 40
0.0
 40
0.0
 40
0.0
 40
1.0
 40
1.0
 40
1.0
 40
1.0
 10
1.58269
 20
-0.64561
 30
0.0
 10
1.58269
 20
-0.64561
 30
0.0
 10
1.58269
 20
-0.64561
 30
0.0
 10
1.58269
 20
-0.64561
 30
0.0
  0
SPLINE
  5
9F
330
1F
100
AcDbEntity
  8
Laag 1
 62
   250
370
     9
100
AcDbSpline
210
0.0
220
0.0
230
1.0
 70
    11
 71
     3
 72
    20
 73
    16
 74
     0
 42
0.0000000001
 43
0.0000000001
 12
1.0
 22
0.0
 32
0.0
 13
1.0
 23
0.0
 33
0.0
 40
0.0
 40
0.0
 40
0.0
 40
0.0
 40
0.2
 40
0.2
 40
0.2
 40
0.2
 40
0.4
 40
0.4
 40
0.4
 40
0.4
 40
0.6
 40
0.6
 40
0.6
 40
0.6
 40
1.0
 40
1.0
 40
1.0
 40
1.0
 10
1.57478
 20
-7.12521
 30
0.0
 10
1.51955
 20
-7.12521
 30
0.0
 10
1.47478
 20
-7.16997
 30
0.0
 10
1.47478
 20
-7.22519
 30
0.0
 10
1.47478
 20
-7.22519
 30
0.0
 10
1.47477
 20
-7.28043
 30
0.0
 10
1.51955
 20
-7.32519
 30
0.0
 10
1.57477
 20
-7.32519
 30
0.0
 10
1.57477
 20
-7.32519
 30
0.0
 10
1.63
 20
-7.32521
 30
0.0
 10
1.67477
 20
-7.28043
 30
0.0
 10
1.67477
 20
-7.22521
 30
0.0
 10
1.67477
 20
-7.22521
 30
0.0
 10
1.67478
 20
-7.16997
 30
0.0
 10
1.63
 20
-7.12521
 30
0.0
 10
1.57478
 20
-7.12521
 30
0.0
  0
SPLINE
  5
A0
330
1F
100
AcDbEntity
  8
Laag 1
 62
   250
370
     9
100
AcDbSpline
210
0.0
220
0.0
230
1.0
 70
    27
 71
     3
 72
     8
 73
     4
 74
     0
 42
0.0000000001
 43
0.0000000001
 12
1.0
 22
0.0
 32
0.0
 13
1.0
 23
0.0
 33
0.0
 40
0.0
 40
0.0
 40
0.0
 40
0.0
 40
1.0
 40
1.0
 40
1.0
 40
1.0
 10
1.57478
 20
-7.12521
 30
0.0
 10
1.57478
 20
-7.12521
 30
0.0
 10
1.57478
 20
-7.12521
 30
0.0
 10
1.57478
 20
-7.12521
 30
0.0
  0
SPLINE
  5
A1
330
1F
100
AcDbEntity
  8
Laag 1
 62
   250
370
     9
100
AcDbSpline
210
0.0
220
0.0
230
1.0
 70
    24
 71
     3
 72
     8
 73
     4
 74
     0
 42
0.0000000001
 43
0.0000000001
 12
1.0
 22
0.0
 32
0.0
 13
1.0
 23
0.0
 33
0.0
 40
0.0
 40
0.0
 40
0.0
 40
0.0
 40
1.0
 40
1.0
 40
1.0
 40
1.0
 10
1.47478
 20
-7.22521
 30
0.0
 10
1.47478
 20
-7.22521
 30
0.0
 10
1.47478
 20
-7.22523
 30
0.0
 10
1.47478
 20
-7.22523
 30
0.0
  0
SPLINE
  5
A2
330
1F
100
AcDbEntity
  8
Laag 1
 62
   250
370
     9
100
AcDbSpline
210
0.0
220
0.0
230
1.0
 70
    24
 71
     3
 72
     8
 73
     4
 74
     0
 42
0.0000000001
 43
0.0000000001
 12
1.0
 22
0.0
 32
0.0
 13
1.0
 23
0.0
 33
0.0
 40
0.0
 40
0.0
 40
0.0
 40
0.0
 40
1.0
 40
1.0
 40
1.0
 40
1.0
 10
1.57477
 20
-7.32521
 30
0.0
 10
1.57477
 20
-7.32521
 30
0.0
 10
1.57477
 20
-7.32523
 30
0.0
 10
1.57477
 20
-7.32523
 30
0.0
  0
SPLINE
  5
A3
330
1F
100
AcDbEntity
  8
Laag 1
 62
   250
370
     9
100
AcDbSpline
210
0.0
220
0.0
230
1.0
 70
    27
 71
     3
 72
     8
 73
     4
 74
     0
 42
0.0000000001
 43
0.0000000001
 12
1.0
 22
0.0
 32
0.0
 13
1.0
 23
0.0
 33
0.0
 40
0.0
 40
0.0
 40
0.0
 40
0.0
 40
1.0
 40
1.0
 40
1.0
 40
1.0
 10
1.6748
 20
-7.22521
 30
0.0
 10
1.6748
 20
-7.22521
 30
0.0
 10
1.6748
 20
-7.22521
 30
0.0
 10
1.6748
 20
-7.22521
 30
0.0
  0
SPLINE
  5
A4
330
1F
100
AcDbEntity
  8
Laag 1
 62
   250
370
     9
100
AcDbSpline
210
0.0
220
0.0
230
1.0
 70
    27
 71
     3
 72
     8
 73
     4
 74
     0
 42
0.0000000001
 43
0.0000000001
 12
1.0
 22
0.0
 32
0.0
 13
1.0
 23
0.0
 33
0.0
 40
0.0
 40
0.0
 40
0.0
 40
0.0
 40
1.0
 40
1.0
 40
1.0
 40
1.0
 10
1.57478
 20
-7.12521
 30
0.0
 10
1.57478
 20
-7.12521
 30
0.0
 10
1.57478
 20
-7.12521
 30
0.0
 10
1.57478
 20
-7.12521
 30
0.0
  0
SPLINE
  5
A5
330
1F
100
AcDbEntity
  8
Laag 1
370
    50
100
AcDbSpline
210
0.0
220
0.0
230
1.0
 70
    11
 71
     3
 72
    20
 73
    16
 74
     0
 42
0.0000000001
 43
0.0000000001
 12
1.0
 22
0.0
 32
0.0
 13
1.0
 23
0.0
 33
0.0
 40
0.0
 40
0.0
 40
0.0
 40
0.0
 40
0.2
 40
0.2
 40
0.2
 40
0.2
 40
0.4
 40
0.4
 40
0.4
 40
0.4
 40
0.6
 40
0.6
 40
0.6
 40
0.6
 40
1.0
 40
1.0
 40
1.0
 40
1.0
 10
1.50563
 20
8.75997
 30
0.0
 10
1.85039
 20
9.18713
 30
0.0
 10
2.23984
 20
9.30271
 30
0.0
 10
2.76732
 20
9.22574
 30
0.0
 10
2.76732
 20
9.22574
 30
0.0
 10
2.93544
 20
9.20116
 30
0.0
 10
3.3105
 20
9.06085
 30
0.0
 10
3.17075
 20
9.02646
 30
0.0
 10
3.17075
 20
9.02646
 30
0.0
 10
3.17075
 20
9.02646
 30
0.0
 10
2.63159
 20
8.89382
 30
0.0
 10
2.63159
 20
8.89382
 30
0.0
 10
2.63159
 20
8.89382
 30
0.0
 10
2.63159
 20
8.89382
 30
0.0
 10
1.79667
 20
9.04088
 30
0.0
 10
1.50563
 20
8.75997
 30
0.0
  0
SPLINE
  5
A6
330
1F
100
AcDbEntity
  8
Laag 1
 62
   250
370
     9
100
AcDbSpline
210
0.0
220
0.0
230
1.0
 70
    11
 71
     3
 72
    20
 73
    16
 74
     0
 42
0.0000000001
 43
0.0000000001
 12
1.0
 22
0.0
 32
0.0
 13
1.0
 23
0.0
 33
0.0
 40
0.0
 40
0.0
 40
0.0
 40
0.0
 40
0.2
 40
0.2
 40
0.2
 40
0.2
 40
0.4
 40
0.4
 40
0.4
 40
0.4
 40
0.6
 40
0.6
 40
0.6
 40
0.6
 40
1.0
 40
1.0
 40
1.0
 40
1.0
 10
-4.83272
 20
5.98234
 30
0.0
 10
-4.94317
 20
5.98234
 30
0.0
 10
-5.03271
 20
5.8928
 30
0.0
 10
-5.03271
 20
5.78235
 30
0.0
 10
-5.03271
 20
5.78235
 30
0.0
 10
-5.03272
 20
5.67189
 30
0.0
 10
-4.94317
 20
5.58235
 30
0.0
 10
-4.83272
 20
5.58235
 30
0.0
 10
-4.83272
 20
5.58235
 30
0.0
 10
-4.72226
 20
5.58234
 30
0.0
 10
-4.63272
 20
5.67189
 30
0.0
 10
-4.63272
 20
5.78234
 30
0.0
 10
-4.63272
 20
5.78234
 30
0.0
 10
-4.63271
 20
5.8928
 30
0.0
 10
-4.72226
 20
5.98234
 30
0.0
 10
-4.83272
 20
5.98234
 30
0.0
  0
SPLINE
  5
A7
330
1F
100
AcDbEntity
  8
Laag 1
 62
   250
370
     9
100
AcDbSpline
210
0.0
220
0.0
230
1.0
 70
    27
 71
     3
 72
     8
 73
     4
 74
     0
 42
0.0000000001
 43
0.0000000001
 12
1.0
 22
0.0
 32
0.0
 13
1.0
 23
0.0
 33
0.0
 40
0.0
 40
0.0
 40
0.0
 40
0.0
 40
1.0
 40
1.0
 40
1.0
 40
1.0
 10
-4.83272
 20
5.98234
 30
0.0
 10
-4.83272
 20
5.98234
 30
0.0
 10
-4.83272
 20
5.98234
 30
0.0
 10
-4.83272
 20
5.98234
 30
0.0
  0
SPLINE
  5
A8
330
1F
100
AcDbEntity
  8
Laag 1
 62
   250
370
     9
100
AcDbSpline
210
0.0
220
0.0
230
1.0
 70
    24
 71
     3
 72
     8
 73
     4
 74
     0
 42
0.0000000001
 43
0.0000000001
 12
1.0
 22
0.0
 32
0.0
 13
1.0
 23
0.0
 33
0.0
 40
0.0
 40
0.0
 40
0.0
 40
0.0
 40
1.0
 40
1.0
 40
1.0
 40
1.0
 10
-5.03271
 20
5.78235
 30
0.0
 10
-5.03271
 20
5.78235
 30
0.0
 10
-5.03271
 20
5.78234
 30
0.0
 10
-5.03271
 20
5.78234
 30
0.0
  0
SPLINE
  5
A9
330
1F
100
AcDbEntity
  8
Laag 1
 62
   250
370
     9
100
AcDbSpline
210
0.0
220
0.0
230
1.0
 70
    24
 71
     3
 72
     8
 73
     4
 74
     0
 42
0.0000000001
 43
0.0000000001
 12
1.0
 22
0.0
 32
0.0
 13
1.0
 23
0.0
 33
0.0
 40
0.0
 40
0.0
 40
0.0
 40
0.0
 40
1.0
 40
1.0
 40
1.0
 40
1.0
 10
-4.83272
 20
5.58235
 30
0.0
 10
-4.83272
 20
5.58235
 30
0.0
 10
-4.83272
 20
5.58234
 30
0.0
 10
-4.83272
 20
5.58234
 30
0.0
  0
SPLINE
  5
AA
330
1F
100
AcDbEntity
  8
Laag 1
 62
   250
370
     9
100
AcDbSpline
210
0.0
220
0.0
230
1.0
 70
    27
 71
     3
 72
     8
 73
     4
 74
     0
 42
0.0000000001
 43
0.0000000001
 12
1.0
 22
0.0
 32
0.0
 13
1.0
 23
0.0
 33
0.0
 40
0.0
 40
0.0
 40
0.0
 40
0.0
 40
1.0
 40
1.0
 40
1.0
 40
1.0
 10
-4.63272
 20
5.78234
 30
0.0
 10
-4.63272
 20
5.78234
 30
0.0
 10
-4.63272
 20
5.78234
 30
0.0
 10
-4.63272
 20
5.78234
 30
0.0
  0
SPLINE
  5
AB
330
1F
100
AcDbEntity
  8
Laag 1
 62
   250
370
     9
100
AcDbSpline
210
0.0
220
0.0
230
1.0
 70
    27
 71
     3
 72
     8
 73
     4
 74
     0
 42
0.0000000001
 43
0.0000000001
 12
1.0
 22
0.0
 32
0.0
 13
1.0
 23
0.0
 33
0.0
 40
0.0
 40
0.0
 40
0.0
 40
0.0
 40
1.0
 40
1.0
 40
1.0
 40
1.0
 10
-4.83272
 20
5.98234
 30
0.0
 10
-4.83272
 20
5.98234
 30
0.0
 10
-4.83272
 20
5.98234
 30
0.0
 10
-4.83272
 20
5.98234
 30
0.0
  0
SPLINE
  5
AC
330
1F
100
AcDbEntity
  8
Laag 1
 62
   250
370
     9
100
AcDbSpline
210
0.0
220
0.0
230
1.0
 70
    11
 71
     3
 72
    20
 73
    16
 74
     0
 42
0.0000000001
 43
0.0000000001
 12
1.0
 22
0.0
 32
0.0
 13
1.0
 23
0.0
 33
0.0
 40
0.0
 40
0.0
 40
0.0
 40
0.0
 40
0.2
 40
0.2
 40
0.2
 40
0.2
 40
0.4
 40
0.4
 40
0.4
 40
0.4
 40
0.6
 40
0.6
 40
0.6
 40
0.6
 40
1.0
 40
1.0
 40
1.0
 40
1.0
 10
-1.41428
 20
5.98234
 30
0.0
 10
-1.52474
 20
5.98234
 30
0.0
 10
-1.61428
 20
5.8928
 30
0.0
 10
-1.61428
 20
5.78235
 30
0.0
 10
-1.61428
 20
5.78235
 30
0.0
 10
-1.61429
 20
5.67189
 30
0.0
 10
-1.52474
 20
5.58235
 30
0.0
 10
-1.41429
 20
5.58235
 30
0.0
 10
-1.41429
 20
5.58235
 30
0.0
 10
-1.30383
 20
5.58234
 30
0.0
 10
-1.21429
 20
5.67189
 30
0.0
 10
-1.21429
 20
5.78234
 30
0.0
 10
-1.21429
 20
5.78234
 30
0.0
 10
-1.21428
 20
5.8928
 30
0.0
 10
-1.30383
 20
5.98234
 30
0.0
 10
-1.41428
 20
5.98234
 30
0.0
  0
SPLINE
  5
AD
330
1F
100
AcDbEntity
  8
Laag 1
 62
   250
370
     9
100
AcDbSpline
210
0.0
220
0.0
230
1.0
 70
    27
 71
     3
 72
     8
 73
     4
 74
     0
 42
0.0000000001
 43
0.0000000001
 12
1.0
 22
0.0
 32
0.0
 13
1.0
 23
0.0
 33
0.0
 40
0.0
 40
0.0
 40
0.0
 40
0.0
 40
1.0
 40
1.0
 40
1.0
 40
1.0
 10
-1.41428
 20
5.98234
 30
0.0
 10
-1.41428
 20
5.98234
 30
0.0
 10
-1.41428
 20
5.98234
 30
0.0
 10
-1.41428
 20
5.98234
 30
0.0
  0
SPLINE
  5
AE
330
1F
100
AcDbEntity
  8
Laag 1
 62
   250
370
     9
100
AcDbSpline
210
0.0
220
0.0
230
1.0
 70
    24
 71
     3
 72
     8
 73
     4
 74
     0
 42
0.0000000001
 43
0.0000000001
 12
1.0
 22
0.0
 32
0.0
 13
1.0
 23
0.0
 33
0.0
 40
0.0
 40
0.0
 40
0.0
 40
0.0
 40
1.0
 40
1.0
 40
1.0
 40
1.0
 10
-1.61428
 20
5.78235
 30
0.0
 10
-1.61428
 20
5.78235
 30
0.0
 10
-1.61428
 20
5.78234
 30
0.0
 10
-1.61428
 20
5.78234
 30
0.0
  0
SPLINE
  5
AF
330
1F
100
AcDbEntity
  8
Laag 1
 62
   250
370
     9
100
AcDbSpline
210
0.0
220
0.0
230
1.0
 70
    24
 71
     3
 72
     8
 73
     4
 74
     0
 42
0.0000000001
 43
0.0000000001
 12
1.0
 22
0.0
 32
0.0
 13
1.0
 23
0.0
 33
0.0
 40
0.0
 40
0.0
 40
0.0
 40
0.0
 40
1.0
 40
1.0
 40
1.0
 40
1.0
 10
-1.41429
 20
5.58235
 30
0.0
 10
-1.41429
 20
5.58235
 30
0.0
 10
-1.41429
 20
5.58234
 30
0.0
 10
-1.41429
 20
5.58234
 30
0.0
  0
SPLINE
  5
B0
330
1F
100
AcDbEntity
  8
Laag 1
 62
   250
370
     9
100
AcDbSpline
210
0.0
220
0.0
230
1.0
 70
    27
 71
     3
 72
     8
 73
     4
 74
     0
 42
0.0000000001
 43
0.0000000001
 12
1.0
 22
0.0
 32
0.0
 13
1.0
 23
0.0
 33
0.0
 40
0.0
 40
0.0
 40
0.0
 40
0.0
 40
1.0
 40
1.0
 40
1.0
 40
1.0
 10
-1.21429
 20
5.78234
 30
0.0
 10
-1.21429
 20
5.78234
 30
0.0
 10
-1.21429
 20
5.78234
 30
0.0
 10
-1.21429
 20
5.78234
 30
0.0
  0
SPLINE
  5
B1
330
1F
100
AcDbEntity
  8
Laag 1
 62
   250
370
     9
100
AcDbSpline
210
0.0
220
0.0
230
1.0
 70
    27
 71
     3
 72
     8
 73
     4
 74
     0
 42
0.0000000001
 43
0.0000000001
 12
1.0
 22
0.0
 32
0.0
 13
1.0
 23
0.0
 33
0.0
 40
0.0
 40
0.0
 40
0.0
 40
0.0
 40
1.0
 40
1.0
 40
1.0
 40
1.0
 10
-1.41428
 20
5.98234
 30
0.0
 10
-1.41428
 20
5.98234
 30
0.0
 10
-1.41428
 20
5.98234
 30
0.0
 10
-1.41428
 20
5.98234
 30
0.0
  0
SPLINE
  5
B2
330
1F
100
AcDbEntity
  8
Laag 1
 62
   250
370
    50
100
AcDbSpline
210
0.0
220
0.0
230
1.0
 70
    11
 71
     3
 72
    28
 73
    24
 74
     0
 42
0.0000000001
 43
0.0000000001
 12
1.0
 22
0.0
 32
0.0
 13
1.0
 23
0.0
 33
0.0
 40
0.0
 40
0.0
 40
0.0
 40
0.0
 40
0.1428571428571428
 40
0.1428571428571428
 40
0.1428571428571428
 40
0.1428571428571428
 40
0.2857142857142857
 40
0.2857142857142857
 40
0.2857142857142857
 40
0.2857142857142857
 40
0.4285714285714285
 40
0.4285714285714285
 40
0.4285714285714285
 40
0.4285714285714285
 40
0.5714285714285714
 40
0.5714285714285714
 40
0.5714285714285714
 40
0.5714285714285714
 40
0.7142857142857143
 40
0.7142857142857143
 40
0.7142857142857143
 40
0.7142857142857143
 40
1.0
 40
1.0
 40
1.0
 40
1.0
 10
2.7622
 20
-7.20311
 30
0.0
 10
2.7622
 20
-7.20311
 30
0.0
 10
2.88877
 20
-6.59704
 30
0.0
 10
2.88877
 20
-6.59704
 30
0.0
 10
2.88877
 20
-6.59704
 30
0.0
 10
2.88877
 20
-6.59704
 30
0.0
 10
2.96977
 20
-6.59704
 30
0.0
 10
2.96977
 20
-6.59704
 30
0.0
 10
2.96977
 20
-6.59704
 30
0.0
 10
2.96977
 20
-6.59704
 30
0.0
 10
2.85773
 20
-7.13453
 30
0.0
 10
2.85773
 20
-7.13453
 30
0.0
 10
2.85773
 20
-7.13453
 30
0.0
 10
2.85773
 20
-7.13453
 30
0.0
 10
3.17226
 20
-7.13453
 30
0.0
 10
3.17226
 20
-7.13453
 30
0.0
 10
3.17226
 20
-7.13453
 30
0.0
 10
3.17226
 20
-7.13453
 30
0.0
 10
3.15787
 20
-7.20311
 30
0.0
 10
3.15787
 20
-7.20311
 30
0.0
 10
3.15787
 20
-7.20311
 30
0.0
 10
3.15787
 20
-7.20311
 30
0.0
 10
2.7622
 20
-7.20311
 30
0.0
 10
2.7622
 20
-7.20311
 30
0.0
  0
SPLINE
  5
B3
330
1F
100
AcDbEntity
  8
Laag 1
 62
   250
370
    50
100
AcDbSpline
210
0.0
220
0.0
230
1.0
 70
    11
 71
     3
 72
   104
 73
   100
 74
     0
 42
0.0000000001
 43
0.0000000001
 12
1.0
 22
0.0
 32
0.0
 13
1.0
 23
0.0
 33
0.0
 40
0.0
 40
0.0
 40
0.0
 40
0.0
 40
0.0384615384615385
 40
0.0384615384615385
 40
0.0384615384615385
 40
0.0384615384615385
 40
0.0769230769230769
 40
0.0769230769230769
 40
0.0769230769230769
 40
0.0769230769230769
 40
0.1153846153846154
 40
0.1153846153846154
 40
0.1153846153846154
 40
0.1153846153846154
 40
0.1538461538461539
 40
0.1538461538461539
 40
0.1538461538461539
 40
0.1538461538461539
 40
0.1923076923076923
 40
0.1923076923076923
 40
0.1923076923076923
 40
0.1923076923076923
 40
0.2307692307692308
 40
0.2307692307692308
 40
0.2307692307692308
 40
0.2307692307692308
 40
0.2692307692307692
 40
0.2692307692307692
 40
0.2692307692307692
 40
0.2692307692307692
 40
0.3076923076923077
 40
0.3076923076923077
 40
0.3076923076923077
 40
0.3076923076923077
 40
0.3461538461538461
 40
0.3461538461538461
 40
0.3461538461538461
 40
0.3461538461538461
 40
0.3846153846153846
 40
0.3846153846153846
 40
0.3846153846153846
 40
0.3846153846153846
 40
0.4230769230769231
 40
0.4230769230769231
 40
0.4230769230769231
 40
0.4230769230769231
 40
0.4615384615384616
 40
0.4615384615384616
 40
0.4615384615384616
 40
0.4615384615384616
 40
0.5
 40
0.5
 40
0.5
 40
0.5
 40
0.5384615384615384
 40
0.5384615384615384
 40
0.5384615384615384
 40
0.5384615384615384
 40
0.5769230769230769
 40
0.5769230769230769
 40
0.5769230769230769
 40
0.5769230769230769
 40
0.6153846153846154
 40
0.6153846153846154
 40
0.6153846153846154
 40
0.6153846153846154
 40
0.6538461538461539
 40
0.6538461538461539
 40
0.6538461538461539
 40
0.6538461538461539
 40
0.6923076923076923
 40
0.6923076923076923
 40
0.6923076923076923
 40
0.6923076923076923
 40
0.7307692307692307
 40
0.7307692307692307
 40
0.7307692307692307
 40
0.7307692307692307
 40
0.7692307692307693
 40
0.7692307692307693
 40
0.7692307692307693
 40
0.7692307692307693
 40
0.8076923076923077
 40
0.8076923076923077
 40
0.8076923076923077
 40
0.8076923076923077
 40
0.8461538461538461
 40
0.8461538461538461
 40
0.8461538461538461
 40
0.8461538461538461
 40
0.8846153846153846
 40
0.8846153846153846
 40
0.8846153846153846
 40
0.8846153846153846
 40
0.9230769230769231
 40
0.9230769230769231
 40
0.9230769230769231
 40
0.9230769230769231
 40
1.0
 40
1.0
 40
1.0
 40
1.0
 10
3.5233
 20
-7.14851
 30
0.0
 10
3.49734
 20
-7.17082
 30
0.0
 10
3.4725
 20
-7.18718
 30
0.0
 10
3.44851
 20
-7.19749
 30
0.0
 10
3.44851
 20
-7.19749
 30
0.0
 10
3.42452
 20
-7.20793
 30
0.0
 10
3.39884
 20
-7.21301
 30
0.0
 10
3.37161
 20
-7.21301
 30
0.0
 10
3.37161
 20
-7.21301
 30
0.0
 10
3.33111
 20
-7.21301
 30
0.0
 10
3.29837
 20
-7.20115
 30
0.0
 10
3.27353
 20
-7.17731
 30
0.0
 10
3.27353
 20
-7.17731
 30
0.0
 10
3.24884
 20
-7.15346
 30
0.0
 10
3.23642
 20
-7.12298
 30
0.0
 10
3.23642
 20
-7.08573
 30
0.0
 10
3.23642
 20
-7.08573
 30
0.0
 10
3.23642
 20
-7.06117
 30
0.0
 10
3.24193
 20
-7.03944
 30
0.0
 10
3.25307
 20
-7.02067
 30
0.0
 10
3.25307
 20
-7.02067
 30
0.0
 10
3.26422
 20
-7.00177
 30
0.0
 10
3.27904
 20
-6.98653
 30
0.0
 10
3.29752
 20
-6.9751
 30
0.0
 10
3.29752
 20
-6.9751
 30
0.0
 10
3.31601
 20
-6.96367
 30
0.0
 10
3.33859
 20
-6.95548
 30
0.0
 10
3.3654
 20
-6.95054
 30
0.0
 10
3.3654
 20
-6.95054
 30
0.0
 10
3.38219
 20
-6.9473
 30
0.0
 10
3.41408
 20
-6.94462
 30
0.0
 10
3.46107
 20
-6.94264
 30
0.0
 10
3.46107
 20
-6.94264
 30
0.0
 10
3.50806
 20
-6.94081
 30
0.0
 10
3.54179
 20
-6.93573
 30
0.0
 10
3.5621
 20
-6.92782
 30
0.0
 10
3.5621
 20
-6.92782
 30
0.0
 10
3.56789
 20
-6.90736
 30
0.0
 10
3.57085
 20
-6.89042
 30
0.0
 10
3.57085
 20
-6.87688
 30
0.0
 10
3.57085
 20
-6.87688
 30
0.0
 10
3.57085
 20
-6.85953
 30
0.0
 10
3.5645
 20
-6.84598
 30
0.0
 10
3.5518
 20
-6.83596
 30
0.0
 10
3.5518
 20
-6.83596
 30
0.0
 10
3.53445
 20
-6.82227
 30
0.0
 10
3.50905
 20
-6.81536
 30
0.0
 10
3.47575
 20
-6.81536
 30
0.0
 10
3.47575
 20
-6.81536
 30
0.0
 10
3.44428
 20
-6.81536
 30
0.0
 10
3.4186
 20
-6.82227
 30
0.0
 10
3.3987
 20
-6.83624
 30
0.0
 10
3.3987
 20
-6.83624
 30
0.0
 10
3.37866
 20
-6.85021
 30
0.0
 10
3.36413
 20
-6.86997
 30
0.0
 10
3.3551
 20
-6.89551
 30
0.0
 10
3.3551
 20
-6.89551
 30
0.0
 10
3.3551
 20
-6.89551
 30
0.0
 10
3.27932
 20
-6.88888
 30
0.0
 10
3.27932
 20
-6.88888
 30
0.0
 10
3.27932
 20
-6.88888
 30
0.0
 10
3.29484
 20
-6.84542
 30
0.0
 10
3.31925
 20
-6.81211
 30
0.0
 10
3.3527
 20
-6.78883
 30
0.0
 10
3.3527
 20
-6.78883
 30
0.0
 10
3.38628
 20
-6.76569
 30
0.0
 10
3.42847
 20
-6.75412
 30
0.0
 10
3.47941
 20
-6.75412
 30
0.0
 10
3.47941
 20
-6.75412
 30
0.0
 10
3.53374
 20
-6.75412
 30
0.0
 10
3.57678
 20
-6.76709
 30
0.0
 10
3.60839
 20
-6.79306
 30
0.0
 10
3.60839
 20
-6.79306
 30
0.0
 10
3.63266
 20
-6.81226
 30
0.0
 10
3.6448
 20
-6.83737
 30
0.0
 10
3.6448
 20
-6.86828
 30
0.0
 10
3.6448
 20
-6.86828
 30
0.0
 10
3.6448
 20
-6.8917
 30
0.0
 10
3.64141
 20
-6.91879
 30
0.0
 10
3.63449
 20
-6.9497
 30
0.0
 10
3.63449
 20
-6.9497
 30
0.0
 10
3.63449
 20
-6.9497
 30
0.0
 10
3.61008
 20
-7.05892
 30
0.0
 10
3.61008
 20
-7.05892
 30
0.0
 10
3.61008
 20
-7.05892
 30
0.0
 10
3.60232
 20
-7.09363
 30
0.0
 10
3.59851
 20
-7.12184
 30
0.0
 10
3.59851
 20
-7.14358
 30
0.0
 10
3.59851
 20
-7.14358
 30
0.0
 10
3.59851
 20
-7.15741
 30
0.0
 10
3.60162
 20
-7.17716
 30
0.0
 10
3.60768
 20
-7.20313
 30
0.0
 10
3.60768
 20
-7.20313
 30
0.0
 10
3.60768
 20
-7.20313
 30
0.0
 10
3.53191
 20
-7.20313
 30
0.0
 10
3.53191
 20
-7.20313
 30
0.0
 10
3.53191
 20
-7.20313
 30
0.0
 10
3.52782
 20
-7.18874
 30
0.0
 10
3.52499
 20
-7.17067
 30
0.0
 10
3.5233
 20
-7.14851
 30
0.0
  0
SPLINE
  5
B4
330
1F
100
AcDbEntity
  8
Laag 1
 62
   250
370
    50
100
AcDbSpline
210
0.0
220
0.0
230
1.0
 70
    11
 71
     3
 72
    44
 73
    40
 74
     0
 42
0.0000000001
 43
0.0000000001
 12
1.0
 22
0.0
 32
0.0
 13
1.0
 23
0.0
 33
0.0
 40
0.0
 40
0.0
 40
0.0
 40
0.0
 40
0.0909090909090909
 40
0.0909090909090909
 40
0.0909090909090909
 40
0.0909090909090909
 40
0.1818181818181818
 40
0.1818181818181818
 40
0.1818181818181818
 40
0.1818181818181818
 40
0.2727272727272727
 40
0.2727272727272727
 40
0.2727272727272727
 40
0.2727272727272727
 40
0.3636363636363636
 40
0.3636363636363636
 40
0.3636363636363636
 40
0.3636363636363636
 40
0.4545454545454545
 40
0.4545454545454545
 40
0.4545454545454545
 40
0.4545454545454545
 40
0.5454545454545454
 40
0.5454545454545454
 40
0.5454545454545454
 40
0.5454545454545454
 40
0.6363636363636364
 40
0.6363636363636364
 40
0.6363636363636364
 40
0.6363636363636364
 40
0.7272727272727273
 40
0.7272727272727273
 40
0.7272727272727273
 40
0.7272727272727273
 40
0.8181818181818182
 40
0.8181818181818182
 40
0.8181818181818182
 40
0.8181818181818182
 40
1.0
 40
1.0
 40
1.0
 40
1.0
 10
3.551
 20
-6.98071
 30
0.0
 10
3.54056
 20
-6.9848
 30
0.0
 10
3.52927
 20
-6.98805
 30
0.0
 10
3.51727
 20
-6.99017
 30
0.0
 10
3.51727
 20
-6.99017
 30
0.0
 10
3.50528
 20
-6.99242
 30
0.0
 10
3.48524
 20
-6.99467
 30
0.0
 10
3.45716
 20
-6.99722
 30
0.0
 10
3.45716
 20
-6.99722
 30
0.0
 10
3.4137
 20
-7.00103
 30
0.0
 10
3.38294
 20
-7.00597
 30
0.0
 10
3.36501
 20
-7.0119
 30
0.0
 10
3.36501
 20
-7.0119
 30
0.0
 10
3.34709
 20
-7.01782
 30
0.0
 10
3.33355
 20
-7.02728
 30
0.0
 10
3.32452
 20
-7.04026
 30
0.0
 10
3.32452
 20
-7.04026
 30
0.0
 10
3.31534
 20
-7.0531
 30
0.0
 10
3.31083
 20
-7.06749
 30
0.0
 10
3.31083
 20
-7.08316
 30
0.0
 10
3.31083
 20
-7.08316
 30
0.0
 10
3.31083
 20
-7.10418
 30
0.0
 10
3.31802
 20
-7.1214
 30
0.0
 10
3.33256
 20
-7.13494
 30
0.0
 10
3.33256
 20
-7.13494
 30
0.0
 10
3.34695
 20
-7.14835
 30
0.0
 10
3.36755
 20
-7.15512
 30
0.0
 10
3.39437
 20
-7.15512
 30
0.0
 10
3.39437
 20
-7.15512
 30
0.0
 10
3.4192
 20
-7.15512
 30
0.0
 10
3.44305
 20
-7.14862
 30
0.0
 10
3.46591
 20
-7.13551
 30
0.0
 10
3.46591
 20
-7.13551
 30
0.0
 10
3.48877
 20
-7.12238
 30
0.0
 10
3.50683
 20
-7.10418
 30
0.0
 10
3.51995
 20
-7.08076
 30
0.0
 10
3.51995
 20
-7.08076
 30
0.0
 10
3.53322
 20
-7.05733
 30
0.0
 10
3.54352
 20
-7.02389
 30
0.0
 10
3.551
 20
-6.98071
 30
0.0
  0
SPLINE
  5
B5
330
1F
100
AcDbEntity
  8
Laag 1
 62
   250
370
    50
100
AcDbSpline
210
0.0
220
0.0
230
1.0
 70
    11
 71
     3
 72
   120
 73
   116
 74
     0
 42
0.0000000001
 43
0.0000000001
 12
1.0
 22
0.0
 32
0.0
 13
1.0
 23
0.0
 33
0.0
 40
0.0
 40
0.0
 40
0.0
 40
0.0
 40
0.0333333333333333
 40
0.0333333333333333
 40
0.0333333333333333
 40
0.0333333333333333
 40
0.0666666666666667
 40
0.0666666666666667
 40
0.0666666666666667
 40
0.0666666666666667
 40
0.1
 40
0.1
 40
0.1
 40
0.1
 40
0.1333333333333333
 40
0.1333333333333333
 40
0.1333333333333333
 40
0.1333333333333333
 40
0.1666666666666667
 40
0.1666666666666667
 40
0.1666666666666667
 40
0.1666666666666667
 40
0.2
 40
0.2
 40
0.2
 40
0.2
 40
0.2333333333333333
 40
0.2333333333333333
 40
0.2333333333333333
 40
0.2333333333333333
 40
0.2666666666666667
 40
0.2666666666666667
 40
0.2666666666666667
 40
0.2666666666666667
 40
0.3
 40
0.3
 40
0.3
 40
0.3
 40
0.3333333333333333
 40
0.3333333333333333
 40
0.3333333333333333
 40
0.3333333333333333
 40
0.3666666666666666
 40
0.3666666666666666
 40
0.3666666666666666
 40
0.3666666666666666
 40
0.4
 40
0.4
 40
0.4
 40
0.4
 40
0.4333333333333333
 40
0.4333333333333333
 40
0.4333333333333333
 40
0.4333333333333333
 40
0.4666666666666667
 40
0.4666666666666667
 40
0.4666666666666667
 40
0.4666666666666667
 40
0.5
 40
0.5
 40
0.5
 40
0.5
 40
0.5333333333333333
 40
0.5333333333333333
 40
0.5333333333333333
 40
0.5333333333333333
 40
0.5666666666666667
 40
0.5666666666666667
 40
0.5666666666666667
 40
0.5666666666666667
 40
0.6
 40
0.6
 40
0.6
 40
0.6
 40
0.6333333333333333
 40
0.6333333333333333
 40
0.6333333333333333
 40
0.6333333333333333
 40
0.6666666666666666
 40
0.6666666666666666
 40
0.6666666666666666
 40
0.6666666666666666
 40
0.7
 40
0.7
 40
0.7
 40
0.7
 40
0.7333333333333333
 40
0.7333333333333333
 40
0.7333333333333333
 40
0.7333333333333333
 40
0.7666666666666667
 40
0.7666666666666667
 40
0.7666666666666667
 40
0.7666666666666667
 40
0.8
 40
0.8
 40
0.8
 40
0.8
 40
0.8333333333333334
 40
0.8333333333333334
 40
0.8333333333333334
 40
0.8333333333333334
 40
0.8666666666666667
 40
0.8666666666666667
 40
0.8666666666666667
 40
0.8666666666666667
 40
0.9
 40
0.9
 40
0.9
 40
0.9
 40
0.9333333333333333
 40
0.9333333333333333
 40
0.9333333333333333
 40
0.9333333333333333
 40
1.0
 40
1.0
 40
1.0
 40
1.0
 10
3.7052
 20
-7.05311
 30
0.0
 10
3.7052
 20
-7.05311
 30
0.0
 10
3.77998
 20
-7.04845
 30
0.0
 10
3.77998
 20
-7.04845
 30
0.0
 10
3.77998
 20
-7.04845
 30
0.0
 10
3.77998
 20
-7.07004
 30
0.0
 10
3.78337
 20
-7.08839
 30
0.0
 10
3.79
 20
-7.10349
 30
0.0
 10
3.79
 20
-7.10349
 30
0.0
 10
3.79649
 20
-7.11858
 30
0.0
 10
3.80877
 20
-7.131
 30
0.0
 10
3.82655
 20
-7.14074
 30
0.0
 10
3.82655
 20
-7.14074
 30
0.0
 10
3.84433
 20
-7.15033
 30
0.0
 10
3.86507
 20
-7.15513
 30
0.0
 10
3.88878
 20
-7.15513
 30
0.0
 10
3.88878
 20
-7.15513
 30
0.0
 10
3.9218
 20
-7.15513
 30
0.0
 10
3.94664
 20
-7.14849
 30
0.0
 10
3.96315
 20
-7.13538
 30
0.0
 10
3.96315
 20
-7.13538
 30
0.0
 10
3.97966
 20
-7.12211
 30
0.0
 10
3.98798
 20
-7.10645
 30
0.0
 10
3.98798
 20
-7.08853
 30
0.0
 10
3.98798
 20
-7.08853
 30
0.0
 10
3.98798
 20
-7.07569
 30
0.0
 10
3.98304
 20
-7.06341
 30
0.0
 10
3.97302
 20
-7.05183
 30
0.0
 10
3.97302
 20
-7.05183
 30
0.0
 10
3.96286
 20
-7.04027
 30
0.0
 10
3.93803
 20
-7.02602
 30
0.0
 10
3.89852
 20
-7.00908
 30
0.0
 10
3.89852
 20
-7.00908
 30
0.0
 10
3.85887
 20
-6.99201
 30
0.0
 10
3.83361
 20
-6.98016
 30
0.0
 10
3.8226
 20
-6.97324
 30
0.0
 10
3.8226
 20
-6.97324
 30
0.0
 10
3.80411
 20
-6.96195
 30
0.0
 10
3.79029
 20
-6.94869
 30
0.0
 10
3.78083
 20
-6.93331
 30
0.0
 10
3.78083
 20
-6.93331
 30
0.0
 10
3.77152
 20
-6.91807
 30
0.0
 10
3.76686
 20
-6.90043
 30
0.0
 10
3.76686
 20
-6.88067
 30
0.0
 10
3.76686
 20
-6.88067
 30
0.0
 10
3.76686
 20
-6.84596
 30
0.0
 10
3.78055
 20
-6.81619
 30
0.0
 10
3.80821
 20
-6.79135
 30
0.0
 10
3.80821
 20
-6.79135
 30
0.0
 10
3.83572
 20
-6.76652
 30
0.0
 10
3.87425
 20
-6.7541
 30
0.0
 10
3.92392
 20
-6.7541
 30
0.0
 10
3.92392
 20
-6.7541
 30
0.0
 10
3.97895
 20
-6.7541
 30
0.0
 10
4.021
 20
-6.76694
 30
0.0
 10
4.04979
 20
-6.79234
 30
0.0
 10
4.04979
 20
-6.79234
 30
0.0
 10
4.07857
 20
-6.81788
 30
0.0
 10
4.09353
 20
-6.85146
 30
0.0
 10
4.09466
 20
-6.89309
 30
0.0
 10
4.09466
 20
-6.89309
 30
0.0
 10
4.09466
 20
-6.89309
 30
0.0
 10
4.02142
 20
-6.89802
 30
0.0
 10
4.02142
 20
-6.89802
 30
0.0
 10
4.02142
 20
-6.89802
 30
0.0
 10
4.0203
 20
-6.8715
 30
0.0
 10
4.01098
 20
-6.85062
 30
0.0
 10
3.99334
 20
-6.83524
 30
0.0
 10
3.99334
 20
-6.83524
 30
0.0
 10
3.9757
 20
-6.81971
 30
0.0
 10
3.95073
 20
-6.81209
 30
0.0
 10
3.91855
 20
-6.81209
 30
0.0
 10
3.91855
 20
-6.81209
 30
0.0
 10
3.89259
 20
-6.81209
 30
0.0
 10
3.87255
 20
-6.81801
 30
0.0
 10
3.85816
 20
-6.82973
 30
0.0
 10
3.85816
 20
-6.82973
 30
0.0
 10
3.84377
 20
-6.84159
 30
0.0
 10
3.83671
 20
-6.85443
 30
0.0
 10
3.83671
 20
-6.86826
 30
0.0
 10
3.83671
 20
-6.86826
 30
0.0
 10
3.83671
 20
-6.88208
 30
0.0
 10
3.84292
 20
-6.89421
 30
0.0
 10
3.85534
 20
-6.90466
 30
0.0
 10
3.85534
 20
-6.90466
 30
0.0
 10
3.86352
 20
-6.91186
 30
0.0
 10
3.88483
 20
-6.92287
 30
0.0
 10
3.9194
 20
-6.93768
 30
0.0
 10
3.9194
 20
-6.93768
 30
0.0
 10
3.97669
 20
-6.96252
 30
0.0
 10
4.01282
 20
-6.98213
 30
0.0
 10
4.02763
 20
-6.99638
 30
0.0
 10
4.02763
 20
-6.99638
 30
0.0
 10
4.05134
 20
-7.01924
 30
0.0
 10
4.06319
 20
-7.04718
 30
0.0
 10
4.06319
 20
-7.07992
 30
0.0
 10
4.06319
 20
-7.07992
 30
0.0
 10
4.06319
 20
-7.10165
 30
0.0
 10
4.05656
 20
-7.1231
 30
0.0
 10
4.04315
 20
-7.14398
 30
0.0
 10
4.04315
 20
-7.14398
 30
0.0
 10
4.02975
 20
-7.16487
 30
0.0
 10
4.00943
 20
-7.18166
 30
0.0
 10
3.98191
 20
-7.19421
 30
0.0
 10
3.98191
 20
-7.19421
 30
0.0
 10
3.95454
 20
-7.20678
 30
0.0
 10
3.92222
 20
-7.21299
 30
0.0
 10
3.88497
 20
-7.21299
 30
0.0
 10
3.88497
 20
-7.21299
 30
0.0
 10
3.83431
 20
-7.21299
 30
0.0
 10
3.79113
 20
-7.20043
 30
0.0
 10
3.75557
 20
-7.17545
 30
0.0
 10
3.75557
 20
-7.17545
 30
0.0
 10
3.72001
 20
-7.15033
 30
0.0
 10
3.70322
 20
-7.10955
 30
0.0
 10
3.7052
 20
-7.05311
 30
0.0
  0
SPLINE
  5
B6
330
1F
100
AcDbEntity
  8
Laag 1
 62
   250
370
    50
100
AcDbSpline
210
0.0
220
0.0
230
1.0
 70
    11
 71
     3
 72
    76
 73
    72
 74
     0
 42
0.0000000001
 43
0.0000000001
 12
1.0
 22
0.0
 32
0.0
 13
1.0
 23
0.0
 33
0.0
 40
0.0
 40
0.0
 40
0.0
 40
0.0
 40
0.0526315789473684
 40
0.0526315789473684
 40
0.0526315789473684
 40
0.0526315789473684
 40
0.1052631578947368
 40
0.1052631578947368
 40
0.1052631578947368
 40
0.1052631578947368
 40
0.1578947368421053
 40
0.1578947368421053
 40
0.1578947368421053
 40
0.1578947368421053
 40
0.2105263157894737
 40
0.2105263157894737
 40
0.2105263157894737
 40
0.2105263157894737
 40
0.2631578947368421
 40
0.2631578947368421
 40
0.2631578947368421
 40
0.2631578947368421
 40
0.3157894736842105
 40
0.3157894736842105
 40
0.3157894736842105
 40
0.3157894736842105
 40
0.3684210526315789
 40
0.3684210526315789
 40
0.3684210526315789
 40
0.3684210526315789
 40
0.4210526315789473
 40
0.4210526315789473
 40
0.4210526315789473
 40
0.4210526315789473
 40
0.4736842105263158
 40
0.4736842105263158
 40
0.4736842105263158
 40
0.4736842105263158
 40
0.5263157894736842
 40
0.5263157894736842
 40
0.5263157894736842
 40
0.5263157894736842
 40
0.5789473684210527
 40
0.5789473684210527
 40
0.5789473684210527
 40
0.5789473684210527
 40
0.631578947368421
 40
0.631578947368421
 40
0.631578947368421
 40
0.631578947368421
 40
0.6842105263157895
 40
0.6842105263157895
 40
0.6842105263157895
 40
0.6842105263157895
 40
0.7368421052631579
 40
0.7368421052631579
 40
0.7368421052631579
 40
0.7368421052631579
 40
0.7894736842105263
 40
0.7894736842105263
 40
0.7894736842105263
 40
0.7894736842105263
 40
0.8421052631578947
 40
0.8421052631578947
 40
0.8421052631578947
 40
0.8421052631578947
 40
0.8947368421052632
 40
0.8947368421052632
 40
0.8947368421052632
 40
0.8947368421052632
 40
1.0
 40
1.0
 40
1.0
 40
1.0
 10
4.4439
 20
-7.05381
 30
0.0
 10
4.4439
 20
-7.05381
 30
0.0
 10
4.51672
 20
-7.06128
 30
0.0
 10
4.51672
 20
-7.06128
 30
0.0
 10
4.51672
 20
-7.06128
 30
0.0
 10
4.50628
 20
-7.09741
 30
0.0
 10
4.48215
 20
-7.1317
 30
0.0
 10
4.44461
 20
-7.16429
 30
0.0
 10
4.44461
 20
-7.16429
 30
0.0
 10
4.40694
 20
-7.19675
 30
0.0
 10
4.36205
 20
-7.21298
 30
0.0
 10
4.30999
 20
-7.21298
 30
0.0
 10
4.30999
 20
-7.21298
 30
0.0
 10
4.27754
 20
-7.21298
 30
0.0
 10
4.24762
 20
-7.2055
 30
0.0
 10
4.22053
 20
-7.19053
 30
0.0
 10
4.22053
 20
-7.19053
 30
0.0
 10
4.19344
 20
-7.17544
 30
0.0
 10
4.17269
 20
-7.15357
 30
0.0
 10
4.15844
 20
-7.12493
 30
0.0
 10
4.15844
 20
-7.12493
 30
0.0
 10
4.14433
 20
-7.09628
 30
0.0
 10
4.13728
 20
-7.06368
 30
0.0
 10
4.13728
 20
-7.02699
 30
0.0
 10
4.13728
 20
-7.02699
 30
0.0
 10
4.13728
 20
-6.97902
 30
0.0
 10
4.14828
 20
-6.93259
 30
0.0
 10
4.17044
 20
-6.88744
 30
0.0
 10
4.17044
 20
-6.88744
 30
0.0
 10
4.19273
 20
-6.84242
 30
0.0
 10
4.22138
 20
-6.80897
 30
0.0
 10
4.25665
 20
-6.78697
 30
0.0
 10
4.25665
 20
-6.78697
 30
0.0
 10
4.29193
 20
-6.76509
 30
0.0
 10
4.33016
 20
-6.75409
 30
0.0
 10
4.37124
 20
-6.75409
 30
0.0
 10
4.37124
 20
-6.75409
 30
0.0
 10
4.42359
 20
-6.75409
 30
0.0
 10
4.46536
 20
-6.77046
 30
0.0
 10
4.49668
 20
-6.80291
 30
0.0
 10
4.49668
 20
-6.80291
 30
0.0
 10
4.52801
 20
-6.83551
 30
0.0
 10
4.54353
 20
-6.87982
 30
0.0
 10
4.54353
 20
-6.93598
 30
0.0
 10
4.54353
 20
-6.93598
 30
0.0
 10
4.54353
 20
-6.95757
 30
0.0
 10
4.5417
 20
-6.97958
 30
0.0
 10
4.53775
 20
-7.00216
 30
0.0
 10
4.53775
 20
-7.00216
 30
0.0
 10
4.53775
 20
-7.00216
 30
0.0
 10
4.21446
 20
-7.00216
 30
0.0
 10
4.21446
 20
-7.00216
 30
0.0
 10
4.21446
 20
-7.00216
 30
0.0
 10
4.21346
 20
-7.01077
 30
0.0
 10
4.21291
 20
-7.01839
 30
0.0
 10
4.21291
 20
-7.0253
 30
0.0
 10
4.21291
 20
-7.0253
 30
0.0
 10
4.21291
 20
-7.06636
 30
0.0
 10
4.22236
 20
-7.09768
 30
0.0
 10
4.24113
 20
-7.11942
 30
0.0
 10
4.24113
 20
-7.11942
 30
0.0
 10
4.26004
 20
-7.141
 30
0.0
 10
4.28318
 20
-7.15188
 30
0.0
 10
4.31042
 20
-7.15188
 30
0.0
 10
4.31042
 20
-7.15188
 30
0.0
 10
4.3361
 20
-7.15188
 30
0.0
 10
4.36122
 20
-7.14341
 30
0.0
 10
4.38605
 20
-7.12662
 30
0.0
 10
4.38605
 20
-7.12662
 30
0.0
 10
4.41089
 20
-7.10983
 30
0.0
 10
4.43022
 20
-7.08556
 30
0.0
 10
4.4439
 20
-7.05381
 30
0.0
  0
SPLINE
  5
B7
330
1F
100
AcDbEntity
  8
Laag 1
 62
   250
370
    50
100
AcDbSpline
210
0.0
220
0.0
230
1.0
 70
    11
 71
     3
 72
    32
 73
    28
 74
     0
 42
0.0000000001
 43
0.0000000001
 12
1.0
 22
0.0
 32
0.0
 13
1.0
 23
0.0
 33
0.0
 40
0.0
 40
0.0
 40
0.0
 40
0.0
 40
0.125
 40
0.125
 40
0.125
 40
0.125
 40
0.25
 40
0.25
 40
0.25
 40
0.25
 40
0.375
 40
0.375
 40
0.375
 40
0.375
 40
0.5
 40
0.5
 40
0.5
 40
0.5
 40
0.625
 40
0.625
 40
0.625
 40
0.625
 40
0.75
 40
0.75
 40
0.75
 40
0.75
 40
1.0
 40
1.0
 40
1.0
 40
1.0
 10
4.2265
 20
-6.94521
 30
0.0
 10
4.2265
 20
-6.94521
 30
0.0
 10
4.47287
 20
-6.94521
 30
0.0
 10
4.47287
 20
-6.94521
 30
0.0
 10
4.47287
 20
-6.94521
 30
0.0
 10
4.47317
 20
-6.93745
 30
0.0
 10
4.47327
 20
-6.93195
 30
0.0
 10
4.47327
 20
-6.9287
 30
0.0
 10
4.47327
 20
-6.9287
 30
0.0
 10
4.47327
 20
-6.89117
 30
0.0
 10
4.46395
 20
-6.86238
 30
0.0
 10
4.44519
 20
-6.84248
 30
0.0
 10
4.44519
 20
-6.84248
 30
0.0
 10
4.42642
 20
-6.82245
 30
0.0
 10
4.40229
 20
-6.81243
 30
0.0
 10
4.3728
 20
-6.81243
 30
0.0
 10
4.3728
 20
-6.81243
 30
0.0
 10
4.34091
 20
-6.81243
 30
0.0
 10
4.3117
 20
-6.82357
 30
0.0
 10
4.28545
 20
-6.84559
 30
0.0
 10
4.28545
 20
-6.84559
 30
0.0
 10
4.25906
 20
-6.86759
 30
0.0
 10
4.23945
 20
-6.90076
 30
0.0
 10
4.22647
 20
-6.94521
 30
0.0
 10
4.22647
 20
-6.94521
 30
0.0
 10
4.22647
 20
-6.94521
 30
0.0
 10
4.2265
 20
-6.94521
 30
0.0
 10
4.2265
 20
-6.94521
 30
0.0
  0
SPLINE
  5
B8
330
1F
100
AcDbEntity
  8
Laag 1
 62
   250
370
    50
100
AcDbSpline
210
0.0
220
0.0
230
1.0
 70
    11
 71
     3
 72
    52
 73
    48
 74
     0
 42
0.0000000001
 43
0.0000000001
 12
1.0
 22
0.0
 32
0.0
 13
1.0
 23
0.0
 33
0.0
 40
0.0
 40
0.0
 40
0.0
 40
0.0
 40
0.0769230769230769
 40
0.0769230769230769
 40
0.0769230769230769
 40
0.0769230769230769
 40
0.1538461538461539
 40
0.1538461538461539
 40
0.1538461538461539
 40
0.1538461538461539
 40
0.2307692307692308
 40
0.2307692307692308
 40
0.2307692307692308
 40
0.2307692307692308
 40
0.3076923076923077
 40
0.3076923076923077
 40
0.3076923076923077
 40
0.3076923076923077
 40
0.3846153846153846
 40
0.3846153846153846
 40
0.3846153846153846
 40
0.3846153846153846
 40
0.4615384615384616
 40
0.4615384615384616
 40
0.4615384615384616
 40
0.4615384615384616
 40
0.5384615384615384
 40
0.5384615384615384
 40
0.5384615384615384
 40
0.5384615384615384
 40
0.6153846153846154
 40
0.6153846153846154
 40
0.6153846153846154
 40
0.6153846153846154
 40
0.6923076923076923
 40
0.6923076923076923
 40
0.6923076923076923
 40
0.6923076923076923
 40
0.7692307692307693
 40
0.7692307692307693
 40
0.7692307692307693
 40
0.7692307692307693
 40
0.8461538461538461
 40
0.8461538461538461
 40
0.8461538461538461
 40
0.8461538461538461
 40
1.0
 40
1.0
 40
1.0
 40
1.0
 10
4.5923
 20
-7.20311
 30
0.0
 10
4.5923
 20
-7.20311
 30
0.0
 10
4.68416
 20
-6.76412
 30
0.0
 10
4.68416
 20
-6.76412
 30
0.0
 10
4.68416
 20
-6.76412
 30
0.0
 10
4.68416
 20
-6.76412
 30
0.0
 10
4.7502
 20
-6.76412
 30
0.0
 10
4.7502
 20
-6.76412
 30
0.0
 10
4.7502
 20
-6.76412
 30
0.0
 10
4.7502
 20
-6.76412
 30
0.0
 10
4.73172
 20
-6.85372
 30
0.0
 10
4.73172
 20
-6.85372
 30
0.0
 10
4.73172
 20
-6.85372
 30
0.0
 10
4.7543
 20
-6.81986
 30
0.0
 10
4.7763
 20
-6.79474
 30
0.0
 10
4.79804
 20
-6.7785
 30
0.0
 10
4.79804
 20
-6.7785
 30
0.0
 10
4.81962
 20
-6.76228
 30
0.0
 10
4.84178
 20
-6.7541
 30
0.0
 10
4.86436
 20
-6.7541
 30
0.0
 10
4.86436
 20
-6.7541
 30
0.0
 10
4.87918
 20
-6.7541
 30
0.0
 10
4.89752
 20
-6.75945
 30
0.0
 10
4.91939
 20
-6.77033
 30
0.0
 10
4.91939
 20
-6.77033
 30
0.0
 10
4.91939
 20
-6.77033
 30
0.0
 10
4.88877
 20
-6.83975
 30
0.0
 10
4.88877
 20
-6.83975
 30
0.0
 10
4.88877
 20
-6.83975
 30
0.0
 10
4.87579
 20
-6.8303
 30
0.0
 10
4.86153
 20
-6.82563
 30
0.0
 10
4.84616
 20
-6.82563
 30
0.0
 10
4.84616
 20
-6.82563
 30
0.0
 10
4.82005
 20
-6.82563
 30
0.0
 10
4.7931
 20
-6.84032
 30
0.0
 10
4.76558
 20
-6.86953
 30
0.0
 10
4.76558
 20
-6.86953
 30
0.0
 10
4.73793
 20
-6.89874
 30
0.0
 10
4.71634
 20
-6.95123
 30
0.0
 10
4.70067
 20
-7.027
 30
0.0
 10
4.70067
 20
-7.027
 30
0.0
 10
4.70067
 20
-7.027
 30
0.0
 10
4.66342
 20
-7.20311
 30
0.0
 10
4.66342
 20
-7.20311
 30
0.0
 10
4.66342
 20
-7.20311
 30
0.0
 10
4.66342
 20
-7.20311
 30
0.0
 10
4.5923
 20
-7.20311
 30
0.0
 10
4.5923
 20
-7.20311
 30
0.0
  0
SPLINE
  5
B9
330
1F
100
AcDbEntity
  8
Laag 1
100
AcDbSpline
210
0.0
220
0.0
230
1.0
 70
    11
 71
     3
 72
    48
 73
    44
 74
     0
 42
0.0000000001
 43
0.0000000001
 12
1.0
 22
0.0
 32
0.0
 13
1.0
 23
0.0
 33
0.0
 40
0.0
 40
0.0
 40
0.0
 40
0.0
 40
0.0833333333333333
 40
0.0833333333333333
 40
0.0833333333333333
 40
0.0833333333333333
 40
0.1666666666666667
 40
0.1666666666666667
 40
0.1666666666666667
 40
0.1666666666666667
 40
0.25
 40
0.25
 40
0.25
 40
0.25
 40
0.3333333333333333
 40
0.3333333333333333
 40
0.3333333333333333
 40
0.3333333333333333
 40
0.4166666666666667
 40
0.4166666666666667
 40
0.4166666666666667
 40
0.4166666666666667
 40
0.5
 40
0.5
 40
0.5
 40
0.5
 40
0.5833333333333334
 40
0.5833333333333334
 40
0.5833333333333334
 40
0.5833333333333334
 40
0.6666666666666666
 40
0.6666666666666666
 40
0.6666666666666666
 40
0.6666666666666666
 40
0.75
 40
0.75
 40
0.75
 40
0.75
 40
0.8333333333333334
 40
0.8333333333333334
 40
0.8333333333333334
 40
0.8333333333333334
 40
1.0
 40
1.0
 40
1.0
 40
1.0
 10
-3.84052
 20
10.04004
 30
0.0
 10
-3.84052
 20
10.04004
 30
0.0
 10
-3.84052
 20
10.4947
 30
0.0
 10
-3.84052
 20
10.4947
 30
0.0
 10
-3.84052
 20
10.4947
 30
0.0
 10
-3.84052
 20
10.4947
 30
0.0
 10
-3.66886
 20
10.4947
 30
0.0
 10
-3.66886
 20
10.4947
 30
0.0
 10
-3.66886
 20
10.4947
 30
0.0
 10
-3.6387
 20
10.4947
 30
0.0
 10
-3.61563
 20
10.49322
 30
0.0
 10
-3.59965
 20
10.49036
 30
0.0
 10
-3.59965
 20
10.49036
 30
0.0
 10
-3.57732
 20
10.48666
 30
0.0
 10
-3.55858
 20
10.47957
 30
0.0
 10
-3.54345
 20
10.46919
 30
0.0
 10
-3.54345
 20
10.46919
 30
0.0
 10
-3.52832
 20
10.45872
 30
0.0
 10
-3.51615
 20
10.44411
 30
0.0
 10
-3.50694
 20
10.42538
 30
0.0
 10
-3.50694
 20
10.42538
 30
0.0
 10
-3.49773
 20
10.40665
 30
0.0
 10
-3.49318
 20
10.38601
 30
0.0
 10
-3.49318
 20
10.36347
 30
0.0
 10
-3.49318
 20
10.36347
 30
0.0
 10
-3.49318
 20
10.32494
 30
0.0
 10
-3.50546
 20
10.29224
 30
0.0
 10
-3.53012
 20
10.26557
 30
0.0
 10
-3.53012
 20
10.26557
 30
0.0
 10
-3.55467
 20
10.2388
 30
0.0
 10
-3.59922
 20
10.22546
 30
0.0
 10
-3.66357
 20
10.22546
 30
0.0
 10
-3.66357
 20
10.22546
 30
0.0
 10
-3.66357
 20
10.22546
 30
0.0
 10
-3.7802
 20
10.22546
 30
0.0
 10
-3.7802
 20
10.22546
 30
0.0
 10
-3.7802
 20
10.22546
 30
0.0
 10
-3.7802
 20
10.22546
 30
0.0
 10
-3.7802
 20
10.04004
 30
0.0
 10
-3.7802
 20
10.04004
 30
0.0
 10
-3.7802
 20
10.04004
 30
0.0
 10
-3.7802
 20
10.04004
 30
0.0
 10
-3.84052
 20
10.04004
 30
0.0
 10
-3.84052
 20
10.04004
 30
0.0
  0
SPLINE
  5
BA
330
1F
100
AcDbEntity
  8
Laag 1
100
AcDbSpline
210
0.0
220
0.0
230
1.0
 70
    11
 71
     3
 72
    36
 73
    32
 74
     0
 42
0.0000000001
 43
0.0000000001
 12
1.0
 22
0.0
 32
0.0
 13
1.0
 23
0.0
 33
0.0
 40
0.0
 40
0.0
 40
0.0
 40
0.0
 40
0.1111111111111111
 40
0.1111111111111111
 40
0.1111111111111111
 40
0.1111111111111111
 40
0.2222222222222222
 40
0.2222222222222222
 40
0.2222222222222222
 40
0.2222222222222222
 40
0.3333333333333333
 40
0.3333333333333333
 40
0.3333333333333333
 40
0.3333333333333333
 40
0.4444444444444444
 40
0.4444444444444444
 40
0.4444444444444444
 40
0.4444444444444444
 40
0.5555555555555556
 40
0.5555555555555556
 40
0.5555555555555556
 40
0.5555555555555556
 40
0.6666666666666666
 40
0.6666666666666666
 40
0.6666666666666666
 40
0.6666666666666666
 40
0.7777777777777778
 40
0.7777777777777778
 40
0.7777777777777778
 40
0.7777777777777778
 40
1.0
 40
1.0
 40
1.0
 40
1.0
 10
-3.7802
 20
10.2788
 30
0.0
 10
-3.7802
 20
10.2788
 30
0.0
 10
-3.66272
 20
10.2788
 30
0.0
 10
-3.66272
 20
10.2788
 30
0.0
 10
-3.66272
 20
10.2788
 30
0.0
 10
-3.62378
 20
10.2788
 30
0.0
 10
-3.59626
 20
10.286
 30
0.0
 10
-3.57986
 20
10.3005
 30
0.0
 10
-3.57986
 20
10.3005
 30
0.0
 10
-3.56356
 20
10.315
 30
0.0
 10
-3.55541
 20
10.33532
 30
0.0
 10
-3.55541
 20
10.36167
 30
0.0
 10
-3.55541
 20
10.36167
 30
0.0
 10
-3.55541
 20
10.38061
 30
0.0
 10
-3.56017
 20
10.39691
 30
0.0
 10
-3.5698
 20
10.41046
 30
0.0
 10
-3.5698
 20
10.41046
 30
0.0
 10
-3.57943
 20
10.424
 30
0.0
 10
-3.59213
 20
10.433
 30
0.0
 10
-3.6078
 20
10.43734
 30
0.0
 10
-3.6078
 20
10.43734
 30
0.0
 10
-3.61796
 20
10.43998
 30
0.0
 10
-3.63669
 20
10.44136
 30
0.0
 10
-3.66389
 20
10.44136
 30
0.0
 10
-3.66389
 20
10.44136
 30
0.0
 10
-3.66389
 20
10.44136
 30
0.0
 10
-3.7802
 20
10.44136
 30
0.0
 10
-3.7802
 20
10.44136
 30
0.0
 10
-3.7802
 20
10.44136
 30
0.0
 10
-3.7802
 20
10.44136
 30
0.0
 10
-3.7802
 20
10.2788
 30
0.0
 10
-3.7802
 20
10.2788
 30
0.0
  0
SPLINE
  5
BB
330
1F
100
AcDbEntity
  8
Laag 1
100
AcDbSpline
210
0.0
220
0.0
230
1.0
 70
    11
 71
     3
 72
    40
 73
    36
 74
     0
 42
0.0000000001
 43
0.0000000001
 12
1.0
 22
0.0
 32
0.0
 13
1.0
 23
0.0
 33
0.0
 40
0.0
 40
0.0
 40
0.0
 40
0.0
 40
0.1
 40
0.1
 40
0.1
 40
0.1
 40
0.2
 40
0.2
 40
0.2
 40
0.2
 40
0.3
 40
0.3
 40
0.3
 40
0.3
 40
0.4
 40
0.4
 40
0.4
 40
0.4
 40
0.5
 40
0.5
 40
0.5
 40
0.5
 40
0.6
 40
0.6
 40
0.6
 40
0.6
 40
0.7
 40
0.7
 40
0.7
 40
0.7
 40
0.8
 40
0.8
 40
0.8
 40
0.8
 40
1.0
 40
1.0
 40
1.0
 40
1.0
 10
-3.44491
 20
10.20482
 30
0.0
 10
-3.44491
 20
10.26568
 30
0.0
 10
-3.42798
 20
10.31076
 30
0.0
 10
-3.39401
 20
10.34008
 30
0.0
 10
-3.39401
 20
10.34008
 30
0.0
 10
-3.36575
 20
10.36442
 30
0.0
 10
-3.33114
 20
10.37659
 30
0.0
 10
-3.2904
 20
10.37659
 30
0.0
 10
-3.2904
 20
10.37659
 30
0.0
 10
-3.24521
 20
10.37659
 30
0.0
 10
-3.20817
 20
10.36177
 30
0.0
 10
-3.17938
 20
10.33214
 30
0.0
 10
-3.17938
 20
10.33214
 30
0.0
 10
-3.1507
 20
10.30261
 30
0.0
 10
-3.1363
 20
10.26166
 30
0.0
 10
-3.1363
 20
10.20948
 30
0.0
 10
-3.1363
 20
10.20948
 30
0.0
 10
-3.1363
 20
10.16715
 30
0.0
 10
-3.14265
 20
10.13391
 30
0.0
 10
-3.15535
 20
10.10968
 30
0.0
 10
-3.15535
 20
10.10968
 30
0.0
 10
-3.16805
 20
10.08544
 30
0.0
 10
-3.18658
 20
10.0666
 30
0.0
 10
-3.21092
 20
10.05316
 30
0.0
 10
-3.21092
 20
10.05316
 30
0.0
 10
-3.23515
 20
10.03972
 30
0.0
 10
-3.26172
 20
10.03305
 30
0.0
 10
-3.2904
 20
10.03305
 30
0.0
 10
-3.2904
 20
10.03305
 30
0.0
 10
-3.33654
 20
10.03305
 30
0.0
 10
-3.37379
 20
10.04777
 30
0.0
 10
-3.40226
 20
10.07729
 30
0.0
 10
-3.40226
 20
10.07729
 30
0.0
 10
-3.43073
 20
10.10682
 30
0.0
 10
-3.44491
 20
10.14937
 30
0.0
 10
-3.44491
 20
10.20482
 30
0.0
  0
SPLINE
  5
BC
330
1F
100
AcDbEntity
  8
Laag 1
100
AcDbSpline
210
0.0
220
0.0
230
1.0
 70
    11
 71
     3
 72
    36
 73
    32
 74
     0
 42
0.0000000001
 43
0.0000000001
 12
1.0
 22
0.0
 32
0.0
 13
1.0
 23
0.0
 33
0.0
 40
0.0
 40
0.0
 40
0.0
 40
0.0
 40
0.1111111111111111
 40
0.1111111111111111
 40
0.1111111111111111
 40
0.1111111111111111
 40
0.2222222222222222
 40
0.2222222222222222
 40
0.2222222222222222
 40
0.2222222222222222
 40
0.3333333333333333
 40
0.3333333333333333
 40
0.3333333333333333
 40
0.3333333333333333
 40
0.4444444444444444
 40
0.4444444444444444
 40
0.4444444444444444
 40
0.4444444444444444
 40
0.5555555555555556
 40
0.5555555555555556
 40
0.5555555555555556
 40
0.5555555555555556
 40
0.6666666666666666
 40
0.6666666666666666
 40
0.6666666666666666
 40
0.6666666666666666
 40
0.7777777777777778
 40
0.7777777777777778
 40
0.7777777777777778
 40
0.7777777777777778
 40
1.0
 40
1.0
 40
1.0
 40
1.0
 10
-3.38776
 20
10.20472
 30
0.0
 10
-3.38776
 20
10.1626
 30
0.0
 10
-3.37856
 20
10.13106
 30
0.0
 10
-3.36014
 20
10.11021
 30
0.0
 10
-3.36014
 20
10.11021
 30
0.0
 10
-3.34162
 20
10.08925
 30
0.0
 10
-3.31844
 20
10.07878
 30
0.0
 10
-3.2904
 20
10.07878
 30
0.0
 10
-3.2904
 20
10.07878
 30
0.0
 10
-3.26267
 20
10.07878
 30
0.0
 10
-3.2396
 20
10.08925
 30
0.0
 10
-3.22108
 20
10.11031
 30
0.0
 10
-3.22108
 20
10.11031
 30
0.0
 10
-3.20266
 20
10.13137
 30
0.0
 10
-3.19345
 20
10.16344
 30
0.0
 10
-3.19345
 20
10.20652
 30
0.0
 10
-3.19345
 20
10.20652
 30
0.0
 10
-3.19345
 20
10.24716
 30
0.0
 10
-3.20277
 20
10.27795
 30
0.0
 10
-3.22129
 20
10.2988
 30
0.0
 10
-3.22129
 20
10.2988
 30
0.0
 10
-3.23981
 20
10.31976
 30
0.0
 10
-3.26288
 20
10.33024
 30
0.0
 10
-3.2904
 20
10.33024
 30
0.0
 10
-3.2904
 20
10.33024
 30
0.0
 10
-3.31844
 20
10.33024
 30
0.0
 10
-3.34162
 20
10.31986
 30
0.0
 10
-3.36014
 20
10.29901
 30
0.0
 10
-3.36014
 20
10.29901
 30
0.0
 10
-3.37856
 20
10.27817
 30
0.0
 10
-3.38776
 20
10.24673
 30
0.0
 10
-3.38776
 20
10.20472
 30
0.0
  0
SPLINE
  5
BD
330
1F
100
AcDbEntity
  8
Laag 1
100
AcDbSpline
210
0.0
220
0.0
230
1.0
 70
    11
 71
     3
 72
    76
 73
    72
 74
     0
 42
0.0000000001
 43
0.0000000001
 12
1.0
 22
0.0
 32
0.0
 13
1.0
 23
0.0
 33
0.0
 40
0.0
 40
0.0
 40
0.0
 40
0.0
 40
0.0526315789473684
 40
0.0526315789473684
 40
0.0526315789473684
 40
0.0526315789473684
 40
0.1052631578947368
 40
0.1052631578947368
 40
0.1052631578947368
 40
0.1052631578947368
 40
0.1578947368421053
 40
0.1578947368421053
 40
0.1578947368421053
 40
0.1578947368421053
 40
0.2105263157894737
 40
0.2105263157894737
 40
0.2105263157894737
 40
0.2105263157894737
 40
0.2631578947368421
 40
0.2631578947368421
 40
0.2631578947368421
 40
0.2631578947368421
 40
0.3157894736842105
 40
0.3157894736842105
 40
0.3157894736842105
 40
0.3157894736842105
 40
0.3684210526315789
 40
0.3684210526315789
 40
0.3684210526315789
 40
0.3684210526315789
 40
0.4210526315789473
 40
0.4210526315789473
 40
0.4210526315789473
 40
0.4210526315789473
 40
0.4736842105263158
 40
0.4736842105263158
 40
0.4736842105263158
 40
0.4736842105263158
 40
0.5263157894736842
 40
0.5263157894736842
 40
0.5263157894736842
 40
0.5263157894736842
 40
0.5789473684210527
 40
0.5789473684210527
 40
0.5789473684210527
 40
0.5789473684210527
 40
0.631578947368421
 40
0.631578947368421
 40
0.631578947368421
 40
0.631578947368421
 40
0.6842105263157895
 40
0.6842105263157895
 40
0.6842105263157895
 40
0.6842105263157895
 40
0.7368421052631579
 40
0.7368421052631579
 40
0.7368421052631579
 40
0.7368421052631579
 40
0.7894736842105263
 40
0.7894736842105263
 40
0.7894736842105263
 40
0.7894736842105263
 40
0.8421052631578947
 40
0.8421052631578947
 40
0.8421052631578947
 40
0.8421052631578947
 40
0.8947368421052632
 40
0.8947368421052632
 40
0.8947368421052632
 40
0.8947368421052632
 40
1.0
 40
1.0
 40
1.0
 40
1.0
 10
-3.01152
 20
10.04004
 30
0.0
 10
-3.01152
 20
10.04004
 30
0.0
 10
-3.11111
 20
10.36961
 30
0.0
 10
-3.11111
 20
10.36961
 30
0.0
 10
-3.11111
 20
10.36961
 30
0.0
 10
-3.11111
 20
10.36961
 30
0.0
 10
-3.05269
 20
10.36961
 30
0.0
 10
-3.05269
 20
10.36961
 30
0.0
 10
-3.05269
 20
10.36961
 30
0.0
 10
-3.05269
 20
10.36961
 30
0.0
 10
-3.00009
 20
10.17942
 30
0.0
 10
-3.00009
 20
10.17942
 30
0.0
 10
-3.00009
 20
10.17942
 30
0.0
 10
-3.00009
 20
10.17942
 30
0.0
 10
-2.98147
 20
10.10862
 30
0.0
 10
-2.98147
 20
10.10862
 30
0.0
 10
-2.98147
 20
10.10862
 30
0.0
 10
-2.98073
 20
10.11211
 30
0.0
 10
-2.97501
 20
10.13476
 30
0.0
 10
-2.96443
 20
10.17657
 30
0.0
 10
-2.96443
 20
10.17657
 30
0.0
 10
-2.96443
 20
10.17657
 30
0.0
 10
-2.91225
 20
10.36961
 30
0.0
 10
-2.91225
 20
10.36961
 30
0.0
 10
-2.91225
 20
10.36961
 30
0.0
 10
-2.91225
 20
10.36961
 30
0.0
 10
-2.855
 20
10.36961
 30
0.0
 10
-2.855
 20
10.36961
 30
0.0
 10
-2.855
 20
10.36961
 30
0.0
 10
-2.855
 20
10.36961
 30
0.0
 10
-2.80536
 20
10.17826
 30
0.0
 10
-2.80536
 20
10.17826
 30
0.0
 10
-2.80536
 20
10.17826
 30
0.0
 10
-2.80536
 20
10.17826
 30
0.0
 10
-2.78917
 20
10.1155
 30
0.0
 10
-2.78917
 20
10.1155
 30
0.0
 10
-2.78917
 20
10.1155
 30
0.0
 10
-2.78917
 20
10.1155
 30
0.0
 10
-2.77022
 20
10.17911
 30
0.0
 10
-2.77022
 20
10.17911
 30
0.0
 10
-2.77022
 20
10.17911
 30
0.0
 10
-2.77022
 20
10.17911
 30
0.0
 10
-2.71328
 20
10.36961
 30
0.0
 10
-2.71328
 20
10.36961
 30
0.0
 10
-2.71328
 20
10.36961
 30
0.0
 10
-2.71328
 20
10.36961
 30
0.0
 10
-2.65899
 20
10.36961
 30
0.0
 10
-2.65899
 20
10.36961
 30
0.0
 10
-2.65899
 20
10.36961
 30
0.0
 10
-2.65899
 20
10.36961
 30
0.0
 10
-2.76239
 20
10.04004
 30
0.0
 10
-2.76239
 20
10.04004
 30
0.0
 10
-2.76239
 20
10.04004
 30
0.0
 10
-2.76239
 20
10.04004
 30
0.0
 10
-2.82018
 20
10.04004
 30
0.0
 10
-2.82018
 20
10.04004
 30
0.0
 10
-2.82018
 20
10.04004
 30
0.0
 10
-2.82018
 20
10.04004
 30
0.0
 10
-2.87246
 20
10.23721
 30
0.0
 10
-2.87246
 20
10.23721
 30
0.0
 10
-2.87246
 20
10.23721
 30
0.0
 10
-2.87246
 20
10.23721
 30
0.0
 10
-2.88569
 20
10.29362
 30
0.0
 10
-2.88569
 20
10.29362
 30
0.0
 10
-2.88569
 20
10.29362
 30
0.0
 10
-2.88569
 20
10.29362
 30
0.0
 10
-2.95236
 20
10.04004
 30
0.0
 10
-2.95236
 20
10.04004
 30
0.0
 10
-2.95236
 20
10.04004
 30
0.0
 10
-2.95236
 20
10.04004
 30
0.0
 10
-3.01152
 20
10.04004
 30
0.0
 10
-3.01152
 20
10.04004
 30
0.0
  0
SPLINE
  5
BE
330
1F
100
AcDbEntity
  8
Laag 1
100
AcDbSpline
210
0.0
220
0.0
230
1.0
 70
    11
 71
     3
 72
    64
 73
    60
 74
     0
 42
0.0000000001
 43
0.0000000001
 12
1.0
 22
0.0
 32
0.0
 13
1.0
 23
0.0
 33
0.0
 40
0.0
 40
0.0
 40
0.0
 40
0.0
 40
0.0625
 40
0.0625
 40
0.0625
 40
0.0625
 40
0.125
 40
0.125
 40
0.125
 40
0.125
 40
0.1875
 40
0.1875
 40
0.1875
 40
0.1875
 40
0.25
 40
0.25
 40
0.25
 40
0.25
 40
0.3125
 40
0.3125
 40
0.3125
 40
0.3125
 40
0.375
 40
0.375
 40
0.375
 40
0.375
 40
0.4375
 40
0.4375
 40
0.4375
 40
0.4375
 40
0.5
 40
0.5
 40
0.5
 40
0.5
 40
0.5625
 40
0.5625
 40
0.5625
 40
0.5625
 40
0.625
 40
0.625
 40
0.625
 40
0.625
 40
0.6875
 40
0.6875
 40
0.6875
 40
0.6875
 40
0.75
 40
0.75
 40
0.75
 40
0.75
 40
0.8125
 40
0.8125
 40
0.8125
 40
0.8125
 40
0.875
 40
0.875
 40
0.875
 40
0.875
 40
1.0
 40
1.0
 40
1.0
 40
1.0
 10
-2.38742
 20
10.14672
 30
0.0
 10
-2.38742
 20
10.14672
 30
0.0
 10
-2.32963
 20
10.1391
 30
0.0
 10
-2.32963
 20
10.1391
 30
0.0
 10
-2.32963
 20
10.1391
 30
0.0
 10
-2.33863
 20
10.10555
 30
0.0
 10
-2.35546
 20
10.07941
 30
0.0
 10
-2.38001
 20
10.06089
 30
0.0
 10
-2.38001
 20
10.06089
 30
0.0
 10
-2.40456
 20
10.04237
 30
0.0
 10
-2.43589
 20
10.03305
 30
0.0
 10
-2.4741
 20
10.03305
 30
0.0
 10
-2.4741
 20
10.03305
 30
0.0
 10
-2.52215
 20
10.03305
 30
0.0
 10
-2.56025
 20
10.04787
 30
0.0
 10
-2.5884
 20
10.07751
 30
0.0
 10
-2.5884
 20
10.07751
 30
0.0
 10
-2.61655
 20
10.10703
 30
0.0
 10
-2.63062
 20
10.14863
 30
0.0
 10
-2.63062
 20
10.20207
 30
0.0
 10
-2.63062
 20
10.20207
 30
0.0
 10
-2.63062
 20
10.25732
 30
0.0
 10
-2.61644
 20
10.30028
 30
0.0
 10
-2.58797
 20
10.33076
 30
0.0
 10
-2.58797
 20
10.33076
 30
0.0
 10
-2.5595
 20
10.36135
 30
0.0
 10
-2.52257
 20
10.37659
 30
0.0
 10
-2.47717
 20
10.37659
 30
0.0
 10
-2.47717
 20
10.37659
 30
0.0
 10
-2.43325
 20
10.37659
 30
0.0
 10
-2.39737
 20
10.36167
 30
0.0
 10
-2.36953
 20
10.33172
 30
0.0
 10
-2.36953
 20
10.33172
 30
0.0
 10
-2.3417
 20
10.30177
 30
0.0
 10
-2.32773
 20
10.25964
 30
0.0
 10
-2.32773
 20
10.20535
 30
0.0
 10
-2.32773
 20
10.20535
 30
0.0
 10
-2.32773
 20
10.20207
 30
0.0
 10
-2.32784
 20
10.1971
 30
0.0
 10
-2.32805
 20
10.19054
 30
0.0
 10
-2.32805
 20
10.19054
 30
0.0
 10
-2.32805
 20
10.19054
 30
0.0
 10
-2.57347
 20
10.19054
 30
0.0
 10
-2.57347
 20
10.19054
 30
0.0
 10
-2.57347
 20
10.19054
 30
0.0
 10
-2.57136
 20
10.15445
 30
0.0
 10
-2.5612
 20
10.12672
 30
0.0
 10
-2.54278
 20
10.10756
 30
0.0
 10
-2.54278
 20
10.10756
 30
0.0
 10
-2.52447
 20
10.08841
 30
0.0
 10
-2.50151
 20
10.07878
 30
0.0
 10
-2.4741
 20
10.07878
 30
0.0
 10
-2.4741
 20
10.07878
 30
0.0
 10
-2.45367
 20
10.07878
 30
0.0
 10
-2.43621
 20
10.08417
 30
0.0
 10
-2.42182
 20
10.09497
 30
0.0
 10
-2.42182
 20
10.09497
 30
0.0
 10
-2.40732
 20
10.10576
 30
0.0
 10
-2.39589
 20
10.12301
 30
0.0
 10
-2.38742
 20
10.14672
 30
0.0
  0
SPLINE
  5
BF
330
1F
100
AcDbEntity
  8
Laag 1
100
AcDbSpline
210
0.0
220
0.0
230
1.0
 70
    11
 71
     3
 72
    24
 73
    20
 74
     0
 42
0.0000000001
 43
0.0000000001
 12
1.0
 22
0.0
 32
0.0
 13
1.0
 23
0.0
 33
0.0
 40
0.0
 40
0.0
 40
0.0
 40
0.0
 40
0.1666666666666667
 40
0.1666666666666667
 40
0.1666666666666667
 40
0.1666666666666667
 40
0.3333333333333333
 40
0.3333333333333333
 40
0.3333333333333333
 40
0.3333333333333333
 40
0.5
 40
0.5
 40
0.5
 40
0.5
 40
0.6666666666666666
 40
0.6666666666666666
 40
0.6666666666666666
 40
0.6666666666666666
 40
1.0
 40
1.0
 40
1.0
 40
1.0
 10
-2.5703
 20
10.23626
 30
0.0
 10
-2.5703
 20
10.23626
 30
0.0
 10
-2.38678
 20
10.23626
 30
0.0
 10
-2.38678
 20
10.23626
 30
0.0
 10
-2.38678
 20
10.23626
 30
0.0
 10
-2.38922
 20
10.26398
 30
0.0
 10
-2.39631
 20
10.28473
 30
0.0
 10
-2.40785
 20
10.29859
 30
0.0
 10
-2.40785
 20
10.29859
 30
0.0
 10
-2.42552
 20
10.32008
 30
0.0
 10
-2.44859
 20
10.33087
 30
0.0
 10
-2.47685
 20
10.33087
 30
0.0
 10
-2.47685
 20
10.33087
 30
0.0
 10
-2.50246
 20
10.33087
 30
0.0
 10
-2.52394
 20
10.3223
 30
0.0
 10
-2.54141
 20
10.30515
 30
0.0
 10
-2.54141
 20
10.30515
 30
0.0
 10
-2.55876
 20
10.28801
 30
0.0
 10
-2.56839
 20
10.26504
 30
0.0
 10
-2.5703
 20
10.23626
 30
0.0
  0
SPLINE
  5
C0
330
1F
100
AcDbEntity
  8
Laag 1
100
AcDbSpline
210
0.0
220
0.0
230
1.0
 70
    11
 71
     3
 72
    56
 73
    52
 74
     0
 42
0.0000000001
 43
0.0000000001
 12
1.0
 22
0.0
 32
0.0
 13
1.0
 23
0.0
 33
0.0
 40
0.0
 40
0.0
 40
0.0
 40
0.0
 40
0.0714285714285714
 40
0.0714285714285714
 40
0.0714285714285714
 40
0.0714285714285714
 40
0.1428571428571428
 40
0.1428571428571428
 40
0.1428571428571428
 40
0.1428571428571428
 40
0.2142857142857143
 40
0.2142857142857143
 40
0.2142857142857143
 40
0.2142857142857143
 40
0.2857142857142857
 40
0.2857142857142857
 40
0.2857142857142857
 40
0.2857142857142857
 40
0.3571428571428572
 40
0.3571428571428572
 40
0.3571428571428572
 40
0.3571428571428572
 40
0.4285714285714285
 40
0.4285714285714285
 40
0.4285714285714285
 40
0.4285714285714285
 40
0.5
 40
0.5
 40
0.5
 40
0.5
 40
0.5714285714285714
 40
0.5714285714285714
 40
0.5714285714285714
 40
0.5714285714285714
 40
0.6428571428571429
 40
0.6428571428571429
 40
0.6428571428571429
 40
0.6428571428571429
 40
0.7142857142857143
 40
0.7142857142857143
 40
0.7142857142857143
 40
0.7142857142857143
 40
0.7857142857142857
 40
0.7857142857142857
 40
0.7857142857142857
 40
0.7857142857142857
 40
0.8571428571428571
 40
0.8571428571428571
 40
0.8571428571428571
 40
0.8571428571428571
 40
1.0
 40
1.0
 40
1.0
 40
1.0
 10
-2.25967
 20
10.04004
 30
0.0
 10
-2.25967
 20
10.04004
 30
0.0
 10
-2.25967
 20
10.36961
 30
0.0
 10
-2.25967
 20
10.36961
 30
0.0
 10
-2.25967
 20
10.36961
 30
0.0
 10
-2.25967
 20
10.36961
 30
0.0
 10
-2.20951
 20
10.36961
 30
0.0
 10
-2.20951
 20
10.36961
 30
0.0
 10
-2.20951
 20
10.36961
 30
0.0
 10
-2.20951
 20
10.36961
 30
0.0
 10
-2.20951
 20
10.31912
 30
0.0
 10
-2.20951
 20
10.31912
 30
0.0
 10
-2.20951
 20
10.31912
 30
0.0
 10
-2.1967
 20
10.34251
 30
0.0
 10
-2.18485
 20
10.35796
 30
0.0
 10
-2.17395
 20
10.36537
 30
0.0
 10
-2.17395
 20
10.36537
 30
0.0
 10
-2.16305
 20
10.37289
 30
0.0
 10
-2.15109
 20
10.37659
 30
0.0
 10
-2.13807
 20
10.37659
 30
0.0
 10
-2.13807
 20
10.37659
 30
0.0
 10
-2.11923
 20
10.37659
 30
0.0
 10
-2.10008
 20
10.37066
 30
0.0
 10
-2.0806
 20
10.35892
 30
0.0
 10
-2.0806
 20
10.35892
 30
0.0
 10
-2.0806
 20
10.35892
 30
0.0
 10
-2.1005
 20
10.30738
 30
0.0
 10
-2.1005
 20
10.30738
 30
0.0
 10
-2.1005
 20
10.30738
 30
0.0
 10
-2.11405
 20
10.315
 30
0.0
 10
-2.12759
 20
10.31881
 30
0.0
 10
-2.14114
 20
10.31881
 30
0.0
 10
-2.14114
 20
10.31881
 30
0.0
 10
-2.15331
 20
10.31881
 30
0.0
 10
-2.16421
 20
10.3151
 30
0.0
 10
-2.17384
 20
10.3078
 30
0.0
 10
-2.17384
 20
10.3078
 30
0.0
 10
-2.18347
 20
10.3005
 30
0.0
 10
-2.19035
 20
10.29034
 30
0.0
 10
-2.19448
 20
10.27732
 30
0.0
 10
-2.19448
 20
10.27732
 30
0.0
 10
-2.20073
 20
10.25753
 30
0.0
 10
-2.20379
 20
10.23583
 30
0.0
 10
-2.20379
 20
10.21223
 30
0.0
 10
-2.20379
 20
10.21223
 30
0.0
 10
-2.20379
 20
10.21223
 30
0.0
 10
-2.20379
 20
10.04004
 30
0.0
 10
-2.20379
 20
10.04004
 30
0.0
 10
-2.20379
 20
10.04004
 30
0.0
 10
-2.20379
 20
10.04004
 30
0.0
 10
-2.25967
 20
10.04004
 30
0.0
 10
-2.25967
 20
10.04004
 30
0.0
  0
SPLINE
  5
C1
330
1F
100
AcDbEntity
  8
Laag 1
100
AcDbSpline
210
0.0
220
0.0
230
1.0
 70
    11
 71
     3
 72
    92
 73
    88
 74
     0
 42
0.0000000001
 43
0.0000000001
 12
1.0
 22
0.0
 32
0.0
 13
1.0
 23
0.0
 33
0.0
 40
0.0
 40
0.0
 40
0.0
 40
0.0
 40
0.0434782608695652
 40
0.0434782608695652
 40
0.0434782608695652
 40
0.0434782608695652
 40
0.0869565217391304
 40
0.0869565217391304
 40
0.0869565217391304
 40
0.0869565217391304
 40
0.1304347826086956
 40
0.1304347826086956
 40
0.1304347826086956
 40
0.1304347826086956
 40
0.1739130434782609
 40
0.1739130434782609
 40
0.1739130434782609
 40
0.1739130434782609
 40
0.2173913043478261
 40
0.2173913043478261
 40
0.2173913043478261
 40
0.2173913043478261
 40
0.2608695652173913
 40
0.2608695652173913
 40
0.2608695652173913
 40
0.2608695652173913
 40
0.3043478260869565
 40
0.3043478260869565
 40
0.3043478260869565
 40
0.3043478260869565
 40
0.3478260869565217
 40
0.3478260869565217
 40
0.3478260869565217
 40
0.3478260869565217
 40
0.391304347826087
 40
0.391304347826087
 40
0.391304347826087
 40
0.391304347826087
 40
0.4347826086956522
 40
0.4347826086956522
 40
0.4347826086956522
 40
0.4347826086956522
 40
0.4782608695652174
 40
0.4782608695652174
 40
0.4782608695652174
 40
0.4782608695652174
 40
0.5217391304347826
 40
0.5217391304347826
 40
0.5217391304347826
 40
0.5217391304347826
 40
0.5652173913043478
 40
0.5652173913043478
 40
0.5652173913043478
 40
0.5652173913043478
 40
0.6086956521739131
 40
0.6086956521739131
 40
0.6086956521739131
 40
0.6086956521739131
 40
0.6521739130434783
 40
0.6521739130434783
 40
0.6521739130434783
 40
0.6521739130434783
 40
0.6956521739130435
 40
0.6956521739130435
 40
0.6956521739130435
 40
0.6956521739130435
 40
0.7391304347826086
 40
0.7391304347826086
 40
0.7391304347826086
 40
0.7391304347826086
 40
0.782608695652174
 40
0.782608695652174
 40
0.782608695652174
 40
0.782608695652174
 40
0.8260869565217391
 40
0.8260869565217391
 40
0.8260869565217391
 40
0.8260869565217391
 40
0.8695652173913043
 40
0.8695652173913043
 40
0.8695652173913043
 40
0.8695652173913043
 40
0.9130434782608695
 40
0.9130434782608695
 40
0.9130434782608695
 40
0.9130434782608695
 40
1.0
 40
1.0
 40
1.0
 40
1.0
 10
0.73519
 20
10.24172
 30
0.0
 10
0.73519
 20
10.24172
 30
0.0
 10
0.79551
 20
10.22648
 30
0.0
 10
0.79551
 20
10.22648
 30
0.0
 10
0.79551
 20
10.22648
 30
0.0
 10
0.78292
 20
10.17706
 30
0.0
 10
0.76027
 20
10.13949
 30
0.0
 10
0.72757
 20
10.11356
 30
0.0
 10
0.72757
 20
10.11356
 30
0.0
 10
0.69486
 20
10.08763
 30
0.0
 10
0.65486
 20
10.07461
 30
0.0
 10
0.60755
 20
10.07461
 30
0.0
 10
0.60755
 20
10.07461
 30
0.0
 10
0.55866
 20
10.07461
 30
0.0
 10
0.51886
 20
10.08456
 30
0.0
 10
0.48817
 20
10.10456
 30
0.0
 10
0.48817
 20
10.10456
 30
0.0
 10
0.45748
 20
10.12446
 30
0.0
 10
0.4342
 20
10.15335
 30
0.0
 10
0.41821
 20
10.19113
 30
0.0
 10
0.41821
 20
10.19113
 30
0.0
 10
0.40223
 20
10.22902
 30
0.0
 10
0.39419
 20
10.26956
 30
0.0
 10
0.39419
 20
10.31295
 30
0.0
 10
0.39419
 20
10.31295
 30
0.0
 10
0.39419
 20
10.36025
 30
0.0
 10
0.40319
 20
10.40153
 30
0.0
 10
0.42128
 20
10.43677
 30
0.0
 10
0.42128
 20
10.43677
 30
0.0
 10
0.43938
 20
10.47201
 30
0.0
 10
0.4651
 20
10.49879
 30
0.0
 10
0.49844
 20
10.5171
 30
0.0
 10
0.49844
 20
10.5171
 30
0.0
 10
0.53177
 20
10.53541
 30
0.0
 10
0.5685
 20
10.54451
 30
0.0
 10
0.6085
 20
10.54451
 30
0.0
 10
0.6085
 20
10.54451
 30
0.0
 10
0.65401
 20
10.54451
 30
0.0
 10
0.69222
 20
10.53297
 30
0.0
 10
0.72312
 20
10.5098
 30
0.0
 10
0.72312
 20
10.5098
 30
0.0
 10
0.75413
 20
10.48662
 30
0.0
 10
0.77572
 20
10.45413
 30
0.0
 10
0.78789
 20
10.41222
 30
0.0
 10
0.78789
 20
10.41222
 30
0.0
 10
0.78789
 20
10.41222
 30
0.0
 10
0.72884
 20
10.39825
 30
0.0
 10
0.72884
 20
10.39825
 30
0.0
 10
0.72884
 20
10.39825
 30
0.0
 10
0.71836
 20
10.43127
 30
0.0
 10
0.70301
 20
10.4554
 30
0.0
 10
0.68301
 20
10.47043
 30
0.0
 10
0.68301
 20
10.47043
 30
0.0
 10
0.66301
 20
10.48556
 30
0.0
 10
0.63782
 20
10.49308
 30
0.0
 10
0.60744
 20
10.49308
 30
0.0
 10
0.60744
 20
10.49308
 30
0.0
 10
0.57263
 20
10.49308
 30
0.0
 10
0.54342
 20
10.48471
 30
0.0
 10
0.52003
 20
10.46799
 30
0.0
 10
0.52003
 20
10.46799
 30
0.0
 10
0.49664
 20
10.45127
 30
0.0
 10
0.48013
 20
10.42873
 30
0.0
 10
0.47071
 20
10.40058
 30
0.0
 10
0.47071
 20
10.40058
 30
0.0
 10
0.46118
 20
10.37232
 30
0.0
 10
0.45642
 20
10.34322
 30
0.0
 10
0.45642
 20
10.31326
 30
0.0
 10
0.45642
 20
10.31326
 30
0.0
 10
0.45642
 20
10.27464
 30
0.0
 10
0.46203
 20
10.24087
 30
0.0
 10
0.47325
 20
10.21209
 30
0.0
 10
0.47325
 20
10.21209
 30
0.0
 10
0.48447
 20
10.1832
 30
0.0
 10
0.50193
 20
10.16171
 30
0.0
 10
0.52564
 20
10.14742
 30
0.0
 10
0.52564
 20
10.14742
 30
0.0
 10
0.54934
 20
10.13314
 30
0.0
 10
0.57495
 20
10.12605
 30
0.0
 10
0.60258
 20
10.12605
 30
0.0
 10
0.60258
 20
10.12605
 30
0.0
 10
0.63623
 20
10.12605
 30
0.0
 10
0.66459
 20
10.13578
 30
0.0
 10
0.68788
 20
10.15515
 30
0.0
 10
0.68788
 20
10.15515
 30
0.0
 10
0.71116
 20
10.17462
 30
0.0
 10
0.72693
 20
10.20341
 30
0.0
 10
0.73519
 20
10.24172
 30
0.0
  0
SPLINE
  5
C2
330
1F
100
AcDbEntity
  8
Laag 1
100
AcDbSpline
210
0.0
220
0.0
230
1.0
 70
    11
 71
     3
 72
    80
 73
    76
 74
     0
 42
0.0000000001
 43
0.0000000001
 12
1.0
 22
0.0
 32
0.0
 13
1.0
 23
0.0
 33
0.0
 40
0.0
 40
0.0
 40
0.0
 40
0.0
 40
0.05
 40
0.05
 40
0.05
 40
0.05
 40
0.1
 40
0.1
 40
0.1
 40
0.1
 40
0.15
 40
0.15
 40
0.15
 40
0.15
 40
0.2
 40
0.2
 40
0.2
 40
0.2
 40
0.25
 40
0.25
 40
0.25
 40
0.25
 40
0.3
 40
0.3
 40
0.3
 40
0.3
 40
0.35
 40
0.35
 40
0.35
 40
0.35
 40
0.4
 40
0.4
 40
0.4
 40
0.4
 40
0.45
 40
0.45
 40
0.45
 40
0.45
 40
0.5
 40
0.5
 40
0.5
 40
0.5
 40
0.55
 40
0.55
 40
0.55
 40
0.55
 40
0.6
 40
0.6
 40
0.6
 40
0.6
 40
0.65
 40
0.65
 40
0.65
 40
0.65
 40
0.7
 40
0.7
 40
0.7
 40
0.7
 40
0.75
 40
0.75
 40
0.75
 40
0.75
 40
0.8
 40
0.8
 40
0.8
 40
0.8
 40
0.85
 40
0.85
 40
0.85
 40
0.85
 40
0.9
 40
0.9
 40
0.9
 40
0.9
 40
1.0
 40
1.0
 40
1.0
 40
1.0
 10
1.0782
 20
10.08223
 30
0.0
 10
1.0782
 20
10.08223
 30
0.0
 10
1.0782
 20
10.13123
 30
0.0
 10
1.0782
 20
10.13123
 30
0.0
 10
1.0782
 20
10.13123
 30
0.0
 10
1.05258
 20
10.09387
 30
0.0
 10
1.01787
 20
10.07524
 30
0.0
 10
0.97395
 20
10.07524
 30
0.0
 10
0.97395
 20
10.07524
 30
0.0
 10
0.95458
 20
10.07524
 30
0.0
 10
0.93648
 20
10.07895
 30
0.0
 10
0.91966
 20
10.08636
 30
0.0
 10
0.91966
 20
10.08636
 30
0.0
 10
0.90283
 20
10.09387
 30
0.0
 10
0.89034
 20
10.10319
 30
0.0
 10
0.88219
 20
10.1144
 30
0.0
 10
0.88219
 20
10.1144
 30
0.0
 10
0.87404
 20
10.12573
 30
0.0
 10
0.86833
 20
10.13949
 30
0.0
 10
0.86505
 20
10.15578
 30
0.0
 10
0.86505
 20
10.15578
 30
0.0
 10
0.86282
 20
10.16679
 30
0.0
 10
0.86166
 20
10.18415
 30
0.0
 10
0.86166
 20
10.20785
 30
0.0
 10
0.86166
 20
10.20785
 30
0.0
 10
0.86166
 20
10.20785
 30
0.0
 10
0.86166
 20
10.4118
 30
0.0
 10
0.86166
 20
10.4118
 30
0.0
 10
0.86166
 20
10.4118
 30
0.0
 10
0.86166
 20
10.4118
 30
0.0
 10
0.91754
 20
10.4118
 30
0.0
 10
0.91754
 20
10.4118
 30
0.0
 10
0.91754
 20
10.4118
 30
0.0
 10
0.91754
 20
10.4118
 30
0.0
 10
0.91754
 20
10.22944
 30
0.0
 10
0.91754
 20
10.22944
 30
0.0
 10
0.91754
 20
10.22944
 30
0.0
 10
0.91754
 20
10.20034
 30
0.0
 10
0.9187
 20
10.18066
 30
0.0
 10
0.92093
 20
10.1706
 30
0.0
 10
0.92093
 20
10.1706
 30
0.0
 10
0.92442
 20
10.15589
 30
0.0
 10
0.93183
 20
10.14446
 30
0.0
 10
0.94326
 20
10.1361
 30
0.0
 10
0.94326
 20
10.1361
 30
0.0
 10
0.95458
 20
10.12774
 30
0.0
 10
0.96855
 20
10.12351
 30
0.0
 10
0.98527
 20
10.12351
 30
0.0
 10
0.98527
 20
10.12351
 30
0.0
 10
1.002
 20
10.12351
 30
0.0
 10
1.01766
 20
10.12774
 30
0.0
 10
1.03226
 20
10.13631
 30
0.0
 10
1.03226
 20
10.13631
 30
0.0
 10
1.04687
 20
10.14488
 30
0.0
 10
1.05724
 20
10.15663
 30
0.0
 10
1.06338
 20
10.17134
 30
0.0
 10
1.06338
 20
10.17134
 30
0.0
 10
1.06941
 20
10.18605
 30
0.0
 10
1.07248
 20
10.20754
 30
0.0
 10
1.07248
 20
10.23558
 30
0.0
 10
1.07248
 20
10.23558
 30
0.0
 10
1.07248
 20
10.23558
 30
0.0
 10
1.07248
 20
10.4118
 30
0.0
 10
1.07248
 20
10.4118
 30
0.0
 10
1.07248
 20
10.4118
 30
0.0
 10
1.07248
 20
10.4118
 30
0.0
 10
1.12836
 20
10.4118
 30
0.0
 10
1.12836
 20
10.4118
 30
0.0
 10
1.12836
 20
10.4118
 30
0.0
 10
1.12836
 20
10.4118
 30
0.0
 10
1.12836
 20
10.08223
 30
0.0
 10
1.12836
 20
10.08223
 30
0.0
 10
1.12836
 20
10.08223
 30
0.0
 10
1.12836
 20
10.08223
 30
0.0
 10
1.0782
 20
10.08223
 30
0.0
 10
1.0782
 20
10.08223
 30
0.0
  0
SPLINE
  5
C3
330
1F
100
AcDbEntity
  8
Laag 1
100
AcDbSpline
210
0.0
220
0.0
230
1.0
 70
    11
 71
     3
 72
    56
 73
    52
 74
     0
 42
0.0000000001
 43
0.0000000001
 12
1.0
 22
0.0
 32
0.0
 13
1.0
 23
0.0
 33
0.0
 40
0.0
 40
0.0
 40
0.0
 40
0.0
 40
0.0714285714285714
 40
0.0714285714285714
 40
0.0714285714285714
 40
0.0714285714285714
 40
0.1428571428571428
 40
0.1428571428571428
 40
0.1428571428571428
 40
0.1428571428571428
 40
0.2142857142857143
 40
0.2142857142857143
 40
0.2142857142857143
 40
0.2142857142857143
 40
0.2857142857142857
 40
0.2857142857142857
 40
0.2857142857142857
 40
0.2857142857142857
 40
0.3571428571428572
 40
0.3571428571428572
 40
0.3571428571428572
 40
0.3571428571428572
 40
0.4285714285714285
 40
0.4285714285714285
 40
0.4285714285714285
 40
0.4285714285714285
 40
0.5
 40
0.5
 40
0.5
 40
0.5
 40
0.5714285714285714
 40
0.5714285714285714
 40
0.5714285714285714
 40
0.5714285714285714
 40
0.6428571428571429
 40
0.6428571428571429
 40
0.6428571428571429
 40
0.6428571428571429
 40
0.7142857142857143
 40
0.7142857142857143
 40
0.7142857142857143
 40
0.7142857142857143
 40
0.7857142857142857
 40
0.7857142857142857
 40
0.7857142857142857
 40
0.7857142857142857
 40
0.8571428571428571
 40
0.8571428571428571
 40
0.8571428571428571
 40
0.8571428571428571
 40
1.0
 40
1.0
 40
1.0
 40
1.0
 10
1.21547
 20
10.08223
 30
0.0
 10
1.21547
 20
10.08223
 30
0.0
 10
1.21547
 20
10.4118
 30
0.0
 10
1.21547
 20
10.4118
 30
0.0
 10
1.21547
 20
10.4118
 30
0.0
 10
1.21547
 20
10.4118
 30
0.0
 10
1.26563
 20
10.4118
 30
0.0
 10
1.26563
 20
10.4118
 30
0.0
 10
1.26563
 20
10.4118
 30
0.0
 10
1.26563
 20
10.4118
 30
0.0
 10
1.26563
 20
10.36131
 30
0.0
 10
1.26563
 20
10.36131
 30
0.0
 10
1.26563
 20
10.36131
 30
0.0
 10
1.27844
 20
10.3847
 30
0.0
 10
1.29029
 20
10.40015
 30
0.0
 10
1.30119
 20
10.40756
 30
0.0
 10
1.30119
 20
10.40756
 30
0.0
 10
1.31209
 20
10.41508
 30
0.0
 10
1.32405
 20
10.41878
 30
0.0
 10
1.33707
 20
10.41878
 30
0.0
 10
1.33707
 20
10.41878
 30
0.0
 10
1.35591
 20
10.41878
 30
0.0
 10
1.37506
 20
10.41285
 30
0.0
 10
1.39454
 20
10.40111
 30
0.0
 10
1.39454
 20
10.40111
 30
0.0
 10
1.39454
 20
10.40111
 30
0.0
 10
1.37464
 20
10.34957
 30
0.0
 10
1.37464
 20
10.34957
 30
0.0
 10
1.37464
 20
10.34957
 30
0.0
 10
1.36109
 20
10.35719
 30
0.0
 10
1.34755
 20
10.361
 30
0.0
 10
1.334
 20
10.361
 30
0.0
 10
1.334
 20
10.361
 30
0.0
 10
1.32183
 20
10.361
 30
0.0
 10
1.31093
 20
10.35729
 30
0.0
 10
1.3013
 20
10.34999
 30
0.0
 10
1.3013
 20
10.34999
 30
0.0
 10
1.29167
 20
10.34269
 30
0.0
 10
1.28479
 20
10.33253
 30
0.0
 10
1.28066
 20
10.31951
 30
0.0
 10
1.28066
 20
10.31951
 30
0.0
 10
1.27441
 20
10.29972
 30
0.0
 10
1.27135
 20
10.27802
 30
0.0
 10
1.27135
 20
10.25442
 30
0.0
 10
1.27135
 20
10.25442
 30
0.0
 10
1.27135
 20
10.25442
 30
0.0
 10
1.27135
 20
10.08223
 30
0.0
 10
1.27135
 20
10.08223
 30
0.0
 10
1.27135
 20
10.08223
 30
0.0
 10
1.27135
 20
10.08223
 30
0.0
 10
1.21547
 20
10.08223
 30
0.0
 10
1.21547
 20
10.08223
 30
0.0
  0
SPLINE
  5
C4
330
1F
100
AcDbEntity
  8
Laag 1
100
AcDbSpline
210
0.0
220
0.0
230
1.0
 70
    11
 71
     3
 72
    56
 73
    52
 74
     0
 42
0.0000000001
 43
0.0000000001
 12
1.0
 22
0.0
 32
0.0
 13
1.0
 23
0.0
 33
0.0
 40
0.0
 40
0.0
 40
0.0
 40
0.0
 40
0.0714285714285714
 40
0.0714285714285714
 40
0.0714285714285714
 40
0.0714285714285714
 40
0.1428571428571428
 40
0.1428571428571428
 40
0.1428571428571428
 40
0.1428571428571428
 40
0.2142857142857143
 40
0.2142857142857143
 40
0.2142857142857143
 40
0.2142857142857143
 40
0.2857142857142857
 40
0.2857142857142857
 40
0.2857142857142857
 40
0.2857142857142857
 40
0.3571428571428572
 40
0.3571428571428572
 40
0.3571428571428572
 40
0.3571428571428572
 40
0.4285714285714285
 40
0.4285714285714285
 40
0.4285714285714285
 40
0.4285714285714285
 40
0.5
 40
0.5
 40
0.5
 40
0.5
 40
0.5714285714285714
 40
0.5714285714285714
 40
0.5714285714285714
 40
0.5714285714285714
 40
0.6428571428571429
 40
0.6428571428571429
 40
0.6428571428571429
 40
0.6428571428571429
 40
0.7142857142857143
 40
0.7142857142857143
 40
0.7142857142857143
 40
0.7142857142857143
 40
0.7857142857142857
 40
0.7857142857142857
 40
0.7857142857142857
 40
0.7857142857142857
 40
0.8571428571428571
 40
0.8571428571428571
 40
0.8571428571428571
 40
0.8571428571428571
 40
1.0
 40
1.0
 40
1.0
 40
1.0
 10
1.42693
 20
10.08223
 30
0.0
 10
1.42693
 20
10.08223
 30
0.0
 10
1.42693
 20
10.4118
 30
0.0
 10
1.42693
 20
10.4118
 30
0.0
 10
1.42693
 20
10.4118
 30
0.0
 10
1.42693
 20
10.4118
 30
0.0
 10
1.47709
 20
10.4118
 30
0.0
 10
1.47709
 20
10.4118
 30
0.0
 10
1.47709
 20
10.4118
 30
0.0
 10
1.47709
 20
10.4118
 30
0.0
 10
1.47709
 20
10.36131
 30
0.0
 10
1.47709
 20
10.36131
 30
0.0
 10
1.47709
 20
10.36131
 30
0.0
 10
1.4899
 20
10.3847
 30
0.0
 10
1.50175
 20
10.40015
 30
0.0
 10
1.51265
 20
10.40756
 30
0.0
 10
1.51265
 20
10.40756
 30
0.0
 10
1.52355
 20
10.41508
 30
0.0
 10
1.53551
 20
10.41878
 30
0.0
 10
1.54853
 20
10.41878
 30
0.0
 10
1.54853
 20
10.41878
 30
0.0
 10
1.56737
 20
10.41878
 30
0.0
 10
1.58652
 20
10.41285
 30
0.0
 10
1.606
 20
10.40111
 30
0.0
 10
1.606
 20
10.40111
 30
0.0
 10
1.606
 20
10.40111
 30
0.0
 10
1.5861
 20
10.34957
 30
0.0
 10
1.5861
 20
10.34957
 30
0.0
 10
1.5861
 20
10.34957
 30
0.0
 10
1.57255
 20
10.35719
 30
0.0
 10
1.55901
 20
10.361
 30
0.0
 10
1.54546
 20
10.361
 30
0.0
 10
1.54546
 20
10.361
 30
0.0
 10
1.53329
 20
10.361
 30
0.0
 10
1.52239
 20
10.35729
 30
0.0
 10
1.51276
 20
10.34999
 30
0.0
 10
1.51276
 20
10.34999
 30
0.0
 10
1.50313
 20
10.34269
 30
0.0
 10
1.49625
 20
10.33253
 30
0.0
 10
1.49212
 20
10.31951
 30
0.0
 10
1.49212
 20
10.31951
 30
0.0
 10
1.48587
 20
10.29972
 30
0.0
 10
1.48281
 20
10.27802
 30
0.0
 10
1.48281
 20
10.25442
 30
0.0
 10
1.48281
 20
10.25442
 30
0.0
 10
1.48281
 20
10.25442
 30
0.0
 10
1.48281
 20
10.08223
 30
0.0
 10
1.48281
 20
10.08223
 30
0.0
 10
1.48281
 20
10.08223
 30
0.0
 10
1.48281
 20
10.08223
 30
0.0
 10
1.42693
 20
10.08223
 30
0.0
 10
1.42693
 20
10.08223
 30
0.0
  0
SPLINE
  5
C5
330
1F
100
AcDbEntity
  8
Laag 1
100
AcDbSpline
210
0.0
220
0.0
230
1.0
 70
    11
 71
     3
 72
    64
 73
    60
 74
     0
 42
0.0000000001
 43
0.0000000001
 12
1.0
 22
0.0
 32
0.0
 13
1.0
 23
0.0
 33
0.0
 40
0.0
 40
0.0
 40
0.0
 40
0.0
 40
0.0625
 40
0.0625
 40
0.0625
 40
0.0625
 40
0.125
 40
0.125
 40
0.125
 40
0.125
 40
0.1875
 40
0.1875
 40
0.1875
 40
0.1875
 40
0.25
 40
0.25
 40
0.25
 40
0.25
 40
0.3125
 40
0.3125
 40
0.3125
 40
0.3125
 40
0.375
 40
0.375
 40
0.375
 40
0.375
 40
0.4375
 40
0.4375
 40
0.4375
 40
0.4375
 40
0.5
 40
0.5
 40
0.5
 40
0.5
 40
0.5625
 40
0.5625
 40
0.5625
 40
0.5625
 40
0.625
 40
0.625
 40
0.625
 40
0.625
 40
0.6875
 40
0.6875
 40
0.6875
 40
0.6875
 40
0.75
 40
0.75
 40
0.75
 40
0.75
 40
0.8125
 40
0.8125
 40
0.8125
 40
0.8125
 40
0.875
 40
0.875
 40
0.875
 40
0.875
 40
1.0
 40
1.0
 40
1.0
 40
1.0
 10
1.86381
 20
10.18891
 30
0.0
 10
1.86381
 20
10.18891
 30
0.0
 10
1.9216
 20
10.18129
 30
0.0
 10
1.9216
 20
10.18129
 30
0.0
 10
1.9216
 20
10.18129
 30
0.0
 10
1.9126
 20
10.14774
 30
0.0
 10
1.89577
 20
10.1216
 30
0.0
 10
1.87122
 20
10.10308
 30
0.0
 10
1.87122
 20
10.10308
 30
0.0
 10
1.84667
 20
10.08456
 30
0.0
 10
1.81534
 20
10.07524
 30
0.0
 10
1.77713
 20
10.07524
 30
0.0
 10
1.77713
 20
10.07524
 30
0.0
 10
1.72908
 20
10.07524
 30
0.0
 10
1.69098
 20
10.09006
 30
0.0
 10
1.66283
 20
10.1197
 30
0.0
 10
1.66283
 20
10.1197
 30
0.0
 10
1.63468
 20
10.14922
 30
0.0
 10
1.62061
 20
10.19082
 30
0.0
 10
1.62061
 20
10.24426
 30
0.0
 10
1.62061
 20
10.24426
 30
0.0
 10
1.62061
 20
10.29951
 30
0.0
 10
1.63479
 20
10.34247
 30
0.0
 10
1.66326
 20
10.37295
 30
0.0
 10
1.66326
 20
10.37295
 30
0.0
 10
1.69173
 20
10.40354
 30
0.0
 10
1.72866
 20
10.41878
 30
0.0
 10
1.77406
 20
10.41878
 30
0.0
 10
1.77406
 20
10.41878
 30
0.0
 10
1.81798
 20
10.41878
 30
0.0
 10
1.85386
 20
10.40386
 30
0.0
 10
1.8817
 20
10.37391
 30
0.0
 10
1.8817
 20
10.37391
 30
0.0
 10
1.90953
 20
10.34396
 30
0.0
 10
1.9235
 20
10.30183
 30
0.0
 10
1.9235
 20
10.24754
 30
0.0
 10
1.9235
 20
10.24754
 30
0.0
 10
1.9235
 20
10.24426
 30
0.0
 10
1.92339
 20
10.23929
 30
0.0
 10
1.92318
 20
10.23273
 30
0.0
 10
1.92318
 20
10.23273
 30
0.0
 10
1.92318
 20
10.23273
 30
0.0
 10
1.67776
 20
10.23273
 30
0.0
 10
1.67776
 20
10.23273
 30
0.0
 10
1.67776
 20
10.23273
 30
0.0
 10
1.67987
 20
10.19664
 30
0.0
 10
1.69003
 20
10.16891
 30
0.0
 10
1.70845
 20
10.14975
 30
0.0
 10
1.70845
 20
10.14975
 30
0.0
 10
1.72676
 20
10.1306
 30
0.0
 10
1.74972
 20
10.12097
 30
0.0
 10
1.77713
 20
10.12097
 30
0.0
 10
1.77713
 20
10.12097
 30
0.0
 10
1.79756
 20
10.12097
 30
0.0
 10
1.81502
 20
10.12636
 30
0.0
 10
1.82941
 20
10.13716
 30
0.0
 10
1.82941
 20
10.13716
 30
0.0
 10
1.84391
 20
10.14795
 30
0.0
 10
1.85534
 20
10.1652
 30
0.0
 10
1.86381
 20
10.18891
 30
0.0
  0
SPLINE
  5
C6
330
1F
100
AcDbEntity
  8
Laag 1
100
AcDbSpline
210
0.0
220
0.0
230
1.0
 70
    11
 71
     3
 72
    24
 73
    20
 74
     0
 42
0.0000000001
 43
0.0000000001
 12
1.0
 22
0.0
 32
0.0
 13
1.0
 23
0.0
 33
0.0
 40
0.0
 40
0.0
 40
0.0
 40
0.0
 40
0.1666666666666667
 40
0.1666666666666667
 40
0.1666666666666667
 40
0.1666666666666667
 40
0.3333333333333333
 40
0.3333333333333333
 40
0.3333333333333333
 40
0.3333333333333333
 40
0.5
 40
0.5
 40
0.5
 40
0.5
 40
0.6666666666666666
 40
0.6666666666666666
 40
0.6666666666666666
 40
0.6666666666666666
 40
1.0
 40
1.0
 40
1.0
 40
1.0
 10
1.68093
 20
10.27845
 30
0.0
 10
1.68093
 20
10.27845
 30
0.0
 10
1.86445
 20
10.27845
 30
0.0
 10
1.86445
 20
10.27845
 30
0.0
 10
1.86445
 20
10.27845
 30
0.0
 10
1.86201
 20
10.30617
 30
0.0
 10
1.85492
 20
10.32692
 30
0.0
 10
1.84338
 20
10.34078
 30
0.0
 10
1.84338
 20
10.34078
 30
0.0
 10
1.82571
 20
10.36227
 30
0.0
 10
1.80264
 20
10.37306
 30
0.0
 10
1.77438
 20
10.37306
 30
0.0
 10
1.77438
 20
10.37306
 30
0.0
 10
1.74877
 20
10.37306
 30
0.0
 10
1.72729
 20
10.36449
 30
0.0
 10
1.70982
 20
10.34734
 30
0.0
 10
1.70982
 20
10.34734
 30
0.0
 10
1.69247
 20
10.3302
 30
0.0
 10
1.68284
 20
10.30723
 30
0.0
 10
1.68093
 20
10.27845
 30
0.0
  0
SPLINE
  5
C7
330
1F
100
AcDbEntity
  8
Laag 1
100
AcDbSpline
210
0.0
220
0.0
230
1.0
 70
    11
 71
     3
 72
    76
 73
    72
 74
     0
 42
0.0000000001
 43
0.0000000001
 12
1.0
 22
0.0
 32
0.0
 13
1.0
 23
0.0
 33
0.0
 40
0.0
 40
0.0
 40
0.0
 40
0.0
 40
0.0526315789473684
 40
0.0526315789473684
 40
0.0526315789473684
 40
0.0526315789473684
 40
0.1052631578947368
 40
0.1052631578947368
 40
0.1052631578947368
 40
0.1052631578947368
 40
0.1578947368421053
 40
0.1578947368421053
 40
0.1578947368421053
 40
0.1578947368421053
 40
0.2105263157894737
 40
0.2105263157894737
 40
0.2105263157894737
 40
0.2105263157894737
 40
0.2631578947368421
 40
0.2631578947368421
 40
0.2631578947368421
 40
0.2631578947368421
 40
0.3157894736842105
 40
0.3157894736842105
 40
0.3157894736842105
 40
0.3157894736842105
 40
0.3684210526315789
 40
0.3684210526315789
 40
0.3684210526315789
 40
0.3684210526315789
 40
0.4210526315789473
 40
0.4210526315789473
 40
0.4210526315789473
 40
0.4210526315789473
 40
0.4736842105263158
 40
0.4736842105263158
 40
0.4736842105263158
 40
0.4736842105263158
 40
0.5263157894736842
 40
0.5263157894736842
 40
0.5263157894736842
 40
0.5263157894736842
 40
0.5789473684210527
 40
0.5789473684210527
 40
0.5789473684210527
 40
0.5789473684210527
 40
0.631578947368421
 40
0.631578947368421
 40
0.631578947368421
 40
0.631578947368421
 40
0.6842105263157895
 40
0.6842105263157895
 40
0.6842105263157895
 40
0.6842105263157895
 40
0.7368421052631579
 40
0.7368421052631579
 40
0.7368421052631579
 40
0.7368421052631579
 40
0.7894736842105263
 40
0.7894736842105263
 40
0.7894736842105263
 40
0.7894736842105263
 40
0.8421052631578947
 40
0.8421052631578947
 40
0.8421052631578947
 40
0.8421052631578947
 40
0.8947368421052632
 40
0.8947368421052632
 40
0.8947368421052632
 40
0.8947368421052632
 40
1.0
 40
1.0
 40
1.0
 40
1.0
 10
1.99219
 20
10.08223
 30
0.0
 10
1.99219
 20
10.08223
 30
0.0
 10
1.99219
 20
10.4118
 30
0.0
 10
1.99219
 20
10.4118
 30
0.0
 10
1.99219
 20
10.4118
 30
0.0
 10
1.99219
 20
10.4118
 30
0.0
 10
2.04236
 20
10.4118
 30
0.0
 10
2.04236
 20
10.4118
 30
0.0
 10
2.04236
 20
10.4118
 30
0.0
 10
2.04236
 20
10.4118
 30
0.0
 10
2.04236
 20
10.36502
 30
0.0
 10
2.04236
 20
10.36502
 30
0.0
 10
2.04236
 20
10.36502
 30
0.0
 10
2.06649
 20
10.40089
 30
0.0
 10
2.10141
 20
10.41878
 30
0.0
 10
2.14702
 20
10.41878
 30
0.0
 10
2.14702
 20
10.41878
 30
0.0
 10
2.16692
 20
10.41878
 30
0.0
 10
2.18512
 20
10.41518
 30
0.0
 10
2.20174
 20
10.40809
 30
0.0
 10
2.20174
 20
10.40809
 30
0.0
 10
2.21836
 20
10.401
 30
0.0
 10
2.23084
 20
10.39158
 30
0.0
 10
2.2391
 20
10.38005
 30
0.0
 10
2.2391
 20
10.38005
 30
0.0
 10
2.24735
 20
10.36851
 30
0.0
 10
2.25318
 20
10.35475
 30
0.0
 10
2.25646
 20
10.33888
 30
0.0
 10
2.25646
 20
10.33888
 30
0.0
 10
2.25847
 20
10.3285
 30
0.0
 10
2.25953
 20
10.31041
 30
0.0
 10
2.25953
 20
10.28458
 30
0.0
 10
2.25953
 20
10.28458
 30
0.0
 10
2.25953
 20
10.28458
 30
0.0
 10
2.25953
 20
10.08223
 30
0.0
 10
2.25953
 20
10.08223
 30
0.0
 10
2.25953
 20
10.08223
 30
0.0
 10
2.25953
 20
10.08223
 30
0.0
 10
2.20365
 20
10.08223
 30
0.0
 10
2.20365
 20
10.08223
 30
0.0
 10
2.20365
 20
10.08223
 30
0.0
 10
2.20365
 20
10.08223
 30
0.0
 10
2.20365
 20
10.28247
 30
0.0
 10
2.20365
 20
10.28247
 30
0.0
 10
2.20365
 20
10.28247
 30
0.0
 10
2.20365
 20
10.30522
 30
0.0
 10
2.20153
 20
10.32226
 30
0.0
 10
2.19719
 20
10.33348
 30
0.0
 10
2.19719
 20
10.33348
 30
0.0
 10
2.19285
 20
10.3447
 30
0.0
 10
2.18512
 20
10.35369
 30
0.0
 10
2.17412
 20
10.36047
 30
0.0
 10
2.17412
 20
10.36047
 30
0.0
 10
2.16311
 20
10.36713
 30
0.0
 10
2.15009
 20
10.37052
 30
0.0
 10
2.13528
 20
10.37052
 30
0.0
 10
2.13528
 20
10.37052
 30
0.0
 10
2.11157
 20
10.37052
 30
0.0
 10
2.09114
 20
10.36301
 30
0.0
 10
2.07389
 20
10.34787
 30
0.0
 10
2.07389
 20
10.34787
 30
0.0
 10
2.05664
 20
10.33284
 30
0.0
 10
2.04807
 20
10.30416
 30
0.0
 10
2.04807
 20
10.26204
 30
0.0
 10
2.04807
 20
10.26204
 30
0.0
 10
2.04807
 20
10.26204
 30
0.0
 10
2.04807
 20
10.08223
 30
0.0
 10
2.04807
 20
10.08223
 30
0.0
 10
2.04807
 20
10.08223
 30
0.0
 10
2.04807
 20
10.08223
 30
0.0
 10
1.99219
 20
10.08223
 30
0.0
 10
1.99219
 20
10.08223
 30
0.0
  0
SPLINE
  5
C8
330
1F
100
AcDbEntity
  8
Laag 1
100
AcDbSpline
210
0.0
220
0.0
230
1.0
 70
    11
 71
     3
 72
    84
 73
    80
 74
     0
 42
0.0000000001
 43
0.0000000001
 12
1.0
 22
0.0
 32
0.0
 13
1.0
 23
0.0
 33
0.0
 40
0.0
 40
0.0
 40
0.0
 40
0.0
 40
0.0476190476190476
 40
0.0476190476190476
 40
0.0476190476190476
 40
0.0476190476190476
 40
0.0952380952380952
 40
0.0952380952380952
 40
0.0952380952380952
 40
0.0952380952380952
 40
0.1428571428571428
 40
0.1428571428571428
 40
0.1428571428571428
 40
0.1428571428571428
 40
0.1904761904761905
 40
0.1904761904761905
 40
0.1904761904761905
 40
0.1904761904761905
 40
0.2380952380952381
 40
0.2380952380952381
 40
0.2380952380952381
 40
0.2380952380952381
 40
0.2857142857142857
 40
0.2857142857142857
 40
0.2857142857142857
 40
0.2857142857142857
 40
0.3333333333333333
 40
0.3333333333333333
 40
0.3333333333333333
 40
0.3333333333333333
 40
0.3809523809523809
 40
0.3809523809523809
 40
0.3809523809523809
 40
0.3809523809523809
 40
0.4285714285714285
 40
0.4285714285714285
 40
0.4285714285714285
 40
0.4285714285714285
 40
0.4761904761904762
 40
0.4761904761904762
 40
0.4761904761904762
 40
0.4761904761904762
 40
0.5238095238095238
 40
0.5238095238095238
 40
0.5238095238095238
 40
0.5238095238095238
 40
0.5714285714285714
 40
0.5714285714285714
 40
0.5714285714285714
 40
0.5714285714285714
 40
0.6190476190476191
 40
0.6190476190476191
 40
0.6190476190476191
 40
0.6190476190476191
 40
0.6666666666666666
 40
0.6666666666666666
 40
0.6666666666666666
 40
0.6666666666666666
 40
0.7142857142857143
 40
0.7142857142857143
 40
0.7142857142857143
 40
0.7142857142857143
 40
0.7619047619047619
 40
0.7619047619047619
 40
0.7619047619047619
 40
0.7619047619047619
 40
0.8095238095238095
 40
0.8095238095238095
 40
0.8095238095238095
 40
0.8095238095238095
 40
0.8571428571428571
 40
0.8571428571428571
 40
0.8571428571428571
 40
0.8571428571428571
 40
0.9047619047619048
 40
0.9047619047619048
 40
0.9047619047619048
 40
0.9047619047619048
 40
1.0
 40
1.0
 40
1.0
 40
1.0
 10
2.46665
 20
10.13208
 30
0.0
 10
2.46665
 20
10.13208
 30
0.0
 10
2.47427
 20
10.08276
 30
0.0
 10
2.47427
 20
10.08276
 30
0.0
 10
2.47427
 20
10.08276
 30
0.0
 10
2.4586
 20
10.07948
 30
0.0
 10
2.44453
 20
10.07778
 30
0.0
 10
2.43225
 20
10.07778
 30
0.0
 10
2.43225
 20
10.07778
 30
0.0
 10
2.41204
 20
10.07778
 30
0.0
 10
2.39637
 20
10.08096
 30
0.0
 10
2.38515
 20
10.08742
 30
0.0
 10
2.38515
 20
10.08742
 30
0.0
 10
2.37404
 20
10.09387
 30
0.0
 10
2.36621
 20
10.10223
 30
0.0
 10
2.36166
 20
10.11271
 30
0.0
 10
2.36166
 20
10.11271
 30
0.0
 10
2.35711
 20
10.12319
 30
0.0
 10
2.35489
 20
10.1452
 30
0.0
 10
2.35489
 20
10.17875
 30
0.0
 10
2.35489
 20
10.17875
 30
0.0
 10
2.35489
 20
10.17875
 30
0.0
 10
2.35489
 20
10.36862
 30
0.0
 10
2.35489
 20
10.36862
 30
0.0
 10
2.35489
 20
10.36862
 30
0.0
 10
2.35489
 20
10.36862
 30
0.0
 10
2.31361
 20
10.36862
 30
0.0
 10
2.31361
 20
10.36862
 30
0.0
 10
2.31361
 20
10.36862
 30
0.0
 10
2.31361
 20
10.36862
 30
0.0
 10
2.31361
 20
10.4118
 30
0.0
 10
2.31361
 20
10.4118
 30
0.0
 10
2.31361
 20
10.4118
 30
0.0
 10
2.31361
 20
10.4118
 30
0.0
 10
2.35489
 20
10.4118
 30
0.0
 10
2.35489
 20
10.4118
 30
0.0
 10
2.35489
 20
10.4118
 30
0.0
 10
2.35489
 20
10.4118
 30
0.0
 10
2.35489
 20
10.49329
 30
0.0
 10
2.35489
 20
10.49329
 30
0.0
 10
2.35489
 20
10.49329
 30
0.0
 10
2.35489
 20
10.49329
 30
0.0
 10
2.41077
 20
10.52684
 30
0.0
 10
2.41077
 20
10.52684
 30
0.0
 10
2.41077
 20
10.52684
 30
0.0
 10
2.41077
 20
10.52684
 30
0.0
 10
2.41077
 20
10.4118
 30
0.0
 10
2.41077
 20
10.4118
 30
0.0
 10
2.41077
 20
10.4118
 30
0.0
 10
2.41077
 20
10.4118
 30
0.0
 10
2.46665
 20
10.4118
 30
0.0
 10
2.46665
 20
10.4118
 30
0.0
 10
2.46665
 20
10.4118
 30
0.0
 10
2.46665
 20
10.4118
 30
0.0
 10
2.46665
 20
10.36862
 30
0.0
 10
2.46665
 20
10.36862
 30
0.0
 10
2.46665
 20
10.36862
 30
0.0
 10
2.46665
 20
10.36862
 30
0.0
 10
2.41077
 20
10.36862
 30
0.0
 10
2.41077
 20
10.36862
 30
0.0
 10
2.41077
 20
10.36862
 30
0.0
 10
2.41077
 20
10.36862
 30
0.0
 10
2.41077
 20
10.17558
 30
0.0
 10
2.41077
 20
10.17558
 30
0.0
 10
2.41077
 20
10.17558
 30
0.0
 10
2.41077
 20
10.15959
 30
0.0
 10
2.41172
 20
10.14933
 30
0.0
 10
2.41373
 20
10.14478
 30
0.0
 10
2.41373
 20
10.14478
 30
0.0
 10
2.41563
 20
10.14023
 30
0.0
 10
2.41881
 20
10.13663
 30
0.0
 10
2.42325
 20
10.13388
 30
0.0
 10
2.42325
 20
10.13388
 30
0.0
 10
2.4277
 20
10.13123
 30
0.0
 10
2.43405
 20
10.12986
 30
0.0
 10
2.4423
 20
10.12986
 30
0.0
 10
2.4423
 20
10.12986
 30
0.0
 10
2.44844
 20
10.12986
 30
0.0
 10
2.45659
 20
10.1306
 30
0.0
 10
2.46665
 20
10.13208
 30
0.0
  0
SPLINE
  5
C9
330
1F
100
AcDbEntity
  8
Laag 1
100
AcDbSpline
210
0.0
220
0.0
230
1.0
 70
    11
 71
     3
 72
    80
 73
    76
 74
     0
 42
0.0000000001
 43
0.0000000001
 12
1.0
 22
0.0
 32
0.0
 13
1.0
 23
0.0
 33
0.0
 40
0.0
 40
0.0
 40
0.0
 40
0.0
 40
0.05
 40
0.05
 40
0.05
 40
0.05
 40
0.1
 40
0.1
 40
0.1
 40
0.1
 40
0.15
 40
0.15
 40
0.15
 40
0.15
 40
0.2
 40
0.2
 40
0.2
 40
0.2
 40
0.25
 40
0.25
 40
0.25
 40
0.25
 40
0.3
 40
0.3
 40
0.3
 40
0.3
 40
0.35
 40
0.35
 40
0.35
 40
0.35
 40
0.4
 40
0.4
 40
0.4
 40
0.4
 40
0.45
 40
0.45
 40
0.45
 40
0.45
 40
0.5
 40
0.5
 40
0.5
 40
0.5
 40
0.55
 40
0.55
 40
0.55
 40
0.55
 40
0.6
 40
0.6
 40
0.6
 40
0.6
 40
0.65
 40
0.65
 40
0.65
 40
0.65
 40
0.7
 40
0.7
 40
0.7
 40
0.7
 40
0.75
 40
0.75
 40
0.75
 40
0.75
 40
0.8
 40
0.8
 40
0.8
 40
0.8
 40
0.85
 40
0.85
 40
0.85
 40
0.85
 40
0.9
 40
0.9
 40
0.9
 40
0.9
 40
1.0
 40
1.0
 40
1.0
 40
1.0
 10
2.70646
 20
10.08223
 30
0.0
 10
2.70646
 20
10.08223
 30
0.0
 10
2.70646
 20
10.53689
 30
0.0
 10
2.70646
 20
10.53689
 30
0.0
 10
2.70646
 20
10.53689
 30
0.0
 10
2.70646
 20
10.53689
 30
0.0
 10
2.90796
 20
10.53689
 30
0.0
 10
2.90796
 20
10.53689
 30
0.0
 10
2.90796
 20
10.53689
 30
0.0
 10
2.9485
 20
10.53689
 30
0.0
 10
2.97929
 20
10.53276
 30
0.0
 10
3.00035
 20
10.52461
 30
0.0
 10
3.00035
 20
10.52461
 30
0.0
 10
3.02142
 20
10.51646
 30
0.0
 10
3.03824
 20
10.50207
 30
0.0
 10
3.05084
 20
10.48143
 30
0.0
 10
3.05084
 20
10.48143
 30
0.0
 10
3.06343
 20
10.4608
 30
0.0
 10
3.06968
 20
10.43794
 30
0.0
 10
3.06968
 20
10.41296
 30
0.0
 10
3.06968
 20
10.41296
 30
0.0
 10
3.06968
 20
10.38068
 30
0.0
 10
3.0592
 20
10.35348
 30
0.0
 10
3.03835
 20
10.33136
 30
0.0
 10
3.03835
 20
10.33136
 30
0.0
 10
3.0175
 20
10.30924
 30
0.0
 10
2.98533
 20
10.29527
 30
0.0
 10
2.94172
 20
10.28924
 30
0.0
 10
2.94172
 20
10.28924
 30
0.0
 10
2.9577
 20
10.28162
 30
0.0
 10
2.96977
 20
10.274
 30
0.0
 10
2.97802
 20
10.26659
 30
0.0
 10
2.97802
 20
10.26659
 30
0.0
 10
2.99559
 20
10.25051
 30
0.0
 10
3.01221
 20
10.23029
 30
0.0
 10
3.02777
 20
10.20606
 30
0.0
 10
3.02777
 20
10.20606
 30
0.0
 10
3.02777
 20
10.20606
 30
0.0
 10
3.1064
 20
10.08223
 30
0.0
 10
3.1064
 20
10.08223
 30
0.0
 10
3.1064
 20
10.08223
 30
0.0
 10
3.1064
 20
10.08223
 30
0.0
 10
3.03126
 20
10.08223
 30
0.0
 10
3.03126
 20
10.08223
 30
0.0
 10
3.03126
 20
10.08223
 30
0.0
 10
3.03126
 20
10.08223
 30
0.0
 10
2.97114
 20
10.17685
 30
0.0
 10
2.97114
 20
10.17685
 30
0.0
 10
2.97114
 20
10.17685
 30
0.0
 10
2.95368
 20
10.20426
 30
0.0
 10
2.93918
 20
10.22511
 30
0.0
 10
2.92786
 20
10.2396
 30
0.0
 10
2.92786
 20
10.2396
 30
0.0
 10
2.91643
 20
10.2541
 30
0.0
 10
2.90627
 20
10.26416
 30
0.0
 10
2.89727
 20
10.26998
 30
0.0
 10
2.89727
 20
10.26998
 30
0.0
 10
2.88838
 20
10.27569
 30
0.0
 10
2.87918
 20
10.27972
 30
0.0
 10
2.86986
 20
10.28204
 30
0.0
 10
2.86986
 20
10.28204
 30
0.0
 10
2.86309
 20
10.28342
 30
0.0
 10
2.85198
 20
10.28416
 30
0.0
 10
2.83642
 20
10.28416
 30
0.0
 10
2.83642
 20
10.28416
 30
0.0
 10
2.83642
 20
10.28416
 30
0.0
 10
2.76678
 20
10.28416
 30
0.0
 10
2.76678
 20
10.28416
 30
0.0
 10
2.76678
 20
10.28416
 30
0.0
 10
2.76678
 20
10.28416
 30
0.0
 10
2.76678
 20
10.08223
 30
0.0
 10
2.76678
 20
10.08223
 30
0.0
 10
2.76678
 20
10.08223
 30
0.0
 10
2.76678
 20
10.08223
 30
0.0
 10
2.70646
 20
10.08223
 30
0.0
 10
2.70646
 20
10.08223
 30
0.0
  0
SPLINE
  5
CA
330
1F
100
AcDbEntity
  8
Laag 1
100
AcDbSpline
210
0.0
220
0.0
230
1.0
 70
    11
 71
     3
 72
    36
 73
    32
 74
     0
 42
0.0000000001
 43
0.0000000001
 12
1.0
 22
0.0
 32
0.0
 13
1.0
 23
0.0
 33
0.0
 40
0.0
 40
0.0
 40
0.0
 40
0.0
 40
0.1111111111111111
 40
0.1111111111111111
 40
0.1111111111111111
 40
0.1111111111111111
 40
0.2222222222222222
 40
0.2222222222222222
 40
0.2222222222222222
 40
0.2222222222222222
 40
0.3333333333333333
 40
0.3333333333333333
 40
0.3333333333333333
 40
0.3333333333333333
 40
0.4444444444444444
 40
0.4444444444444444
 40
0.4444444444444444
 40
0.4444444444444444
 40
0.5555555555555556
 40
0.5555555555555556
 40
0.5555555555555556
 40
0.5555555555555556
 40
0.6666666666666666
 40
0.6666666666666666
 40
0.6666666666666666
 40
0.6666666666666666
 40
0.7777777777777778
 40
0.7777777777777778
 40
0.7777777777777778
 40
0.7777777777777778
 40
1.0
 40
1.0
 40
1.0
 40
1.0
 10
2.76678
 20
10.33623
 30
0.0
 10
2.76678
 20
10.33623
 30
0.0
 10
2.8959
 20
10.33623
 30
0.0
 10
2.8959
 20
10.33623
 30
0.0
 10
2.8959
 20
10.33623
 30
0.0
 10
2.92341
 20
10.33623
 30
0.0
 10
2.94479
 20
10.33909
 30
0.0
 10
2.96024
 20
10.3448
 30
0.0
 10
2.96024
 20
10.3448
 30
0.0
 10
2.9757
 20
10.35041
 30
0.0
 10
2.98744
 20
10.35951
 30
0.0
 10
2.99538
 20
10.37211
 30
0.0
 10
2.99538
 20
10.37211
 30
0.0
 10
3.00342
 20
10.3846
 30
0.0
 10
3.00745
 20
10.39814
 30
0.0
 10
3.00745
 20
10.41285
 30
0.0
 10
3.00745
 20
10.41285
 30
0.0
 10
3.00745
 20
10.43434
 30
0.0
 10
2.99972
 20
10.45212
 30
0.0
 10
2.98416
 20
10.46598
 30
0.0
 10
2.98416
 20
10.46598
 30
0.0
 10
2.9686
 20
10.47985
 30
0.0
 10
2.94405
 20
10.48673
 30
0.0
 10
2.9105
 20
10.48673
 30
0.0
 10
2.9105
 20
10.48673
 30
0.0
 10
2.9105
 20
10.48673
 30
0.0
 10
2.76678
 20
10.48673
 30
0.0
 10
2.76678
 20
10.48673
 30
0.0
 10
2.76678
 20
10.48673
 30
0.0
 10
2.76678
 20
10.48673
 30
0.0
 10
2.76678
 20
10.33623
 30
0.0
 10
2.76678
 20
10.33623
 30
0.0
  0
SPLINE
  5
CB
330
1F
100
AcDbEntity
  8
Laag 1
100
AcDbSpline
210
0.0
220
0.0
230
1.0
 70
    11
 71
     3
 72
    64
 73
    60
 74
     0
 42
0.0000000001
 43
0.0000000001
 12
1.0
 22
0.0
 32
0.0
 13
1.0
 23
0.0
 33
0.0
 40
0.0
 40
0.0
 40
0.0
 40
0.0
 40
0.0625
 40
0.0625
 40
0.0625
 40
0.0625
 40
0.125
 40
0.125
 40
0.125
 40
0.125
 40
0.1875
 40
0.1875
 40
0.1875
 40
0.1875
 40
0.25
 40
0.25
 40
0.25
 40
0.25
 40
0.3125
 40
0.3125
 40
0.3125
 40
0.3125
 40
0.375
 40
0.375
 40
0.375
 40
0.375
 40
0.4375
 40
0.4375
 40
0.4375
 40
0.4375
 40
0.5
 40
0.5
 40
0.5
 40
0.5
 40
0.5625
 40
0.5625
 40
0.5625
 40
0.5625
 40
0.625
 40
0.625
 40
0.625
 40
0.625
 40
0.6875
 40
0.6875
 40
0.6875
 40
0.6875
 40
0.75
 40
0.75
 40
0.75
 40
0.75
 40
0.8125
 40
0.8125
 40
0.8125
 40
0.8125
 40
0.875
 40
0.875
 40
0.875
 40
0.875
 40
1.0
 40
1.0
 40
1.0
 40
1.0
 10
3.38157
 20
10.18891
 30
0.0
 10
3.38157
 20
10.18891
 30
0.0
 10
3.43936
 20
10.18129
 30
0.0
 10
3.43936
 20
10.18129
 30
0.0
 10
3.43936
 20
10.18129
 30
0.0
 10
3.43036
 20
10.14774
 30
0.0
 10
3.41353
 20
10.1216
 30
0.0
 10
3.38898
 20
10.10308
 30
0.0
 10
3.38898
 20
10.10308
 30
0.0
 10
3.36443
 20
10.08456
 30
0.0
 10
3.3331
 20
10.07524
 30
0.0
 10
3.29489
 20
10.07524
 30
0.0
 10
3.29489
 20
10.07524
 30
0.0
 10
3.24684
 20
10.07524
 30
0.0
 10
3.20874
 20
10.09006
 30
0.0
 10
3.18059
 20
10.1197
 30
0.0
 10
3.18059
 20
10.1197
 30
0.0
 10
3.15244
 20
10.14922
 30
0.0
 10
3.13837
 20
10.19082
 30
0.0
 10
3.13837
 20
10.24426
 30
0.0
 10
3.13837
 20
10.24426
 30
0.0
 10
3.13837
 20
10.29951
 30
0.0
 10
3.15255
 20
10.34247
 30
0.0
 10
3.18102
 20
10.37295
 30
0.0
 10
3.18102
 20
10.37295
 30
0.0
 10
3.20949
 20
10.40354
 30
0.0
 10
3.24642
 20
10.41878
 30
0.0
 10
3.29182
 20
10.41878
 30
0.0
 10
3.29182
 20
10.41878
 30
0.0
 10
3.33574
 20
10.41878
 30
0.0
 10
3.37162
 20
10.40386
 30
0.0
 10
3.39946
 20
10.37391
 30
0.0
 10
3.39946
 20
10.37391
 30
0.0
 10
3.42729
 20
10.34396
 30
0.0
 10
3.44126
 20
10.30183
 30
0.0
 10
3.44126
 20
10.24754
 30
0.0
 10
3.44126
 20
10.24754
 30
0.0
 10
3.44126
 20
10.24426
 30
0.0
 10
3.44115
 20
10.23929
 30
0.0
 10
3.44094
 20
10.23273
 30
0.0
 10
3.44094
 20
10.23273
 30
0.0
 10
3.44094
 20
10.23273
 30
0.0
 10
3.19552
 20
10.23273
 30
0.0
 10
3.19552
 20
10.23273
 30
0.0
 10
3.19552
 20
10.23273
 30
0.0
 10
3.19763
 20
10.19664
 30
0.0
 10
3.20779
 20
10.16891
 30
0.0
 10
3.22621
 20
10.14975
 30
0.0
 10
3.22621
 20
10.14975
 30
0.0
 10
3.24452
 20
10.1306
 30
0.0
 10
3.26748
 20
10.12097
 30
0.0
 10
3.29489
 20
10.12097
 30
0.0
 10
3.29489
 20
10.12097
 30
0.0
 10
3.31532
 20
10.12097
 30
0.0
 10
3.33278
 20
10.12636
 30
0.0
 10
3.34717
 20
10.13716
 30
0.0
 10
3.34717
 20
10.13716
 30
0.0
 10
3.36167
 20
10.14795
 30
0.0
 10
3.3731
 20
10.1652
 30
0.0
 10
3.38157
 20
10.18891
 30
0.0
  0
SPLINE
  5
CC
330
1F
100
AcDbEntity
  8
Laag 1
100
AcDbSpline
210
0.0
220
0.0
230
1.0
 70
    11
 71
     3
 72
    24
 73
    20
 74
     0
 42
0.0000000001
 43
0.0000000001
 12
1.0
 22
0.0
 32
0.0
 13
1.0
 23
0.0
 33
0.0
 40
0.0
 40
0.0
 40
0.0
 40
0.0
 40
0.1666666666666667
 40
0.1666666666666667
 40
0.1666666666666667
 40
0.1666666666666667
 40
0.3333333333333333
 40
0.3333333333333333
 40
0.3333333333333333
 40
0.3333333333333333
 40
0.5
 40
0.5
 40
0.5
 40
0.5
 40
0.6666666666666666
 40
0.6666666666666666
 40
0.6666666666666666
 40
0.6666666666666666
 40
1.0
 40
1.0
 40
1.0
 40
1.0
 10
3.19869
 20
10.27845
 30
0.0
 10
3.19869
 20
10.27845
 30
0.0
 10
3.38221
 20
10.27845
 30
0.0
 10
3.38221
 20
10.27845
 30
0.0
 10
3.38221
 20
10.27845
 30
0.0
 10
3.37977
 20
10.30617
 30
0.0
 10
3.37268
 20
10.32692
 30
0.0
 10
3.36114
 20
10.34078
 30
0.0
 10
3.36114
 20
10.34078
 30
0.0
 10
3.34347
 20
10.36227
 30
0.0
 10
3.3204
 20
10.37306
 30
0.0
 10
3.29214
 20
10.37306
 30
0.0
 10
3.29214
 20
10.37306
 30
0.0
 10
3.26653
 20
10.37306
 30
0.0
 10
3.24505
 20
10.36449
 30
0.0
 10
3.22758
 20
10.34734
 30
0.0
 10
3.22758
 20
10.34734
 30
0.0
 10
3.21023
 20
10.3302
 30
0.0
 10
3.2006
 20
10.30723
 30
0.0
 10
3.19869
 20
10.27845
 30
0.0
  0
SPLINE
  5
CD
330
1F
100
AcDbEntity
  8
Laag 1
100
AcDbSpline
210
0.0
220
0.0
230
1.0
 70
    11
 71
     3
 72
    88
 73
    84
 74
     0
 42
0.0000000001
 43
0.0000000001
 12
1.0
 22
0.0
 32
0.0
 13
1.0
 23
0.0
 33
0.0
 40
0.0
 40
0.0
 40
0.0
 40
0.0
 40
0.0454545454545455
 40
0.0454545454545455
 40
0.0454545454545455
 40
0.0454545454545455
 40
0.0909090909090909
 40
0.0909090909090909
 40
0.0909090909090909
 40
0.0909090909090909
 40
0.1363636363636364
 40
0.1363636363636364
 40
0.1363636363636364
 40
0.1363636363636364
 40
0.1818181818181818
 40
0.1818181818181818
 40
0.1818181818181818
 40
0.1818181818181818
 40
0.2272727272727273
 40
0.2272727272727273
 40
0.2272727272727273
 40
0.2272727272727273
 40
0.2727272727272727
 40
0.2727272727272727
 40
0.2727272727272727
 40
0.2727272727272727
 40
0.3181818181818182
 40
0.3181818181818182
 40
0.3181818181818182
 40
0.3181818181818182
 40
0.3636363636363636
 40
0.3636363636363636
 40
0.3636363636363636
 40
0.3636363636363636
 40
0.4090909090909091
 40
0.4090909090909091
 40
0.4090909090909091
 40
0.4090909090909091
 40
0.4545454545454545
 40
0.4545454545454545
 40
0.4545454545454545
 40
0.4545454545454545
 40
0.5
 40
0.5
 40
0.5
 40
0.5
 40
0.5454545454545454
 40
0.5454545454545454
 40
0.5454545454545454
 40
0.5454545454545454
 40
0.5909090909090909
 40
0.5909090909090909
 40
0.5909090909090909
 40
0.5909090909090909
 40
0.6363636363636364
 40
0.6363636363636364
 40
0.6363636363636364
 40
0.6363636363636364
 40
0.6818181818181818
 40
0.6818181818181818
 40
0.6818181818181818
 40
0.6818181818181818
 40
0.7272727272727273
 40
0.7272727272727273
 40
0.7272727272727273
 40
0.7272727272727273
 40
0.7727272727272727
 40
0.7727272727272727
 40
0.7727272727272727
 40
0.7727272727272727
 40
0.8181818181818182
 40
0.8181818181818182
 40
0.8181818181818182
 40
0.8181818181818182
 40
0.8636363636363636
 40
0.8636363636363636
 40
0.8636363636363636
 40
0.8636363636363636
 40
0.9090909090909091
 40
0.9090909090909091
 40
0.9090909090909091
 40
0.9090909090909091
 40
1.0
 40
1.0
 40
1.0
 40
1.0
 10
3.49968
 20
10.05492
 30
0.0
 10
3.49968
 20
10.05492
 30
0.0
 10
3.55366
 20
10.0473
 30
0.0
 10
3.55366
 20
10.0473
 30
0.0
 10
3.55366
 20
10.0473
 30
0.0
 10
3.55588
 20
10.03058
 30
0.0
 10
3.56223
 20
10.01841
 30
0.0
 10
3.5726
 20
10.01069
 30
0.0
 10
3.5726
 20
10.01069
 30
0.0
 10
3.58647
 20
10.00042
 30
0.0
 10
3.60541
 20
9.99523
 30
0.0
 10
3.62944
 20
9.99523
 30
0.0
 10
3.62944
 20
9.99523
 30
0.0
 10
3.65526
 20
9.99523
 30
0.0
 10
3.67526
 20
10.00042
 30
0.0
 10
3.68934
 20
10.01069
 30
0.0
 10
3.68934
 20
10.01069
 30
0.0
 10
3.70341
 20
10.02095
 30
0.0
 10
3.71294
 20
10.03545
 30
0.0
 10
3.71791
 20
10.05397
 30
0.0
 10
3.71791
 20
10.05397
 30
0.0
 10
3.72077
 20
10.0653
 30
0.0
 10
3.72215
 20
10.08911
 30
0.0
 10
3.72193
 20
10.12541
 30
0.0
 10
3.72193
 20
10.12541
 30
0.0
 10
3.69749
 20
10.09662
 30
0.0
 10
3.66711
 20
10.08223
 30
0.0
 10
3.63071
 20
10.08223
 30
0.0
 10
3.63071
 20
10.08223
 30
0.0
 10
3.58541
 20
10.08223
 30
0.0
 10
3.55027
 20
10.09853
 30
0.0
 10
3.52551
 20
10.13123
 30
0.0
 10
3.52551
 20
10.13123
 30
0.0
 10
3.50064
 20
10.16383
 30
0.0
 10
3.48825
 20
10.20299
 30
0.0
 10
3.48825
 20
10.2486
 30
0.0
 10
3.48825
 20
10.2486
 30
0.0
 10
3.48825
 20
10.28003
 30
0.0
 10
3.49397
 20
10.30903
 30
0.0
 10
3.50529
 20
10.3356
 30
0.0
 10
3.50529
 20
10.3356
 30
0.0
 10
3.51662
 20
10.36216
 30
0.0
 10
3.53313
 20
10.38259
 30
0.0
 10
3.55472
 20
10.39708
 30
0.0
 10
3.55472
 20
10.39708
 30
0.0
 10
3.57631
 20
10.41158
 30
0.0
 10
3.60171
 20
10.41878
 30
0.0
 10
3.63092
 20
10.41878
 30
0.0
 10
3.63092
 20
10.41878
 30
0.0
 10
3.66976
 20
10.41878
 30
0.0
 10
3.70183
 20
10.40291
 30
0.0
 10
3.72701
 20
10.37116
 30
0.0
 10
3.72701
 20
10.37116
 30
0.0
 10
3.72701
 20
10.37116
 30
0.0
 10
3.72701
 20
10.4118
 30
0.0
 10
3.72701
 20
10.4118
 30
0.0
 10
3.72701
 20
10.4118
 30
0.0
 10
3.72701
 20
10.4118
 30
0.0
 10
3.77845
 20
10.4118
 30
0.0
 10
3.77845
 20
10.4118
 30
0.0
 10
3.77845
 20
10.4118
 30
0.0
 10
3.77845
 20
10.4118
 30
0.0
 10
3.77845
 20
10.12721
 30
0.0
 10
3.77845
 20
10.12721
 30
0.0
 10
3.77845
 20
10.12721
 30
0.0
 10
3.77845
 20
10.07588
 30
0.0
 10
3.77326
 20
10.03958
 30
0.0
 10
3.76279
 20
10.0182
 30
0.0
 10
3.76279
 20
10.0182
 30
0.0
 10
3.75241
 20
9.99682
 30
0.0
 10
3.7358
 20
9.97989
 30
0.0
 10
3.71326
 20
9.96751
 30
0.0
 10
3.71326
 20
9.96751
 30
0.0
 10
3.69061
 20
9.95512
 30
0.0
 10
3.66277
 20
9.94888
 30
0.0
 10
3.62975
 20
9.94888
 30
0.0
 10
3.62975
 20
9.94888
 30
0.0
 10
3.59049
 20
9.94888
 30
0.0
 10
3.55885
 20
9.95766
 30
0.0
 10
3.53472
 20
9.97534
 30
0.0
 10
3.53472
 20
9.97534
 30
0.0
 10
3.51048
 20
9.99291
 30
0.0
 10
3.49884
 20
10.01947
 30
0.0
 10
3.49968
 20
10.05492
 30
0.0
  0
SPLINE
  5
CE
330
1F
100
AcDbEntity
  8
Laag 1
100
AcDbSpline
210
0.0
220
0.0
230
1.0
 70
    11
 71
     3
 72
    36
 73
    32
 74
     0
 42
0.0000000001
 43
0.0000000001
 12
1.0
 22
0.0
 32
0.0
 13
1.0
 23
0.0
 33
0.0
 40
0.0
 40
0.0
 40
0.0
 40
0.0
 40
0.1111111111111111
 40
0.1111111111111111
 40
0.1111111111111111
 40
0.1111111111111111
 40
0.2222222222222222
 40
0.2222222222222222
 40
0.2222222222222222
 40
0.2222222222222222
 40
0.3333333333333333
 40
0.3333333333333333
 40
0.3333333333333333
 40
0.3333333333333333
 40
0.4444444444444444
 40
0.4444444444444444
 40
0.4444444444444444
 40
0.4444444444444444
 40
0.5555555555555556
 40
0.5555555555555556
 40
0.5555555555555556
 40
0.5555555555555556
 40
0.6666666666666666
 40
0.6666666666666666
 40
0.6666666666666666
 40
0.6666666666666666
 40
0.7777777777777778
 40
0.7777777777777778
 40
0.7777777777777778
 40
0.7777777777777778
 40
1.0
 40
1.0
 40
1.0
 40
1.0
 10
3.5454
 20
10.25262
 30
0.0
 10
3.5454
 20
10.20955
 30
0.0
 10
3.55398
 20
10.17812
 30
0.0
 10
3.57112
 20
10.15832
 30
0.0
 10
3.57112
 20
10.15832
 30
0.0
 10
3.58837
 20
10.13853
 30
0.0
 10
3.60986
 20
10.12859
 30
0.0
 10
3.63568
 20
10.12859
 30
0.0
 10
3.63568
 20
10.12859
 30
0.0
 10
3.6614
 20
10.12859
 30
0.0
 10
3.68288
 20
10.13843
 30
0.0
 10
3.70034
 20
10.15811
 30
0.0
 10
3.70034
 20
10.15811
 30
0.0
 10
3.7177
 20
10.1778
 30
0.0
 10
3.72638
 20
10.2087
 30
0.0
 10
3.72638
 20
10.25082
 30
0.0
 10
3.72638
 20
10.25082
 30
0.0
 10
3.72638
 20
10.29104
 30
0.0
 10
3.71738
 20
10.32141
 30
0.0
 10
3.6995
 20
10.34184
 30
0.0
 10
3.6995
 20
10.34184
 30
0.0
 10
3.68161
 20
10.36227
 30
0.0
 10
3.66002
 20
10.37243
 30
0.0
 10
3.63483
 20
10.37243
 30
0.0
 10
3.63483
 20
10.37243
 30
0.0
 10
3.60996
 20
10.37243
 30
0.0
 10
3.5889
 20
10.36237
 30
0.0
 10
3.57144
 20
10.34226
 30
0.0
 10
3.57144
 20
10.34226
 30
0.0
 10
3.55408
 20
10.32215
 30
0.0
 10
3.5454
 20
10.29231
 30
0.0
 10
3.5454
 20
10.25262
 30
0.0
  0
SPLINE
  5
CF
330
1F
100
AcDbEntity
  8
Laag 1
100
AcDbSpline
210
0.0
220
0.0
230
1.0
 70
    11
 71
     3
 72
    80
 73
    76
 74
     0
 42
0.0000000001
 43
0.0000000001
 12
1.0
 22
0.0
 32
0.0
 13
1.0
 23
0.0
 33
0.0
 40
0.0
 40
0.0
 40
0.0
 40
0.0
 40
0.05
 40
0.05
 40
0.05
 40
0.05
 40
0.1
 40
0.1
 40
0.1
 40
0.1
 40
0.15
 40
0.15
 40
0.15
 40
0.15
 40
0.2
 40
0.2
 40
0.2
 40
0.2
 40
0.25
 40
0.25
 40
0.25
 40
0.25
 40
0.3
 40
0.3
 40
0.3
 40
0.3
 40
0.35
 40
0.35
 40
0.35
 40
0.35
 40
0.4
 40
0.4
 40
0.4
 40
0.4
 40
0.45
 40
0.45
 40
0.45
 40
0.45
 40
0.5
 40
0.5
 40
0.5
 40
0.5
 40
0.55
 40
0.55
 40
0.55
 40
0.55
 40
0.6
 40
0.6
 40
0.6
 40
0.6
 40
0.65
 40
0.65
 40
0.65
 40
0.65
 40
0.7
 40
0.7
 40
0.7
 40
0.7
 40
0.75
 40
0.75
 40
0.75
 40
0.75
 40
0.8
 40
0.8
 40
0.8
 40
0.8
 40
0.85
 40
0.85
 40
0.85
 40
0.85
 40
0.9
 40
0.9
 40
0.9
 40
0.9
 40
1.0
 40
1.0
 40
1.0
 40
1.0
 10
4.07839
 20
10.08223
 30
0.0
 10
4.07839
 20
10.08223
 30
0.0
 10
4.07839
 20
10.13123
 30
0.0
 10
4.07839
 20
10.13123
 30
0.0
 10
4.07839
 20
10.13123
 30
0.0
 10
4.05277
 20
10.09387
 30
0.0
 10
4.01806
 20
10.07524
 30
0.0
 10
3.97414
 20
10.07524
 30
0.0
 10
3.97414
 20
10.07524
 30
0.0
 10
3.95477
 20
10.07524
 30
0.0
 10
3.93667
 20
10.07895
 30
0.0
 10
3.91985
 20
10.08636
 30
0.0
 10
3.91985
 20
10.08636
 30
0.0
 10
3.90302
 20
10.09387
 30
0.0
 10
3.89053
 20
10.10319
 30
0.0
 10
3.88238
 20
10.1144
 30
0.0
 10
3.88238
 20
10.1144
 30
0.0
 10
3.87423
 20
10.12573
 30
0.0
 10
3.86852
 20
10.13949
 30
0.0
 10
3.86524
 20
10.15578
 30
0.0
 10
3.86524
 20
10.15578
 30
0.0
 10
3.86301
 20
10.16679
 30
0.0
 10
3.86185
 20
10.18415
 30
0.0
 10
3.86185
 20
10.20785
 30
0.0
 10
3.86185
 20
10.20785
 30
0.0
 10
3.86185
 20
10.20785
 30
0.0
 10
3.86185
 20
10.4118
 30
0.0
 10
3.86185
 20
10.4118
 30
0.0
 10
3.86185
 20
10.4118
 30
0.0
 10
3.86185
 20
10.4118
 30
0.0
 10
3.91773
 20
10.4118
 30
0.0
 10
3.91773
 20
10.4118
 30
0.0
 10
3.91773
 20
10.4118
 30
0.0
 10
3.91773
 20
10.4118
 30
0.0
 10
3.91773
 20
10.22944
 30
0.0
 10
3.91773
 20
10.22944
 30
0.0
 10
3.91773
 20
10.22944
 30
0.0
 10
3.91773
 20
10.20034
 30
0.0
 10
3.91889
 20
10.18066
 30
0.0
 10
3.92112
 20
10.1706
 30
0.0
 10
3.92112
 20
10.1706
 30
0.0
 10
3.92461
 20
10.15589
 30
0.0
 10
3.93202
 20
10.14446
 30
0.0
 10
3.94345
 20
10.1361
 30
0.0
 10
3.94345
 20
10.1361
 30
0.0
 10
3.95477
 20
10.12774
 30
0.0
 10
3.96874
 20
10.12351
 30
0.0
 10
3.98546
 20
10.12351
 30
0.0
 10
3.98546
 20
10.12351
 30
0.0
 10
4.00219
 20
10.12351
 30
0.0
 10
4.01785
 20
10.12774
 30
0.0
 10
4.03245
 20
10.13631
 30
0.0
 10
4.03245
 20
10.13631
 30
0.0
 10
4.04706
 20
10.14488
 30
0.0
 10
4.05743
 20
10.15663
 30
0.0
 10
4.06357
 20
10.17134
 30
0.0
 10
4.06357
 20
10.17134
 30
0.0
 10
4.0696
 20
10.18605
 30
0.0
 10
4.07267
 20
10.20754
 30
0.0
 10
4.07267
 20
10.23558
 30
0.0
 10
4.07267
 20
10.23558
 30
0.0
 10
4.07267
 20
10.23558
 30
0.0
 10
4.07267
 20
10.4118
 30
0.0
 10
4.07267
 20
10.4118
 30
0.0
 10
4.07267
 20
10.4118
 30
0.0
 10
4.07267
 20
10.4118
 30
0.0
 10
4.12855
 20
10.4118
 30
0.0
 10
4.12855
 20
10.4118
 30
0.0
 10
4.12855
 20
10.4118
 30
0.0
 10
4.12855
 20
10.4118
 30
0.0
 10
4.12855
 20
10.08223
 30
0.0
 10
4.12855
 20
10.08223
 30
0.0
 10
4.12855
 20
10.08223
 30
0.0
 10
4.12855
 20
10.08223
 30
0.0
 10
4.07839
 20
10.08223
 30
0.0
 10
4.07839
 20
10.08223
 30
0.0
  0
SPLINE
  5
D0
330
1F
100
AcDbEntity
  8
Laag 1
100
AcDbSpline
210
0.0
220
0.0
230
1.0
 70
    11
 71
     3
 72
    20
 73
    16
 74
     0
 42
0.0000000001
 43
0.0000000001
 12
1.0
 22
0.0
 32
0.0
 13
1.0
 23
0.0
 33
0.0
 40
0.0
 40
0.0
 40
0.0
 40
0.0
 40
0.2
 40
0.2
 40
0.2
 40
0.2
 40
0.4
 40
0.4
 40
0.4
 40
0.4
 40
0.6
 40
0.6
 40
0.6
 40
0.6
 40
1.0
 40
1.0
 40
1.0
 40
1.0
 10
4.21502
 20
10.08223
 30
0.0
 10
4.21502
 20
10.08223
 30
0.0
 10
4.21502
 20
10.53689
 30
0.0
 10
4.21502
 20
10.53689
 30
0.0
 10
4.21502
 20
10.53689
 30
0.0
 10
4.21502
 20
10.53689
 30
0.0
 10
4.2709
 20
10.53689
 30
0.0
 10
4.2709
 20
10.53689
 30
0.0
 10
4.2709
 20
10.53689
 30
0.0
 10
4.2709
 20
10.53689
 30
0.0
 10
4.2709
 20
10.08223
 30
0.0
 10
4.2709
 20
10.08223
 30
0.0
 10
4.2709
 20
10.08223
 30
0.0
 10
4.2709
 20
10.08223
 30
0.0
 10
4.21502
 20
10.08223
 30
0.0
 10
4.21502
 20
10.08223
 30
0.0
  0
SPLINE
  5
D1
330
1F
100
AcDbEntity
  8
Laag 1
100
AcDbSpline
210
0.0
220
0.0
230
1.0
 70
    11
 71
     3
 72
   112
 73
   108
 74
     0
 42
0.0000000001
 43
0.0000000001
 12
1.0
 22
0.0
 32
0.0
 13
1.0
 23
0.0
 33
0.0
 40
0.0
 40
0.0
 40
0.0
 40
0.0
 40
0.0357142857142857
 40
0.0357142857142857
 40
0.0357142857142857
 40
0.0357142857142857
 40
0.0714285714285714
 40
0.0714285714285714
 40
0.0714285714285714
 40
0.0714285714285714
 40
0.1071428571428571
 40
0.1071428571428571
 40
0.1071428571428571
 40
0.1071428571428571
 40
0.1428571428571428
 40
0.1428571428571428
 40
0.1428571428571428
 40
0.1428571428571428
 40
0.1785714285714286
 40
0.1785714285714286
 40
0.1785714285714286
 40
0.1785714285714286
 40
0.2142857142857143
 40
0.2142857142857143
 40
0.2142857142857143
 40
0.2142857142857143
 40
0.25
 40
0.25
 40
0.25
 40
0.25
 40
0.2857142857142857
 40
0.2857142857142857
 40
0.2857142857142857
 40
0.2857142857142857
 40
0.3214285714285715
 40
0.3214285714285715
 40
0.3214285714285715
 40
0.3214285714285715
 40
0.3571428571428572
 40
0.3571428571428572
 40
0.3571428571428572
 40
0.3571428571428572
 40
0.3928571428571428
 40
0.3928571428571428
 40
0.3928571428571428
 40
0.3928571428571428
 40
0.4285714285714285
 40
0.4285714285714285
 40
0.4285714285714285
 40
0.4285714285714285
 40
0.4642857142857143
 40
0.4642857142857143
 40
0.4642857142857143
 40
0.4642857142857143
 40
0.5
 40
0.5
 40
0.5
 40
0.5
 40
0.5357142857142857
 40
0.5357142857142857
 40
0.5357142857142857
 40
0.5357142857142857
 40
0.5714285714285714
 40
0.5714285714285714
 40
0.5714285714285714
 40
0.5714285714285714
 40
0.6071428571428571
 40
0.6071428571428571
 40
0.6071428571428571
 40
0.6071428571428571
 40
0.6428571428571429
 40
0.6428571428571429
 40
0.6428571428571429
 40
0.6428571428571429
 40
0.6785714285714286
 40
0.6785714285714286
 40
0.6785714285714286
 40
0.6785714285714286
 40
0.7142857142857143
 40
0.7142857142857143
 40
0.7142857142857143
 40
0.7142857142857143
 40
0.75
 40
0.75
 40
0.75
 40
0.75
 40
0.7857142857142857
 40
0.7857142857142857
 40
0.7857142857142857
 40
0.7857142857142857
 40
0.8214285714285714
 40
0.8214285714285714
 40
0.8214285714285714
 40
0.8214285714285714
 40
0.8571428571428571
 40
0.8571428571428571
 40
0.8571428571428571
 40
0.8571428571428571
 40
0.8928571428571429
 40
0.8928571428571429
 40
0.8928571428571429
 40
0.8928571428571429
 40
0.9285714285714286
 40
0.9285714285714286
 40
0.9285714285714286
 40
0.9285714285714286
 40
1.0
 40
1.0
 40
1.0
 40
1.0
 10
4.57264
 20
10.12351
 30
0.0
 10
4.55189
 20
10.10583
 30
0.0
 10
4.53189
 20
10.09345
 30
0.0
 10
4.51273
 20
10.08615
 30
0.0
 10
4.51273
 20
10.08615
 30
0.0
 10
4.49358
 20
10.07884
 30
0.0
 10
4.47305
 20
10.07524
 30
0.0
 10
4.45103
 20
10.07524
 30
0.0
 10
4.45103
 20
10.07524
 30
0.0
 10
4.41484
 20
10.07524
 30
0.0
 10
4.387
 20
10.08403
 30
0.0
 10
4.36753
 20
10.1017
 30
0.0
 10
4.36753
 20
10.1017
 30
0.0
 10
4.34806
 20
10.11927
 30
0.0
 10
4.33832
 20
10.14181
 30
0.0
 10
4.33832
 20
10.16923
 30
0.0
 10
4.33832
 20
10.16923
 30
0.0
 10
4.33832
 20
10.18531
 30
0.0
 10
4.34202
 20
10.20002
 30
0.0
 10
4.34933
 20
10.21336
 30
0.0
 10
4.34933
 20
10.21336
 30
0.0
 10
4.35674
 20
10.22669
 30
0.0
 10
4.36637
 20
10.23728
 30
0.0
 10
4.37822
 20
10.24532
 30
0.0
 10
4.37822
 20
10.24532
 30
0.0
 10
4.39018
 20
10.25336
 30
0.0
 10
4.40351
 20
10.2595
 30
0.0
 10
4.41844
 20
10.26363
 30
0.0
 10
4.41844
 20
10.26363
 30
0.0
 10
4.42944
 20
10.26649
 30
0.0
 10
4.44606
 20
10.26924
 30
0.0
 10
4.46818
 20
10.27199
 30
0.0
 10
4.46818
 20
10.27199
 30
0.0
 10
4.51326
 20
10.27728
 30
0.0
 10
4.5466
 20
10.28374
 30
0.0
 10
4.56787
 20
10.29115
 30
0.0
 10
4.56787
 20
10.29115
 30
0.0
 10
4.56808
 20
10.29877
 30
0.0
 10
4.56819
 20
10.30363
 30
0.0
 10
4.56819
 20
10.30564
 30
0.0
 10
4.56819
 20
10.30564
 30
0.0
 10
4.56819
 20
10.32829
 30
0.0
 10
4.5629
 20
10.34427
 30
0.0
 10
4.55232
 20
10.35359
 30
0.0
 10
4.55232
 20
10.35359
 30
0.0
 10
4.53803
 20
10.36618
 30
0.0
 10
4.51676
 20
10.37243
 30
0.0
 10
4.4886
 20
10.37243
 30
0.0
 10
4.4886
 20
10.37243
 30
0.0
 10
4.46225
 20
10.37243
 30
0.0
 10
4.44278
 20
10.36777
 30
0.0
 10
4.43029
 20
10.35856
 30
0.0
 10
4.43029
 20
10.35856
 30
0.0
 10
4.4177
 20
10.34935
 30
0.0
 10
4.40849
 20
10.33306
 30
0.0
 10
4.40246
 20
10.30956
 30
0.0
 10
4.40246
 20
10.30956
 30
0.0
 10
4.40246
 20
10.30956
 30
0.0
 10
4.34785
 20
10.31718
 30
0.0
 10
4.34785
 20
10.31718
 30
0.0
 10
4.34785
 20
10.31718
 30
0.0
 10
4.35282
 20
10.34057
 30
0.0
 10
4.36097
 20
10.35951
 30
0.0
 10
4.3724
 20
10.37391
 30
0.0
 10
4.3724
 20
10.37391
 30
0.0
 10
4.38383
 20
10.3883
 30
0.0
 10
4.40034
 20
10.39931
 30
0.0
 10
4.42193
 20
10.40714
 30
0.0
 10
4.42193
 20
10.40714
 30
0.0
 10
4.44341
 20
10.41486
 30
0.0
 10
4.4685
 20
10.41878
 30
0.0
 10
4.49686
 20
10.41878
 30
0.0
 10
4.49686
 20
10.41878
 30
0.0
 10
4.52501
 20
10.41878
 30
0.0
 10
4.54798
 20
10.4155
 30
0.0
 10
4.56565
 20
10.40883
 30
0.0
 10
4.56565
 20
10.40883
 30
0.0
 10
4.58322
 20
10.40216
 30
0.0
 10
4.59624
 20
10.39391
 30
0.0
 10
4.60449
 20
10.38386
 30
0.0
 10
4.60449
 20
10.38386
 30
0.0
 10
4.61275
 20
10.3738
 30
0.0
 10
4.61857
 20
10.3611
 30
0.0
 10
4.62195
 20
10.34576
 30
0.0
 10
4.62195
 20
10.34576
 30
0.0
 10
4.62375
 20
10.33623
 30
0.0
 10
4.62471
 20
10.31909
 30
0.0
 10
4.62471
 20
10.29443
 30
0.0
 10
4.62471
 20
10.29443
 30
0.0
 10
4.62471
 20
10.29443
 30
0.0
 10
4.62471
 20
10.22034
 30
0.0
 10
4.62471
 20
10.22034
 30
0.0
 10
4.62471
 20
10.22034
 30
0.0
 10
4.62471
 20
10.16859
 30
0.0
 10
4.62587
 20
10.13589
 30
0.0
 10
4.6282
 20
10.12202
 30
0.0
 10
4.6282
 20
10.12202
 30
0.0
 10
4.63042
 20
10.10816
 30
0.0
 10
4.63508
 20
10.09493
 30
0.0
 10
4.64185
 20
10.08223
 30
0.0
 10
4.64185
 20
10.08223
 30
0.0
 10
4.64185
 20
10.08223
 30
0.0
 10
4.58343
 20
10.08223
 30
0.0
 10
4.58343
 20
10.08223
 30
0.0
 10
4.58343
 20
10.08223
 30
0.0
 10
4.57782
 20
10.09398
 30
0.0
 10
4.57422
 20
10.10774
 30
0.0
 10
4.57264
 20
10.12351
 30
0.0
  0
SPLINE
  5
D2
330
1F
100
AcDbEntity
  8
Laag 1
100
AcDbSpline
210
0.0
220
0.0
230
1.0
 70
    11
 71
     3
 72
    44
 73
    40
 74
     0
 42
0.0000000001
 43
0.0000000001
 12
1.0
 22
0.0
 32
0.0
 13
1.0
 23
0.0
 33
0.0
 40
0.0
 40
0.0
 40
0.0
 40
0.0
 40
0.0909090909090909
 40
0.0909090909090909
 40
0.0909090909090909
 40
0.0909090909090909
 40
0.1818181818181818
 40
0.1818181818181818
 40
0.1818181818181818
 40
0.1818181818181818
 40
0.2727272727272727
 40
0.2727272727272727
 40
0.2727272727272727
 40
0.2727272727272727
 40
0.3636363636363636
 40
0.3636363636363636
 40
0.3636363636363636
 40
0.3636363636363636
 40
0.4545454545454545
 40
0.4545454545454545
 40
0.4545454545454545
 40
0.4545454545454545
 40
0.5454545454545454
 40
0.5454545454545454
 40
0.5454545454545454
 40
0.5454545454545454
 40
0.6363636363636364
 40
0.6363636363636364
 40
0.6363636363636364
 40
0.6363636363636364
 40
0.7272727272727273
 40
0.7272727272727273
 40
0.7272727272727273
 40
0.7272727272727273
 40
0.8181818181818182
 40
0.8181818181818182
 40
0.8181818181818182
 40
0.8181818181818182
 40
1.0
 40
1.0
 40
1.0
 40
1.0
 10
4.56819
 20
10.24733
 30
0.0
 10
4.54787
 20
10.23908
 30
0.0
 10
4.51739
 20
10.23209
 30
0.0
 10
4.47675
 20
10.22638
 30
0.0
 10
4.47675
 20
10.22638
 30
0.0
 10
4.45368
 20
10.22309
 30
0.0
 10
4.43738
 20
10.21939
 30
0.0
 10
4.42786
 20
10.21526
 30
0.0
 10
4.42786
 20
10.21526
 30
0.0
 10
4.41833
 20
10.21114
 30
0.0
 10
4.41103
 20
10.2051
 30
0.0
 10
4.40584
 20
10.19727
 30
0.0
 10
4.40584
 20
10.19727
 30
0.0
 10
4.40066
 20
10.18933
 30
0.0
 10
4.39801
 20
10.18055
 30
0.0
 10
4.39801
 20
10.17081
 30
0.0
 10
4.39801
 20
10.17081
 30
0.0
 10
4.39801
 20
10.1561
 30
0.0
 10
4.40362
 20
10.14372
 30
0.0
 10
4.41494
 20
10.13388
 30
0.0
 10
4.41494
 20
10.13388
 30
0.0
 10
4.42627
 20
10.12403
 30
0.0
 10
4.44278
 20
10.11906
 30
0.0
 10
4.46447
 20
10.11906
 30
0.0
 10
4.46447
 20
10.11906
 30
0.0
 10
4.48596
 20
10.11906
 30
0.0
 10
4.50511
 20
10.12372
 30
0.0
 10
4.52194
 20
10.13314
 30
0.0
 10
4.52194
 20
10.13314
 30
0.0
 10
4.53866
 20
10.14245
 30
0.0
 10
4.55105
 20
10.15526
 30
0.0
 10
4.55888
 20
10.17145
 30
0.0
 10
4.55888
 20
10.17145
 30
0.0
 10
4.56491
 20
10.18404
 30
0.0
 10
4.56787
 20
10.20256
 30
0.0
 10
4.56787
 20
10.22701
 30
0.0
 10
4.56787
 20
10.22701
 30
0.0
 10
4.56787
 20
10.22701
 30
0.0
 10
4.56819
 20
10.24733
 30
0.0
 10
4.56819
 20
10.24733
 30
0.0
  0
SPLINE
  5
D3
330
1F
100
AcDbEntity
  8
Laag 1
100
AcDbSpline
210
0.0
220
0.0
230
1.0
 70
    11
 71
     3
 72
    84
 73
    80
 74
     0
 42
0.0000000001
 43
0.0000000001
 12
1.0
 22
0.0
 32
0.0
 13
1.0
 23
0.0
 33
0.0
 40
0.0
 40
0.0
 40
0.0
 40
0.0
 40
0.0476190476190476
 40
0.0476190476190476
 40
0.0476190476190476
 40
0.0476190476190476
 40
0.0952380952380952
 40
0.0952380952380952
 40
0.0952380952380952
 40
0.0952380952380952
 40
0.1428571428571428
 40
0.1428571428571428
 40
0.1428571428571428
 40
0.1428571428571428
 40
0.1904761904761905
 40
0.1904761904761905
 40
0.1904761904761905
 40
0.1904761904761905
 40
0.2380952380952381
 40
0.2380952380952381
 40
0.2380952380952381
 40
0.2380952380952381
 40
0.2857142857142857
 40
0.2857142857142857
 40
0.2857142857142857
 40
0.2857142857142857
 40
0.3333333333333333
 40
0.3333333333333333
 40
0.3333333333333333
 40
0.3333333333333333
 40
0.3809523809523809
 40
0.3809523809523809
 40
0.3809523809523809
 40
0.3809523809523809
 40
0.4285714285714285
 40
0.4285714285714285
 40
0.4285714285714285
 40
0.4285714285714285
 40
0.4761904761904762
 40
0.4761904761904762
 40
0.4761904761904762
 40
0.4761904761904762
 40
0.5238095238095238
 40
0.5238095238095238
 40
0.5238095238095238
 40
0.5238095238095238
 40
0.5714285714285714
 40
0.5714285714285714
 40
0.5714285714285714
 40
0.5714285714285714
 40
0.6190476190476191
 40
0.6190476190476191
 40
0.6190476190476191
 40
0.6190476190476191
 40
0.6666666666666666
 40
0.6666666666666666
 40
0.6666666666666666
 40
0.6666666666666666
 40
0.7142857142857143
 40
0.7142857142857143
 40
0.7142857142857143
 40
0.7142857142857143
 40
0.7619047619047619
 40
0.7619047619047619
 40
0.7619047619047619
 40
0.7619047619047619
 40
0.8095238095238095
 40
0.8095238095238095
 40
0.8095238095238095
 40
0.8095238095238095
 40
0.8571428571428571
 40
0.8571428571428571
 40
0.8571428571428571
 40
0.8571428571428571
 40
0.9047619047619048
 40
0.9047619047619048
 40
0.9047619047619048
 40
0.9047619047619048
 40
1.0
 40
1.0
 40
1.0
 40
1.0
 10
4.83183
 20
10.13208
 30
0.0
 10
4.83183
 20
10.13208
 30
0.0
 10
4.83945
 20
10.08276
 30
0.0
 10
4.83945
 20
10.08276
 30
0.0
 10
4.83945
 20
10.08276
 30
0.0
 10
4.82378
 20
10.07948
 30
0.0
 10
4.80971
 20
10.07778
 30
0.0
 10
4.79743
 20
10.07778
 30
0.0
 10
4.79743
 20
10.07778
 30
0.0
 10
4.77722
 20
10.07778
 30
0.0
 10
4.76155
 20
10.08096
 30
0.0
 10
4.75033
 20
10.08742
 30
0.0
 10
4.75033
 20
10.08742
 30
0.0
 10
4.73922
 20
10.09387
 30
0.0
 10
4.73139
 20
10.10223
 30
0.0
 10
4.72684
 20
10.11271
 30
0.0
 10
4.72684
 20
10.11271
 30
0.0
 10
4.72229
 20
10.12319
 30
0.0
 10
4.72007
 20
10.1452
 30
0.0
 10
4.72007
 20
10.17875
 30
0.0
 10
4.72007
 20
10.17875
 30
0.0
 10
4.72007
 20
10.17875
 30
0.0
 10
4.72007
 20
10.36862
 30
0.0
 10
4.72007
 20
10.36862
 30
0.0
 10
4.72007
 20
10.36862
 30
0.0
 10
4.72007
 20
10.36862
 30
0.0
 10
4.67879
 20
10.36862
 30
0.0
 10
4.67879
 20
10.36862
 30
0.0
 10
4.67879
 20
10.36862
 30
0.0
 10
4.67879
 20
10.36862
 30
0.0
 10
4.67879
 20
10.4118
 30
0.0
 10
4.67879
 20
10.4118
 30
0.0
 10
4.67879
 20
10.4118
 30
0.0
 10
4.67879
 20
10.4118
 30
0.0
 10
4.72007
 20
10.4118
 30
0.0
 10
4.72007
 20
10.4118
 30
0.0
 10
4.72007
 20
10.4118
 30
0.0
 10
4.72007
 20
10.4118
 30
0.0
 10
4.72007
 20
10.49329
 30
0.0
 10
4.72007
 20
10.49329
 30
0.0
 10
4.72007
 20
10.49329
 30
0.0
 10
4.72007
 20
10.49329
 30
0.0
 10
4.77595
 20
10.52684
 30
0.0
 10
4.77595
 20
10.52684
 30
0.0
 10
4.77595
 20
10.52684
 30
0.0
 10
4.77595
 20
10.52684
 30
0.0
 10
4.77595
 20
10.4118
 30
0.0
 10
4.77595
 20
10.4118
 30
0.0
 10
4.77595
 20
10.4118
 30
0.0
 10
4.77595
 20
10.4118
 30
0.0
 10
4.83183
 20
10.4118
 30
0.0
 10
4.83183
 20
10.4118
 30
0.0
 10
4.83183
 20
10.4118
 30
0.0
 10
4.83183
 20
10.4118
 30
0.0
 10
4.83183
 20
10.36862
 30
0.0
 10
4.83183
 20
10.36862
 30
0.0
 10
4.83183
 20
10.36862
 30
0.0
 10
4.83183
 20
10.36862
 30
0.0
 10
4.77595
 20
10.36862
 30
0.0
 10
4.77595
 20
10.36862
 30
0.0
 10
4.77595
 20
10.36862
 30
0.0
 10
4.77595
 20
10.36862
 30
0.0
 10
4.77595
 20
10.17558
 30
0.0
 10
4.77595
 20
10.17558
 30
0.0
 10
4.77595
 20
10.17558
 30
0.0
 10
4.77595
 20
10.15959
 30
0.0
 10
4.7769
 20
10.14933
 30
0.0
 10
4.77891
 20
10.14478
 30
0.0
 10
4.77891
 20
10.14478
 30
0.0
 10
4.78081
 20
10.14023
 30
0.0
 10
4.78399
 20
10.13663
 30
0.0
 10
4.78843
 20
10.13388
 30
0.0
 10
4.78843
 20
10.13388
 30
0.0
 10
4.79288
 20
10.13123
 30
0.0
 10
4.79923
 20
10.12986
 30
0.0
 10
4.80748
 20
10.12986
 30
0.0
 10
4.80748
 20
10.12986
 30
0.0
 10
4.81362
 20
10.12986
 30
0.0
 10
4.82177
 20
10.1306
 30
0.0
 10
4.83183
 20
10.13208
 30
0.0
  0
SPLINE
  5
D4
330
1F
100
AcDbEntity
  8
Laag 1
100
AcDbSpline
210
0.0
220
0.0
230
1.0
 70
    11
 71
     3
 72
    40
 73
    36
 74
     0
 42
0.0000000001
 43
0.0000000001
 12
1.0
 22
0.0
 32
0.0
 13
1.0
 23
0.0
 33
0.0
 40
0.0
 40
0.0
 40
0.0
 40
0.0
 40
0.1
 40
0.1
 40
0.1
 40
0.1
 40
0.2
 40
0.2
 40
0.2
 40
0.2
 40
0.3
 40
0.3
 40
0.3
 40
0.3
 40
0.4
 40
0.4
 40
0.4
 40
0.4
 40
0.5
 40
0.5
 40
0.5
 40
0.5
 40
0.6
 40
0.6
 40
0.6
 40
0.6
 40
0.7
 40
0.7
 40
0.7
 40
0.7
 40
0.8
 40
0.8
 40
0.8
 40
0.8
 40
1.0
 40
1.0
 40
1.0
 40
1.0
 10
4.86601
 20
10.24701
 30
0.0
 10
4.86601
 20
10.30787
 30
0.0
 10
4.88294
 20
10.35295
 30
0.0
 10
4.91691
 20
10.38227
 30
0.0
 10
4.91691
 20
10.38227
 30
0.0
 10
4.94517
 20
10.40661
 30
0.0
 10
4.97978
 20
10.41878
 30
0.0
 10
5.02052
 20
10.41878
 30
0.0
 10
5.02052
 20
10.41878
 30
0.0
 10
5.06571
 20
10.41878
 30
0.0
 10
5.10275
 20
10.40396
 30
0.0
 10
5.13154
 20
10.37433
 30
0.0
 10
5.13154
 20
10.37433
 30
0.0
 10
5.16022
 20
10.3448
 30
0.0
 10
5.17462
 20
10.30385
 30
0.0
 10
5.17462
 20
10.25167
 30
0.0
 10
5.17462
 20
10.25167
 30
0.0
 10
5.17462
 20
10.20934
 30
0.0
 10
5.16827
 20
10.1761
 30
0.0
 10
5.15557
 20
10.15187
 30
0.0
 10
5.15557
 20
10.15187
 30
0.0
 10
5.14287
 20
10.12763
 30
0.0
 10
5.12434
 20
10.10879
 30
0.0
 10
5.1
 20
10.09535
 30
0.0
 10
5.1
 20
10.09535
 30
0.0
 10
5.07577
 20
10.08191
 30
0.0
 10
5.0492
 20
10.07524
 30
0.0
 10
5.02052
 20
10.07524
 30
0.0
 10
5.02052
 20
10.07524
 30
0.0
 10
4.97438
 20
10.07524
 30
0.0
 10
4.93713
 20
10.08996
 30
0.0
 10
4.90866
 20
10.11948
 30
0.0
 10
4.90866
 20
10.11948
 30
0.0
 10
4.88019
 20
10.14901
 30
0.0
 10
4.86601
 20
10.19156
 30
0.0
 10
4.86601
 20
10.24701
 30
0.0
  0
SPLINE
  5
D5
330
1F
100
AcDbEntity
  8
Laag 1
100
AcDbSpline
210
0.0
220
0.0
230
1.0
 70
    11
 71
     3
 72
    36
 73
    32
 74
     0
 42
0.0000000001
 43
0.0000000001
 12
1.0
 22
0.0
 32
0.0
 13
1.0
 23
0.0
 33
0.0
 40
0.0
 40
0.0
 40
0.0
 40
0.0
 40
0.1111111111111111
 40
0.1111111111111111
 40
0.1111111111111111
 40
0.1111111111111111
 40
0.2222222222222222
 40
0.2222222222222222
 40
0.2222222222222222
 40
0.2222222222222222
 40
0.3333333333333333
 40
0.3333333333333333
 40
0.3333333333333333
 40
0.3333333333333333
 40
0.4444444444444444
 40
0.4444444444444444
 40
0.4444444444444444
 40
0.4444444444444444
 40
0.5555555555555556
 40
0.5555555555555556
 40
0.5555555555555556
 40
0.5555555555555556
 40
0.6666666666666666
 40
0.6666666666666666
 40
0.6666666666666666
 40
0.6666666666666666
 40
0.7777777777777778
 40
0.7777777777777778
 40
0.7777777777777778
 40
0.7777777777777778
 40
1.0
 40
1.0
 40
1.0
 40
1.0
 10
4.92316
 20
10.24691
 30
0.0
 10
4.92316
 20
10.20479
 30
0.0
 10
4.93236
 20
10.17325
 30
0.0
 10
4.95078
 20
10.1524
 30
0.0
 10
4.95078
 20
10.1524
 30
0.0
 10
4.9693
 20
10.13144
 30
0.0
 10
4.99248
 20
10.12097
 30
0.0
 10
5.02052
 20
10.12097
 30
0.0
 10
5.02052
 20
10.12097
 30
0.0
 10
5.04825
 20
10.12097
 30
0.0
 10
5.07132
 20
10.13144
 30
0.0
 10
5.08984
 20
10.1525
 30
0.0
 10
5.08984
 20
10.1525
 30
0.0
 10
5.10826
 20
10.17356
 30
0.0
 10
5.11747
 20
10.20563
 30
0.0
 10
5.11747
 20
10.24871
 30
0.0
 10
5.11747
 20
10.24871
 30
0.0
 10
5.11747
 20
10.28935
 30
0.0
 10
5.10815
 20
10.32014
 30
0.0
 10
5.08963
 20
10.34099
 30
0.0
 10
5.08963
 20
10.34099
 30
0.0
 10
5.07111
 20
10.36195
 30
0.0
 10
5.04804
 20
10.37243
 30
0.0
 10
5.02052
 20
10.37243
 30
0.0
 10
5.02052
 20
10.37243
 30
0.0
 10
4.99248
 20
10.37243
 30
0.0
 10
4.9693
 20
10.36205
 30
0.0
 10
4.95078
 20
10.3412
 30
0.0
 10
4.95078
 20
10.3412
 30
0.0
 10
4.93236
 20
10.32036
 30
0.0
 10
4.92316
 20
10.28892
 30
0.0
 10
4.92316
 20
10.24691
 30
0.0
  0
SPLINE
  5
D6
330
1F
100
AcDbEntity
  8
Laag 1
100
AcDbSpline
210
0.0
220
0.0
230
1.0
 70
    11
 71
     3
 72
    56
 73
    52
 74
     0
 42
0.0000000001
 43
0.0000000001
 12
1.0
 22
0.0
 32
0.0
 13
1.0
 23
0.0
 33
0.0
 40
0.0
 40
0.0
 40
0.0
 40
0.0
 40
0.0714285714285714
 40
0.0714285714285714
 40
0.0714285714285714
 40
0.0714285714285714
 40
0.1428571428571428
 40
0.1428571428571428
 40
0.1428571428571428
 40
0.1428571428571428
 40
0.2142857142857143
 40
0.2142857142857143
 40
0.2142857142857143
 40
0.2142857142857143
 40
0.2857142857142857
 40
0.2857142857142857
 40
0.2857142857142857
 40
0.2857142857142857
 40
0.3571428571428572
 40
0.3571428571428572
 40
0.3571428571428572
 40
0.3571428571428572
 40
0.4285714285714285
 40
0.4285714285714285
 40
0.4285714285714285
 40
0.4285714285714285
 40
0.5
 40
0.5
 40
0.5
 40
0.5
 40
0.5714285714285714
 40
0.5714285714285714
 40
0.5714285714285714
 40
0.5714285714285714
 40
0.6428571428571429
 40
0.6428571428571429
 40
0.6428571428571429
 40
0.6428571428571429
 40
0.7142857142857143
 40
0.7142857142857143
 40
0.7142857142857143
 40
0.7142857142857143
 40
0.7857142857142857
 40
0.7857142857142857
 40
0.7857142857142857
 40
0.7857142857142857
 40
0.8571428571428571
 40
0.8571428571428571
 40
0.8571428571428571
 40
0.8571428571428571
 40
1.0
 40
1.0
 40
1.0
 40
1.0
 10
5.2395
 20
10.08223
 30
0.0
 10
5.2395
 20
10.08223
 30
0.0
 10
5.2395
 20
10.4118
 30
0.0
 10
5.2395
 20
10.4118
 30
0.0
 10
5.2395
 20
10.4118
 30
0.0
 10
5.2395
 20
10.4118
 30
0.0
 10
5.28966
 20
10.4118
 30
0.0
 10
5.28966
 20
10.4118
 30
0.0
 10
5.28966
 20
10.4118
 30
0.0
 10
5.28966
 20
10.4118
 30
0.0
 10
5.28966
 20
10.36131
 30
0.0
 10
5.28966
 20
10.36131
 30
0.0
 10
5.28966
 20
10.36131
 30
0.0
 10
5.30247
 20
10.3847
 30
0.0
 10
5.31432
 20
10.40015
 30
0.0
 10
5.32522
 20
10.40756
 30
0.0
 10
5.32522
 20
10.40756
 30
0.0
 10
5.33612
 20
10.41508
 30
0.0
 10
5.34808
 20
10.41878
 30
0.0
 10
5.3611
 20
10.41878
 30
0.0
 10
5.3611
 20
10.41878
 30
0.0
 10
5.37994
 20
10.41878
 30
0.0
 10
5.39909
 20
10.41285
 30
0.0
 10
5.41857
 20
10.40111
 30
0.0
 10
5.41857
 20
10.40111
 30
0.0
 10
5.41857
 20
10.40111
 30
0.0
 10
5.39867
 20
10.34957
 30
0.0
 10
5.39867
 20
10.34957
 30
0.0
 10
5.39867
 20
10.34957
 30
0.0
 10
5.38512
 20
10.35719
 30
0.0
 10
5.37158
 20
10.361
 30
0.0
 10
5.35803
 20
10.361
 30
0.0
 10
5.35803
 20
10.361
 30
0.0
 10
5.34586
 20
10.361
 30
0.0
 10
5.33496
 20
10.35729
 30
0.0
 10
5.32533
 20
10.34999
 30
0.0
 10
5.32533
 20
10.34999
 30
0.0
 10
5.3157
 20
10.34269
 30
0.0
 10
5.30882
 20
10.33253
 30
0.0
 10
5.30469
 20
10.31951
 30
0.0
 10
5.30469
 20
10.31951
 30
0.0
 10
5.29844
 20
10.29972
 30
0.0
 10
5.29538
 20
10.27802
 30
0.0
 10
5.29538
 20
10.25442
 30
0.0
 10
5.29538
 20
10.25442
 30
0.0
 10
5.29538
 20
10.25442
 30
0.0
 10
5.29538
 20
10.08223
 30
0.0
 10
5.29538
 20
10.08223
 30
0.0
 10
5.29538
 20
10.08223
 30
0.0
 10
5.29538
 20
10.08223
 30
0.0
 10
5.2395
 20
10.08223
 30
0.0
 10
5.2395
 20
10.08223
 30
0.0
  0
SPLINE
  5
D7
330
1F
100
AcDbEntity
  8
Laag 1
100
AcDbSpline
210
0.0
220
0.0
230
1.0
 70
    11
 71
     3
 72
    48
 73
    44
 74
     0
 42
0.0000000001
 43
0.0000000001
 12
1.0
 22
0.0
 32
0.0
 13
1.0
 23
0.0
 33
0.0
 40
0.0
 40
0.0
 40
0.0
 40
0.0
 40
0.0833333333333333
 40
0.0833333333333333
 40
0.0833333333333333
 40
0.0833333333333333
 40
0.1666666666666667
 40
0.1666666666666667
 40
0.1666666666666667
 40
0.1666666666666667
 40
0.25
 40
0.25
 40
0.25
 40
0.25
 40
0.3333333333333333
 40
0.3333333333333333
 40
0.3333333333333333
 40
0.3333333333333333
 40
0.4166666666666667
 40
0.4166666666666667
 40
0.4166666666666667
 40
0.4166666666666667
 40
0.5
 40
0.5
 40
0.5
 40
0.5
 40
0.5833333333333334
 40
0.5833333333333334
 40
0.5833333333333334
 40
0.5833333333333334
 40
0.6666666666666666
 40
0.6666666666666666
 40
0.6666666666666666
 40
0.6666666666666666
 40
0.75
 40
0.75
 40
0.75
 40
0.75
 40
0.8333333333333334
 40
0.8333333333333334
 40
0.8333333333333334
 40
0.8333333333333334
 40
1.0
 40
1.0
 40
1.0
 40
1.0
 10
1.23763
 20
1.92645
 30
0.0
 10
1.23763
 20
2.02693
 30
0.0
 10
1.26472
 20
2.10567
 30
0.0
 10
1.31877
 20
2.16253
 30
0.0
 10
1.31877
 20
2.16253
 30
0.0
 10
1.37282
 20
2.2194
 30
0.0
 10
1.44252
 20
2.24777
 30
0.0
 10
1.52804
 20
2.24777
 30
0.0
 10
1.52804
 20
2.24777
 30
0.0
 10
1.58406
 20
2.24777
 30
0.0
 10
1.63444
 20
2.23436
 30
0.0
 10
1.67945
 20
2.20769
 30
0.0
 10
1.67945
 20
2.20769
 30
0.0
 10
1.72432
 20
2.18102
 30
0.0
 10
1.75861
 20
2.14377
 30
0.0
 10
1.78218
 20
2.09593
 30
0.0
 10
1.78218
 20
2.09593
 30
0.0
 10
1.80575
 20
2.04823
 30
0.0
 10
1.8176
 20
1.99405
 30
0.0
 10
1.8176
 20
1.93351
 30
0.0
 10
1.8176
 20
1.93351
 30
0.0
 10
1.8176
 20
1.87213
 30
0.0
 10
1.80518
 20
1.81709
 30
0.0
 10
1.78035
 20
1.76869
 30
0.0
 10
1.78035
 20
1.76869
 30
0.0
 10
1.75551
 20
1.72015
 30
0.0
 10
1.72037
 20
1.68346
 30
0.0
 10
1.67494
 20
1.65862
 30
0.0
 10
1.67494
 20
1.65862
 30
0.0
 10
1.62936
 20
1.63365
 30
0.0
 10
1.58025
 20
1.62123
 30
0.0
 10
1.52761
 20
1.62123
 30
0.0
 10
1.52761
 20
1.62123
 30
0.0
 10
1.47046
 20
1.62123
 30
0.0
 10
1.41952
 20
1.63506
 30
0.0
 10
1.37451
 20
1.66258
 30
0.0
 10
1.37451
 20
1.66258
 30
0.0
 10
1.32963
 20
1.69009
 30
0.0
 10
1.29549
 20
1.72763
 30
0.0
 10
1.27234
 20
1.77532
 30
0.0
 10
1.27234
 20
1.77532
 30
0.0
 10
1.2492
 20
1.82288
 30
0.0
 10
1.23763
 20
1.87326
 30
0.0
 10
1.23763
 20
1.92645
 30
0.0
  0
SPLINE
  5
D8
330
1F
100
AcDbEntity
  8
Laag 1
100
AcDbSpline
210
0.0
220
0.0
230
1.0
 70
    11
 71
     3
 72
    40
 73
    36
 74
     0
 42
0.0000000001
 43
0.0000000001
 12
1.0
 22
0.0
 32
0.0
 13
1.0
 23
0.0
 33
0.0
 40
0.0
 40
0.0
 40
0.0
 40
0.0
 40
0.1
 40
0.1
 40
0.1
 40
0.1
 40
0.2
 40
0.2
 40
0.2
 40
0.2
 40
0.3
 40
0.3
 40
0.3
 40
0.3
 40
0.4
 40
0.4
 40
0.4
 40
0.4
 40
0.5
 40
0.5
 40
0.5
 40
0.5
 40
0.6
 40
0.6
 40
0.6
 40
0.6
 40
0.7
 40
0.7
 40
0.7
 40
0.7
 40
0.8
 40
0.8
 40
0.8
 40
0.8
 40
1.0
 40
1.0
 40
1.0
 40
1.0
 10
1.3206
 20
1.92504
 30
0.0
 10
1.3206
 20
1.85209
 30
0.0
 10
1.34022
 20
1.79466
 30
0.0
 10
1.37945
 20
1.75275
 30
0.0
 10
1.37945
 20
1.75275
 30
0.0
 10
1.41868
 20
1.71084
 30
0.0
 10
1.46792
 20
1.68981
 30
0.0
 10
1.52719
 20
1.68981
 30
0.0
 10
1.52719
 20
1.68981
 30
0.0
 10
1.58759
 20
1.68981
 30
0.0
 10
1.63712
 20
1.71098
 30
0.0
 10
1.67621
 20
1.75331
 30
0.0
 10
1.67621
 20
1.75331
 30
0.0
 10
1.71515
 20
1.79564
 30
0.0
 10
1.73463
 20
1.85576
 30
0.0
 10
1.73463
 20
1.93365
 30
0.0
 10
1.73463
 20
1.93365
 30
0.0
 10
1.73463
 20
1.9829
 30
0.0
 10
1.7263
 20
2.02594
 30
0.0
 10
1.70965
 20
2.06263
 30
0.0
 10
1.70965
 20
2.06263
 30
0.0
 10
1.693
 20
2.09932
 30
0.0
 10
1.66859
 20
2.12782
 30
0.0
 10
1.63655
 20
2.148
 30
0.0
 10
1.63655
 20
2.148
 30
0.0
 10
1.60438
 20
2.16818
 30
0.0
 10
1.5684
 20
2.17834
 30
0.0
 10
1.52846
 20
2.17834
 30
0.0
 10
1.52846
 20
2.17834
 30
0.0
 10
1.47173
 20
2.17834
 30
0.0
 10
1.42291
 20
2.15887
 30
0.0
 10
1.38199
 20
2.11992
 30
0.0
 10
1.38199
 20
2.11992
 30
0.0
 10
1.34107
 20
2.08097
 30
0.0
 10
1.3206
 20
2.01606
 30
0.0
 10
1.3206
 20
1.92504
 30
0.0
  0
SPLINE
  5
D9
330
1F
100
AcDbEntity
  8
Laag 1
100
AcDbSpline
210
0.0
220
0.0
230
1.0
 70
    11
 71
     3
 72
    44
 73
    40
 74
     0
 42
0.0000000001
 43
0.0000000001
 12
1.0
 22
0.0
 32
0.0
 13
1.0
 23
0.0
 33
0.0
 40
0.0
 40
0.0
 40
0.0
 40
0.0
 40
0.0909090909090909
 40
0.0909090909090909
 40
0.0909090909090909
 40
0.0909090909090909
 40
0.1818181818181818
 40
0.1818181818181818
 40
0.1818181818181818
 40
0.1818181818181818
 40
0.2727272727272727
 40
0.2727272727272727
 40
0.2727272727272727
 40
0.2727272727272727
 40
0.3636363636363636
 40
0.3636363636363636
 40
0.3636363636363636
 40
0.3636363636363636
 40
0.4545454545454545
 40
0.4545454545454545
 40
0.4545454545454545
 40
0.4545454545454545
 40
0.5454545454545454
 40
0.5454545454545454
 40
0.5454545454545454
 40
0.5454545454545454
 40
0.6363636363636364
 40
0.6363636363636364
 40
0.6363636363636364
 40
0.6363636363636364
 40
0.7272727272727273
 40
0.7272727272727273
 40
0.7272727272727273
 40
0.7272727272727273
 40
0.8181818181818182
 40
0.8181818181818182
 40
0.8181818181818182
 40
0.8181818181818182
 40
1.0
 40
1.0
 40
1.0
 40
1.0
 10
1.91991
 20
1.63139
 30
0.0
 10
1.91991
 20
1.63139
 30
0.0
 10
1.91991
 20
2.23761
 30
0.0
 10
1.91991
 20
2.23761
 30
0.0
 10
1.91991
 20
2.23761
 30
0.0
 10
1.91991
 20
2.23761
 30
0.0
 10
2.00232
 20
2.23761
 30
0.0
 10
2.00232
 20
2.23761
 30
0.0
 10
2.00232
 20
2.23761
 30
0.0
 10
2.00232
 20
2.23761
 30
0.0
 10
2.32038
 20
1.76178
 30
0.0
 10
2.32038
 20
1.76178
 30
0.0
 10
2.32038
 20
1.76178
 30
0.0
 10
2.32038
 20
1.76178
 30
0.0
 10
2.32038
 20
2.23761
 30
0.0
 10
2.32038
 20
2.23761
 30
0.0
 10
2.32038
 20
2.23761
 30
0.0
 10
2.32038
 20
2.23761
 30
0.0
 10
2.39743
 20
2.23761
 30
0.0
 10
2.39743
 20
2.23761
 30
0.0
 10
2.39743
 20
2.23761
 30
0.0
 10
2.39743
 20
2.23761
 30
0.0
 10
2.39743
 20
1.63139
 30
0.0
 10
2.39743
 20
1.63139
 30
0.0
 10
2.39743
 20
1.63139
 30
0.0
 10
2.39743
 20
1.63139
 30
0.0
 10
2.31502
 20
1.63139
 30
0.0
 10
2.31502
 20
1.63139
 30
0.0
 10
2.31502
 20
1.63139
 30
0.0
 10
2.31502
 20
1.63139
 30
0.0
 10
1.99695
 20
2.10722
 30
0.0
 10
1.99695
 20
2.10722
 30
0.0
 10
1.99695
 20
2.10722
 30
0.0
 10
1.99695
 20
2.10722
 30
0.0
 10
1.99695
 20
1.63139
 30
0.0
 10
1.99695
 20
1.63139
 30
0.0
 10
1.99695
 20
1.63139
 30
0.0
 10
1.99695
 20
1.63139
 30
0.0
 10
1.91991
 20
1.63139
 30
0.0
 10
1.91991
 20
1.63139
 30
0.0
  0
SPLINE
  5
DA
330
1F
100
AcDbEntity
  8
Laag 1
100
AcDbSpline
210
0.0
220
0.0
230
1.0
 70
    11
 71
     3
 72
    36
 73
    32
 74
     0
 42
0.0000000001
 43
0.0000000001
 12
1.0
 22
0.0
 32
0.0
 13
1.0
 23
0.0
 33
0.0
 40
0.0
 40
0.0
 40
0.0
 40
0.0
 40
0.1111111111111111
 40
0.1111111111111111
 40
0.1111111111111111
 40
0.1111111111111111
 40
0.2222222222222222
 40
0.2222222222222222
 40
0.2222222222222222
 40
0.2222222222222222
 40
0.3333333333333333
 40
0.3333333333333333
 40
0.3333333333333333
 40
0.3333333333333333
 40
0.4444444444444444
 40
0.4444444444444444
 40
0.4444444444444444
 40
0.4444444444444444
 40
0.5555555555555556
 40
0.5555555555555556
 40
0.5555555555555556
 40
0.5555555555555556
 40
0.6666666666666666
 40
0.6666666666666666
 40
0.6666666666666666
 40
0.6666666666666666
 40
0.7777777777777778
 40
0.7777777777777778
 40
0.7777777777777778
 40
0.7777777777777778
 40
1.0
 40
1.0
 40
1.0
 40
1.0
 10
3.55775
 20
-0.95791
 30
0.0
 10
3.55775
 20
-0.95791
 30
0.0
 10
3.73216
 20
-0.50325
 30
0.0
 10
3.73216
 20
-0.50325
 30
0.0
 10
3.73216
 20
-0.50325
 30
0.0
 10
3.73216
 20
-0.50325
 30
0.0
 10
3.79831
 20
-0.50325
 30
0.0
 10
3.79831
 20
-0.50325
 30
0.0
 10
3.79831
 20
-0.50325
 30
0.0
 10
3.79831
 20
-0.50325
 30
0.0
 10
3.98341
 20
-0.95791
 30
0.0
 10
3.98341
 20
-0.95791
 30
0.0
 10
3.98341
 20
-0.95791
 30
0.0
 10
3.98341
 20
-0.95791
 30
0.0
 10
3.91494
 20
-0.95791
 30
0.0
 10
3.91494
 20
-0.95791
 30
0.0
 10
3.91494
 20
-0.95791
 30
0.0
 10
3.91494
 20
-0.95791
 30
0.0
 10
3.86234
 20
-0.82011
 30
0.0
 10
3.86234
 20
-0.82011
 30
0.0
 10
3.86234
 20
-0.82011
 30
0.0
 10
3.86234
 20
-0.82011
 30
0.0
 10
3.67088
 20
-0.82011
 30
0.0
 10
3.67088
 20
-0.82011
 30
0.0
 10
3.67088
 20
-0.82011
 30
0.0
 10
3.67088
 20
-0.82011
 30
0.0
 10
3.62157
 20
-0.95791
 30
0.0
 10
3.62157
 20
-0.95791
 30
0.0
 10
3.62157
 20
-0.95791
 30
0.0
 10
3.62157
 20
-0.95791
 30
0.0
 10
3.55775
 20
-0.95791
 30
0.0
 10
3.55775
 20
-0.95791
 30
0.0
  0
SPLINE
  5
DB
330
1F
100
AcDbEntity
  8
Laag 1
100
AcDbSpline
210
0.0
220
0.0
230
1.0
 70
    11
 71
     3
 72
    24
 73
    20
 74
     0
 42
0.0000000001
 43
0.0000000001
 12
1.0
 22
0.0
 32
0.0
 13
1.0
 23
0.0
 33
0.0
 40
0.0
 40
0.0
 40
0.0
 40
0.0
 40
0.1666666666666667
 40
0.1666666666666667
 40
0.1666666666666667
 40
0.1666666666666667
 40
0.3333333333333333
 40
0.3333333333333333
 40
0.3333333333333333
 40
0.3333333333333333
 40
0.5
 40
0.5
 40
0.5
 40
0.5
 40
0.6666666666666666
 40
0.6666666666666666
 40
0.6666666666666666
 40
0.6666666666666666
 40
1.0
 40
1.0
 40
1.0
 40
1.0
 10
3.68856
 20
-0.77122
 30
0.0
 10
3.68856
 20
-0.77122
 30
0.0
 10
3.8435
 20
-0.77122
 30
0.0
 10
3.8435
 20
-0.77122
 30
0.0
 10
3.8435
 20
-0.77122
 30
0.0
 10
3.8435
 20
-0.77122
 30
0.0
 10
3.79608
 20
-0.64517
 30
0.0
 10
3.79608
 20
-0.64517
 30
0.0
 10
3.79608
 20
-0.64517
 30
0.0
 10
3.7818
 20
-0.60686
 30
0.0
 10
3.771
 20
-0.57522
 30
0.0
 10
3.76349
 20
-0.55024
 30
0.0
 10
3.76349
 20
-0.55024
 30
0.0
 10
3.75724
 20
-0.57987
 30
0.0
 10
3.74888
 20
-0.60898
 30
0.0
 10
3.73841
 20
-0.63776
 30
0.0
 10
3.73841
 20
-0.63776
 30
0.0
 10
3.73841
 20
-0.63776
 30
0.0
 10
3.68856
 20
-0.77122
 30
0.0
 10
3.68856
 20
-0.77122
 30
0.0
  0
SPLINE
  5
DC
330
1F
100
AcDbEntity
  8
Laag 1
100
AcDbSpline
210
0.0
220
0.0
230
1.0
 70
    11
 71
     3
 72
    20
 73
    16
 74
     0
 42
0.0000000001
 43
0.0000000001
 12
1.0
 22
0.0
 32
0.0
 13
1.0
 23
0.0
 33
0.0
 40
0.0
 40
0.0
 40
0.0
 40
0.0
 40
0.2
 40
0.2
 40
0.2
 40
0.2
 40
0.4
 40
0.4
 40
0.4
 40
0.4
 40
0.6
 40
0.6
 40
0.6
 40
0.6
 40
1.0
 40
1.0
 40
1.0
 40
1.0
 10
4.02416
 20
-0.56675
 30
0.0
 10
4.02416
 20
-0.56675
 30
0.0
 10
4.02416
 20
-0.50325
 30
0.0
 10
4.02416
 20
-0.50325
 30
0.0
 10
4.02416
 20
-0.50325
 30
0.0
 10
4.02416
 20
-0.50325
 30
0.0
 10
4.08004
 20
-0.50325
 30
0.0
 10
4.08004
 20
-0.50325
 30
0.0
 10
4.08004
 20
-0.50325
 30
0.0
 10
4.08004
 20
-0.50325
 30
0.0
 10
4.08004
 20
-0.56675
 30
0.0
 10
4.08004
 20
-0.56675
 30
0.0
 10
4.08004
 20
-0.56675
 30
0.0
 10
4.08004
 20
-0.56675
 30
0.0
 10
4.02416
 20
-0.56675
 30
0.0
 10
4.02416
 20
-0.56675
 30
0.0
  0
SPLINE
  5
DD
330
1F
100
AcDbEntity
  8
Laag 1
100
AcDbSpline
210
0.0
220
0.0
230
1.0
 70
    11
 71
     3
 72
    20
 73
    16
 74
     0
 42
0.0000000001
 43
0.0000000001
 12
1.0
 22
0.0
 32
0.0
 13
1.0
 23
0.0
 33
0.0
 40
0.0
 40
0.0
 40
0.0
 40
0.0
 40
0.2
 40
0.2
 40
0.2
 40
0.2
 40
0.4
 40
0.4
 40
0.4
 40
0.4
 40
0.6
 40
0.6
 40
0.6
 40
0.6
 40
1.0
 40
1.0
 40
1.0
 40
1.0
 10
4.02416
 20
-0.95791
 30
0.0
 10
4.02416
 20
-0.95791
 30
0.0
 10
4.02416
 20
-0.62834
 30
0.0
 10
4.02416
 20
-0.62834
 30
0.0
 10
4.02416
 20
-0.62834
 30
0.0
 10
4.02416
 20
-0.62834
 30
0.0
 10
4.08004
 20
-0.62834
 30
0.0
 10
4.08004
 20
-0.62834
 30
0.0
 10
4.08004
 20
-0.62834
 30
0.0
 10
4.08004
 20
-0.62834
 30
0.0
 10
4.08004
 20
-0.95791
 30
0.0
 10
4.08004
 20
-0.95791
 30
0.0
 10
4.08004
 20
-0.95791
 30
0.0
 10
4.08004
 20
-0.95791
 30
0.0
 10
4.02416
 20
-0.95791
 30
0.0
 10
4.02416
 20
-0.95791
 30
0.0
  0
SPLINE
  5
DE
330
1F
100
AcDbEntity
  8
Laag 1
100
AcDbSpline
210
0.0
220
0.0
230
1.0
 70
    11
 71
     3
 72
    56
 73
    52
 74
     0
 42
0.0000000001
 43
0.0000000001
 12
1.0
 22
0.0
 32
0.0
 13
1.0
 23
0.0
 33
0.0
 40
0.0
 40
0.0
 40
0.0
 40
0.0
 40
0.0714285714285714
 40
0.0714285714285714
 40
0.0714285714285714
 40
0.0714285714285714
 40
0.1428571428571428
 40
0.1428571428571428
 40
0.1428571428571428
 40
0.1428571428571428
 40
0.2142857142857143
 40
0.2142857142857143
 40
0.2142857142857143
 40
0.2142857142857143
 40
0.2857142857142857
 40
0.2857142857142857
 40
0.2857142857142857
 40
0.2857142857142857
 40
0.3571428571428572
 40
0.3571428571428572
 40
0.3571428571428572
 40
0.3571428571428572
 40
0.4285714285714285
 40
0.4285714285714285
 40
0.4285714285714285
 40
0.4285714285714285
 40
0.5
 40
0.5
 40
0.5
 40
0.5
 40
0.5714285714285714
 40
0.5714285714285714
 40
0.5714285714285714
 40
0.5714285714285714
 40
0.6428571428571429
 40
0.6428571428571429
 40
0.6428571428571429
 40
0.6428571428571429
 40
0.7142857142857143
 40
0.7142857142857143
 40
0.7142857142857143
 40
0.7142857142857143
 40
0.7857142857142857
 40
0.7857142857142857
 40
0.7857142857142857
 40
0.7857142857142857
 40
0.8571428571428571
 40
0.8571428571428571
 40
0.8571428571428571
 40
0.8571428571428571
 40
1.0
 40
1.0
 40
1.0
 40
1.0
 10
4.16461
 20
-0.95791
 30
0.0
 10
4.16461
 20
-0.95791
 30
0.0
 10
4.16461
 20
-0.62834
 30
0.0
 10
4.16461
 20
-0.62834
 30
0.0
 10
4.16461
 20
-0.62834
 30
0.0
 10
4.16461
 20
-0.62834
 30
0.0
 10
4.21477
 20
-0.62834
 30
0.0
 10
4.21477
 20
-0.62834
 30
0.0
 10
4.21477
 20
-0.62834
 30
0.0
 10
4.21477
 20
-0.62834
 30
0.0
 10
4.21477
 20
-0.67883
 30
0.0
 10
4.21477
 20
-0.67883
 30
0.0
 10
4.21477
 20
-0.67883
 30
0.0
 10
4.22758
 20
-0.65544
 30
0.0
 10
4.23943
 20
-0.63999
 30
0.0
 10
4.25033
 20
-0.63258
 30
0.0
 10
4.25033
 20
-0.63258
 30
0.0
 10
4.26123
 20
-0.62506
 30
0.0
 10
4.27319
 20
-0.62136
 30
0.0
 10
4.28621
 20
-0.62136
 30
0.0
 10
4.28621
 20
-0.62136
 30
0.0
 10
4.30505
 20
-0.62136
 30
0.0
 10
4.3242
 20
-0.62729
 30
0.0
 10
4.34368
 20
-0.63903
 30
0.0
 10
4.34368
 20
-0.63903
 30
0.0
 10
4.34368
 20
-0.63903
 30
0.0
 10
4.32378
 20
-0.69057
 30
0.0
 10
4.32378
 20
-0.69057
 30
0.0
 10
4.32378
 20
-0.69057
 30
0.0
 10
4.31023
 20
-0.68295
 30
0.0
 10
4.29669
 20
-0.67914
 30
0.0
 10
4.28314
 20
-0.67914
 30
0.0
 10
4.28314
 20
-0.67914
 30
0.0
 10
4.27097
 20
-0.67914
 30
0.0
 10
4.26007
 20
-0.68285
 30
0.0
 10
4.25044
 20
-0.69015
 30
0.0
 10
4.25044
 20
-0.69015
 30
0.0
 10
4.24081
 20
-0.69745
 30
0.0
 10
4.23393
 20
-0.70761
 30
0.0
 10
4.2298
 20
-0.72063
 30
0.0
 10
4.2298
 20
-0.72063
 30
0.0
 10
4.22355
 20
-0.74042
 30
0.0
 10
4.22049
 20
-0.76212
 30
0.0
 10
4.22049
 20
-0.78572
 30
0.0
 10
4.22049
 20
-0.78572
 30
0.0
 10
4.22049
 20
-0.78572
 30
0.0
 10
4.22049
 20
-0.95791
 30
0.0
 10
4.22049
 20
-0.95791
 30
0.0
 10
4.22049
 20
-0.95791
 30
0.0
 10
4.22049
 20
-0.95791
 30
0.0
 10
4.16461
 20
-0.95791
 30
0.0
 10
4.16461
 20
-0.95791
 30
0.0
  0
SPLINE
  5
DF
330
1F
100
AcDbEntity
  8
Laag 1
100
AcDbSpline
210
0.0
220
0.0
230
1.0
 70
    11
 71
     3
 72
    28
 73
    24
 74
     0
 42
0.0000000001
 43
0.0000000001
 12
1.0
 22
0.0
 32
0.0
 13
1.0
 23
0.0
 33
0.0
 40
0.0
 40
0.0
 40
0.0
 40
0.0
 40
0.1428571428571428
 40
0.1428571428571428
 40
0.1428571428571428
 40
0.1428571428571428
 40
0.2857142857142857
 40
0.2857142857142857
 40
0.2857142857142857
 40
0.2857142857142857
 40
0.4285714285714285
 40
0.4285714285714285
 40
0.4285714285714285
 40
0.4285714285714285
 40
0.5714285714285714
 40
0.5714285714285714
 40
0.5714285714285714
 40
0.5714285714285714
 40
0.7142857142857143
 40
0.7142857142857143
 40
0.7142857142857143
 40
0.7142857142857143
 40
1.0
 40
1.0
 40
1.0
 40
1.0
 10
-5.88142
 20
3.3707
 30
0.0
 10
-5.88142
 20
3.3707
 30
0.0
 10
-5.88142
 20
3.82536
 30
0.0
 10
-5.88142
 20
3.82536
 30
0.0
 10
-5.88142
 20
3.82536
 30
0.0
 10
-5.88142
 20
3.82536
 30
0.0
 10
-5.8211
 20
3.82536
 30
0.0
 10
-5.8211
 20
3.82536
 30
0.0
 10
-5.8211
 20
3.82536
 30
0.0
 10
-5.8211
 20
3.82536
 30
0.0
 10
-5.8211
 20
3.42404
 30
0.0
 10
-5.8211
 20
3.42404
 30
0.0
 10
-5.8211
 20
3.42404
 30
0.0
 10
-5.8211
 20
3.42404
 30
0.0
 10
-5.59758
 20
3.42404
 30
0.0
 10
-5.59758
 20
3.42404
 30
0.0
 10
-5.59758
 20
3.42404
 30
0.0
 10
-5.59758
 20
3.42404
 30
0.0
 10
-5.59758
 20
3.3707
 30
0.0
 10
-5.59758
 20
3.3707
 30
0.0
 10
-5.59758
 20
3.3707
 30
0.0
 10
-5.59758
 20
3.3707
 30
0.0
 10
-5.88142
 20
3.3707
 30
0.0
 10
-5.88142
 20
3.3707
 30
0.0
  0
SPLINE
  5
E0
330
1F
100
AcDbEntity
  8
Laag 1
100
AcDbSpline
210
0.0
220
0.0
230
1.0
 70
    11
 71
     3
 72
   112
 73
   108
 74
     0
 42
0.0000000001
 43
0.0000000001
 12
1.0
 22
0.0
 32
0.0
 13
1.0
 23
0.0
 33
0.0
 40
0.0
 40
0.0
 40
0.0
 40
0.0
 40
0.0357142857142857
 40
0.0357142857142857
 40
0.0357142857142857
 40
0.0357142857142857
 40
0.0714285714285714
 40
0.0714285714285714
 40
0.0714285714285714
 40
0.0714285714285714
 40
0.1071428571428571
 40
0.1071428571428571
 40
0.1071428571428571
 40
0.1071428571428571
 40
0.1428571428571428
 40
0.1428571428571428
 40
0.1428571428571428
 40
0.1428571428571428
 40
0.1785714285714286
 40
0.1785714285714286
 40
0.1785714285714286
 40
0.1785714285714286
 40
0.2142857142857143
 40
0.2142857142857143
 40
0.2142857142857143
 40
0.2142857142857143
 40
0.25
 40
0.25
 40
0.25
 40
0.25
 40
0.2857142857142857
 40
0.2857142857142857
 40
0.2857142857142857
 40
0.2857142857142857
 40
0.3214285714285715
 40
0.3214285714285715
 40
0.3214285714285715
 40
0.3214285714285715
 40
0.3571428571428572
 40
0.3571428571428572
 40
0.3571428571428572
 40
0.3571428571428572
 40
0.3928571428571428
 40
0.3928571428571428
 40
0.3928571428571428
 40
0.3928571428571428
 40
0.4285714285714285
 40
0.4285714285714285
 40
0.4285714285714285
 40
0.4285714285714285
 40
0.4642857142857143
 40
0.4642857142857143
 40
0.4642857142857143
 40
0.4642857142857143
 40
0.5
 40
0.5
 40
0.5
 40
0.5
 40
0.5357142857142857
 40
0.5357142857142857
 40
0.5357142857142857
 40
0.5357142857142857
 40
0.5714285714285714
 40
0.5714285714285714
 40
0.5714285714285714
 40
0.5714285714285714
 40
0.6071428571428571
 40
0.6071428571428571
 40
0.6071428571428571
 40
0.6071428571428571
 40
0.6428571428571429
 40
0.6428571428571429
 40
0.6428571428571429
 40
0.6428571428571429
 40
0.6785714285714286
 40
0.6785714285714286
 40
0.6785714285714286
 40
0.6785714285714286
 40
0.7142857142857143
 40
0.7142857142857143
 40
0.7142857142857143
 40
0.7142857142857143
 40
0.75
 40
0.75
 40
0.75
 40
0.75
 40
0.7857142857142857
 40
0.7857142857142857
 40
0.7857142857142857
 40
0.7857142857142857
 40
0.8214285714285714
 40
0.8214285714285714
 40
0.8214285714285714
 40
0.8214285714285714
 40
0.8571428571428571
 40
0.8571428571428571
 40
0.8571428571428571
 40
0.8571428571428571
 40
0.8928571428571429
 40
0.8928571428571429
 40
0.8928571428571429
 40
0.8928571428571429
 40
0.9285714285714286
 40
0.9285714285714286
 40
0.9285714285714286
 40
0.9285714285714286
 40
1.0
 40
1.0
 40
1.0
 40
1.0
 10
-5.31743
 20
3.41198
 30
0.0
 10
-5.33818
 20
3.3943
 30
0.0
 10
-5.35818
 20
3.38192
 30
0.0
 10
-5.37734
 20
3.37462
 30
0.0
 10
-5.37734
 20
3.37462
 30
0.0
 10
-5.39649
 20
3.36731
 30
0.0
 10
-5.41702
 20
3.36371
 30
0.0
 10
-5.43904
 20
3.36371
 30
0.0
 10
-5.43904
 20
3.36371
 30
0.0
 10
-5.47523
 20
3.36371
 30
0.0
 10
-5.50307
 20
3.3725
 30
0.0
 10
-5.52254
 20
3.39017
 30
0.0
 10
-5.52254
 20
3.39017
 30
0.0
 10
-5.54201
 20
3.40774
 30
0.0
 10
-5.55175
 20
3.43028
 30
0.0
 10
-5.55175
 20
3.4577
 30
0.0
 10
-5.55175
 20
3.4577
 30
0.0
 10
-5.55175
 20
3.47378
 30
0.0
 10
-5.54805
 20
3.48849
 30
0.0
 10
-5.54074
 20
3.50183
 30
0.0
 10
-5.54074
 20
3.50183
 30
0.0
 10
-5.53333
 20
3.51516
 30
0.0
 10
-5.5237
 20
3.52575
 30
0.0
 10
-5.51185
 20
3.53379
 30
0.0
 10
-5.51185
 20
3.53379
 30
0.0
 10
-5.49989
 20
3.54183
 30
0.0
 10
-5.48656
 20
3.54797
 30
0.0
 10
-5.47163
 20
3.5521
 30
0.0
 10
-5.47163
 20
3.5521
 30
0.0
 10
-5.46063
 20
3.55496
 30
0.0
 10
-5.44401
 20
3.55771
 30
0.0
 10
-5.42189
 20
3.56046
 30
0.0
 10
-5.42189
 20
3.56046
 30
0.0
 10
-5.37681
 20
3.56575
 30
0.0
 10
-5.34347
 20
3.57221
 30
0.0
 10
-5.3222
 20
3.57962
 30
0.0
 10
-5.3222
 20
3.57962
 30
0.0
 10
-5.32199
 20
3.58724
 30
0.0
 10
-5.32188
 20
3.5921
 30
0.0
 10
-5.32188
 20
3.59411
 30
0.0
 10
-5.32188
 20
3.59411
 30
0.0
 10
-5.32188
 20
3.61676
 30
0.0
 10
-5.32717
 20
3.63274
 30
0.0
 10
-5.33775
 20
3.64206
 30
0.0
 10
-5.33775
 20
3.64206
 30
0.0
 10
-5.35204
 20
3.65465
 30
0.0
 10
-5.37331
 20
3.6609
 30
0.0
 10
-5.40147
 20
3.6609
 30
0.0
 10
-5.40147
 20
3.6609
 30
0.0
 10
-5.42782
 20
3.6609
 30
0.0
 10
-5.44729
 20
3.65624
 30
0.0
 10
-5.45978
 20
3.64703
 30
0.0
 10
-5.45978
 20
3.64703
 30
0.0
 10
-5.47237
 20
3.63782
 30
0.0
 10
-5.48158
 20
3.62153
 30
0.0
 10
-5.48761
 20
3.59803
 30
0.0
 10
-5.48761
 20
3.59803
 30
0.0
 10
-5.48761
 20
3.59803
 30
0.0
 10
-5.54222
 20
3.60565
 30
0.0
 10
-5.54222
 20
3.60565
 30
0.0
 10
-5.54222
 20
3.60565
 30
0.0
 10
-5.53725
 20
3.62904
 30
0.0
 10
-5.5291
 20
3.64798
 30
0.0
 10
-5.51767
 20
3.66238
 30
0.0
 10
-5.51767
 20
3.66238
 30
0.0
 10
-5.50624
 20
3.67677
 30
0.0
 10
-5.48973
 20
3.68778
 30
0.0
 10
-5.46814
 20
3.69561
 30
0.0
 10
-5.46814
 20
3.69561
 30
0.0
 10
-5.44666
 20
3.70333
 30
0.0
 10
-5.42157
 20
3.70725
 30
0.0
 10
-5.39321
 20
3.70725
 30
0.0
 10
-5.39321
 20
3.70725
 30
0.0
 10
-5.36506
 20
3.70725
 30
0.0
 10
-5.34209
 20
3.70397
 30
0.0
 10
-5.32442
 20
3.6973
 30
0.0
 10
-5.32442
 20
3.6973
 30
0.0
 10
-5.30685
 20
3.69063
 30
0.0
 10
-5.29383
 20
3.68238
 30
0.0
 10
-5.28558
 20
3.67233
 30
0.0
 10
-5.28558
 20
3.67233
 30
0.0
 10
-5.27732
 20
3.66227
 30
0.0
 10
-5.2715
 20
3.64957
 30
0.0
 10
-5.26812
 20
3.63423
 30
0.0
 10
-5.26812
 20
3.63423
 30
0.0
 10
-5.26632
 20
3.6247
 30
0.0
 10
-5.26536
 20
3.60756
 30
0.0
 10
-5.26536
 20
3.5829
 30
0.0
 10
-5.26536
 20
3.5829
 30
0.0
 10
-5.26536
 20
3.5829
 30
0.0
 10
-5.26536
 20
3.50881
 30
0.0
 10
-5.26536
 20
3.50881
 30
0.0
 10
-5.26536
 20
3.50881
 30
0.0
 10
-5.26536
 20
3.45706
 30
0.0
 10
-5.2642
 20
3.42436
 30
0.0
 10
-5.26187
 20
3.41049
 30
0.0
 10
-5.26187
 20
3.41049
 30
0.0
 10
-5.25965
 20
3.39663
 30
0.0
 10
-5.25499
 20
3.3834
 30
0.0
 10
-5.24822
 20
3.3707
 30
0.0
 10
-5.24822
 20
3.3707
 30
0.0
 10
-5.24822
 20
3.3707
 30
0.0
 10
-5.30664
 20
3.3707
 30
0.0
 10
-5.30664
 20
3.3707
 30
0.0
 10
-5.30664
 20
3.3707
 30
0.0
 10
-5.31225
 20
3.38245
 30
0.0
 10
-5.31585
 20
3.39621
 30
0.0
 10
-5.31743
 20
3.41198
 30
0.0
  0
SPLINE
  5
E1
330
1F
100
AcDbEntity
  8
Laag 1
100
AcDbSpline
210
0.0
220
0.0
230
1.0
 70
    11
 71
     3
 72
    44
 73
    40
 74
     0
 42
0.0000000001
 43
0.0000000001
 12
1.0
 22
0.0
 32
0.0
 13
1.0
 23
0.0
 33
0.0
 40
0.0
 40
0.0
 40
0.0
 40
0.0
 40
0.0909090909090909
 40
0.0909090909090909
 40
0.0909090909090909
 40
0.0909090909090909
 40
0.1818181818181818
 40
0.1818181818181818
 40
0.1818181818181818
 40
0.1818181818181818
 40
0.2727272727272727
 40
0.2727272727272727
 40
0.2727272727272727
 40
0.2727272727272727
 40
0.3636363636363636
 40
0.3636363636363636
 40
0.3636363636363636
 40
0.3636363636363636
 40
0.4545454545454545
 40
0.4545454545454545
 40
0.4545454545454545
 40
0.4545454545454545
 40
0.5454545454545454
 40
0.5454545454545454
 40
0.5454545454545454
 40
0.5454545454545454
 40
0.6363636363636364
 40
0.6363636363636364
 40
0.6363636363636364
 40
0.6363636363636364
 40
0.7272727272727273
 40
0.7272727272727273
 40
0.7272727272727273
 40
0.7272727272727273
 40
0.8181818181818182
 40
0.8181818181818182
 40
0.8181818181818182
 40
0.8181818181818182
 40
1.0
 40
1.0
 40
1.0
 40
1.0
 10
-5.32188
 20
3.5358
 30
0.0
 10
-5.3422
 20
3.52755
 30
0.0
 10
-5.37268
 20
3.52056
 30
0.0
 10
-5.41332
 20
3.51485
 30
0.0
 10
-5.41332
 20
3.51485
 30
0.0
 10
-5.43639
 20
3.51156
 30
0.0
 10
-5.45269
 20
3.50786
 30
0.0
 10
-5.46221
 20
3.50373
 30
0.0
 10
-5.46221
 20
3.50373
 30
0.0
 10
-5.47174
 20
3.49961
 30
0.0
 10
-5.47904
 20
3.49357
 30
0.0
 10
-5.48423
 20
3.48574
 30
0.0
 10
-5.48423
 20
3.48574
 30
0.0
 10
-5.48941
 20
3.4778
 30
0.0
 10
-5.49206
 20
3.46902
 30
0.0
 10
-5.49206
 20
3.45928
 30
0.0
 10
-5.49206
 20
3.45928
 30
0.0
 10
-5.49206
 20
3.44457
 30
0.0
 10
-5.48645
 20
3.43219
 30
0.0
 10
-5.47513
 20
3.42235
 30
0.0
 10
-5.47513
 20
3.42235
 30
0.0
 10
-5.4638
 20
3.4125
 30
0.0
 10
-5.44729
 20
3.40753
 30
0.0
 10
-5.4256
 20
3.40753
 30
0.0
 10
-5.4256
 20
3.40753
 30
0.0
 10
-5.40411
 20
3.40753
 30
0.0
 10
-5.38496
 20
3.41219
 30
0.0
 10
-5.36813
 20
3.42161
 30
0.0
 10
-5.36813
 20
3.42161
 30
0.0
 10
-5.35141
 20
3.43092
 30
0.0
 10
-5.33902
 20
3.44373
 30
0.0
 10
-5.33119
 20
3.45992
 30
0.0
 10
-5.33119
 20
3.45992
 30
0.0
 10
-5.32516
 20
3.47251
 30
0.0
 10
-5.3222
 20
3.49103
 30
0.0
 10
-5.3222
 20
3.51548
 30
0.0
 10
-5.3222
 20
3.51548
 30
0.0
 10
-5.3222
 20
3.51548
 30
0.0
 10
-5.32188
 20
3.5358
 30
0.0
 10
-5.32188
 20
3.5358
 30
0.0
  0
SPLINE
  5
E2
330
1F
100
AcDbEntity
  8
Laag 1
100
AcDbSpline
210
0.0
220
0.0
230
1.0
 70
    11
 71
     3
 72
   136
 73
   132
 74
     0
 42
0.0000000001
 43
0.0000000001
 12
1.0
 22
0.0
 32
0.0
 13
1.0
 23
0.0
 33
0.0
 40
0.0
 40
0.0
 40
0.0
 40
0.0
 40
0.0294117647058824
 40
0.0294117647058824
 40
0.0294117647058824
 40
0.0294117647058824
 40
0.0588235294117647
 40
0.0588235294117647
 40
0.0588235294117647
 40
0.0588235294117647
 40
0.0882352941176471
 40
0.0882352941176471
 40
0.0882352941176471
 40
0.0882352941176471
 40
0.1176470588235294
 40
0.1176470588235294
 40
0.1176470588235294
 40
0.1176470588235294
 40
0.1470588235294118
 40
0.1470588235294118
 40
0.1470588235294118
 40
0.1470588235294118
 40
0.1764705882352941
 40
0.1764705882352941
 40
0.1764705882352941
 40
0.1764705882352941
 40
0.2058823529411765
 40
0.2058823529411765
 40
0.2058823529411765
 40
0.2058823529411765
 40
0.2352941176470588
 40
0.2352941176470588
 40
0.2352941176470588
 40
0.2352941176470588
 40
0.2647058823529412
 40
0.2647058823529412
 40
0.2647058823529412
 40
0.2647058823529412
 40
0.2941176470588235
 40
0.2941176470588235
 40
0.2941176470588235
 40
0.2941176470588235
 40
0.3235294117647059
 40
0.3235294117647059
 40
0.3235294117647059
 40
0.3235294117647059
 40
0.3529411764705883
 40
0.3529411764705883
 40
0.3529411764705883
 40
0.3529411764705883
 40
0.3823529411764706
 40
0.3823529411764706
 40
0.3823529411764706
 40
0.3823529411764706
 40
0.4117647058823529
 40
0.4117647058823529
 40
0.4117647058823529
 40
0.4117647058823529
 40
0.4411764705882353
 40
0.4411764705882353
 40
0.4411764705882353
 40
0.4411764705882353
 40
0.4705882352941176
 40
0.4705882352941176
 40
0.4705882352941176
 40
0.4705882352941176
 40
0.5
 40
0.5
 40
0.5
 40
0.5
 40
0.5294117647058824
 40
0.5294117647058824
 40
0.5294117647058824
 40
0.5294117647058824
 40
0.5588235294117647
 40
0.5588235294117647
 40
0.5588235294117647
 40
0.5588235294117647
 40
0.5882352941176471
 40
0.5882352941176471
 40
0.5882352941176471
 40
0.5882352941176471
 40
0.6176470588235294
 40
0.6176470588235294
 40
0.6176470588235294
 40
0.6176470588235294
 40
0.6470588235294118
 40
0.6470588235294118
 40
0.6470588235294118
 40
0.6470588235294118
 40
0.6764705882352942
 40
0.6764705882352942
 40
0.6764705882352942
 40
0.6764705882352942
 40
0.7058823529411765
 40
0.7058823529411765
 40
0.7058823529411765
 40
0.7058823529411765
 40
0.7352941176470589
 40
0.7352941176470589
 40
0.7352941176470589
 40
0.7352941176470589
 40
0.7647058823529411
 40
0.7647058823529411
 40
0.7647058823529411
 40
0.7647058823529411
 40
0.7941176470588235
 40
0.7941176470588235
 40
0.7941176470588235
 40
0.7941176470588235
 40
0.8235294117647058
 40
0.8235294117647058
 40
0.8235294117647058
 40
0.8235294117647058
 40
0.8529411764705882
 40
0.8529411764705882
 40
0.8529411764705882
 40
0.8529411764705882
 40
0.8823529411764706
 40
0.8823529411764706
 40
0.8823529411764706
 40
0.8823529411764706
 40
0.9117647058823529
 40
0.9117647058823529
 40
0.9117647058823529
 40
0.9117647058823529
 40
0.9411764705882353
 40
0.9411764705882353
 40
0.9411764705882353
 40
0.9411764705882353
 40
1.0
 40
1.0
 40
1.0
 40
1.0
 10
-5.20175
 20
3.46913
 30
0.0
 10
-5.20175
 20
3.46913
 30
0.0
 10
-5.14651
 20
3.47802
 30
0.0
 10
-5.14651
 20
3.47802
 30
0.0
 10
-5.14651
 20
3.47802
 30
0.0
 10
-5.14344
 20
3.4559
 30
0.0
 10
-5.13476
 20
3.43896
 30
0.0
 10
-5.12058
 20
3.42711
 30
0.0
 10
-5.12058
 20
3.42711
 30
0.0
 10
-5.1064
 20
3.41536
 30
0.0
 10
-5.0865
 20
3.40944
 30
0.0
 10
-5.0611
 20
3.40944
 30
0.0
 10
-5.0611
 20
3.40944
 30
0.0
 10
-5.03538
 20
3.40944
 30
0.0
 10
-5.01633
 20
3.41462
 30
0.0
 10
-5.00385
 20
3.4251
 30
0.0
 10
-5.00385
 20
3.4251
 30
0.0
 10
-4.99146
 20
3.43547
 30
0.0
 10
-4.98522
 20
3.44775
 30
0.0
 10
-4.98522
 20
3.46182
 30
0.0
 10
-4.98522
 20
3.46182
 30
0.0
 10
-4.98522
 20
3.47442
 30
0.0
 10
-4.99083
 20
3.48437
 30
0.0
 10
-5.00194
 20
3.49156
 30
0.0
 10
-5.00194
 20
3.49156
 30
0.0
 10
-5.00977
 20
3.49654
 30
0.0
 10
-5.02882
 20
3.50278
 30
0.0
 10
-5.05909
 20
3.51051
 30
0.0
 10
-5.05909
 20
3.51051
 30
0.0
 10
-5.09994
 20
3.52077
 30
0.0
 10
-5.1282
 20
3.52966
 30
0.0
 10
-5.14408
 20
3.53718
 30
0.0
 10
-5.14408
 20
3.53718
 30
0.0
 10
-5.15984
 20
3.5448
 30
0.0
 10
-5.1718
 20
3.55517
 30
0.0
 10
-5.17995
 20
3.5685
 30
0.0
 10
-5.17995
 20
3.5685
 30
0.0
 10
-5.1881
 20
3.58173
 30
0.0
 10
-5.19223
 20
3.59644
 30
0.0
 10
-5.19223
 20
3.61253
 30
0.0
 10
-5.19223
 20
3.61253
 30
0.0
 10
-5.19223
 20
3.62724
 30
0.0
 10
-5.18884
 20
3.64079
 30
0.0
 10
-5.18218
 20
3.65328
 30
0.0
 10
-5.18218
 20
3.65328
 30
0.0
 10
-5.1754
 20
3.66576
 30
0.0
 10
-5.1663
 20
3.67614
 30
0.0
 10
-5.15476
 20
3.68439
 30
0.0
 10
-5.15476
 20
3.68439
 30
0.0
 10
-5.14609
 20
3.69074
 30
0.0
 10
-5.13423
 20
3.69614
 30
0.0
 10
-5.11931
 20
3.70058
 30
0.0
 10
-5.11931
 20
3.70058
 30
0.0
 10
-5.10428
 20
3.70503
 30
0.0
 10
-5.0883
 20
3.70725
 30
0.0
 10
-5.07116
 20
3.70725
 30
0.0
 10
-5.07116
 20
3.70725
 30
0.0
 10
-5.04533
 20
3.70725
 30
0.0
 10
-5.02268
 20
3.70355
 30
0.0
 10
-5.00321
 20
3.69603
 30
0.0
 10
-5.00321
 20
3.69603
 30
0.0
 10
-4.98363
 20
3.68862
 30
0.0
 10
-4.96924
 20
3.67846
 30
0.0
 10
-4.95993
 20
3.66576
 30
0.0
 10
-4.95993
 20
3.66576
 30
0.0
 10
-4.95072
 20
3.65296
 30
0.0
 10
-4.94426
 20
3.63592
 30
0.0
 10
-4.94077
 20
3.61454
 30
0.0
 10
-4.94077
 20
3.61454
 30
0.0
 10
-4.94077
 20
3.61454
 30
0.0
 10
-4.99538
 20
3.60692
 30
0.0
 10
-4.99538
 20
3.60692
 30
0.0
 10
-4.99538
 20
3.60692
 30
0.0
 10
-4.99781
 20
3.62407
 30
0.0
 10
-5.00501
 20
3.63751
 30
0.0
 10
-5.01686
 20
3.64714
 30
0.0
 10
-5.01686
 20
3.64714
 30
0.0
 10
-5.02872
 20
3.65677
 30
0.0
 10
-5.04544
 20
3.66153
 30
0.0
 10
-5.06713
 20
3.66153
 30
0.0
 10
-5.06713
 20
3.66153
 30
0.0
 10
-5.09264
 20
3.66153
 30
0.0
 10
-5.11095
 20
3.6573
 30
0.0
 10
-5.12185
 20
3.64883
 30
0.0
 10
-5.12185
 20
3.64883
 30
0.0
 10
-5.13275
 20
3.64036
 30
0.0
 10
-5.13825
 20
3.63042
 30
0.0
 10
-5.13825
 20
3.61909
 30
0.0
 10
-5.13825
 20
3.61909
 30
0.0
 10
-5.13825
 20
3.61189
 30
0.0
 10
-5.13603
 20
3.60533
 30
0.0
 10
-5.13148
 20
3.59951
 30
0.0
 10
-5.13148
 20
3.59951
 30
0.0
 10
-5.12693
 20
3.59359
 30
0.0
 10
-5.11984
 20
3.58861
 30
0.0
 10
-5.1101
 20
3.5847
 30
0.0
 10
-5.1101
 20
3.5847
 30
0.0
 10
-5.10449
 20
3.58258
 30
0.0
 10
-5.0882
 20
3.57782
 30
0.0
 10
-5.06089
 20
3.57041
 30
0.0
 10
-5.06089
 20
3.57041
 30
0.0
 10
-5.02152
 20
3.55993
 30
0.0
 10
-4.994
 20
3.55125
 30
0.0
 10
-4.97834
 20
3.54458
 30
0.0
 10
-4.97834
 20
3.54458
 30
0.0
 10
-4.96268
 20
3.53792
 30
0.0
 10
-4.9504
 20
3.52807
 30
0.0
 10
-4.94151
 20
3.51537
 30
0.0
 10
-4.94151
 20
3.51537
 30
0.0
 10
-4.93251
 20
3.50257
 30
0.0
 10
-4.92807
 20
3.48669
 30
0.0
 10
-4.92807
 20
3.46764
 30
0.0
 10
-4.92807
 20
3.46764
 30
0.0
 10
-4.92807
 20
3.44912
 30
0.0
 10
-4.93347
 20
3.43166
 30
0.0
 10
-4.94437
 20
3.41526
 30
0.0
 10
-4.94437
 20
3.41526
 30
0.0
 10
-4.95527
 20
3.39885
 30
0.0
 10
-4.97093
 20
3.38615
 30
0.0
 10
-4.99136
 20
3.37716
 30
0.0
 10
-4.99136
 20
3.37716
 30
0.0
 10
-5.01189
 20
3.36816
 30
0.0
 10
-5.03507
 20
3.36371
 30
0.0
 10
-5.06089
 20
3.36371
 30
0.0
 10
-5.06089
 20
3.36371
 30
0.0
 10
-5.10365
 20
3.36371
 30
0.0
 10
-5.13635
 20
3.37261
 30
0.0
 10
-5.15879
 20
3.39028
 30
0.0
 10
-5.15879
 20
3.39028
 30
0.0
 10
-5.18122
 20
3.40806
 30
0.0
 10
-5.19551
 20
3.43431
 30
0.0
 10
-5.20175
 20
3.46913
 30
0.0
  0
SPLINE
  5
E3
330
1F
100
AcDbEntity
  8
Laag 1
100
AcDbSpline
210
0.0
220
0.0
230
1.0
 70
    11
 71
     3
 72
    64
 73
    60
 74
     0
 42
0.0000000001
 43
0.0000000001
 12
1.0
 22
0.0
 32
0.0
 13
1.0
 23
0.0
 33
0.0
 40
0.0
 40
0.0
 40
0.0
 40
0.0
 40
0.0625
 40
0.0625
 40
0.0625
 40
0.0625
 40
0.125
 40
0.125
 40
0.125
 40
0.125
 40
0.1875
 40
0.1875
 40
0.1875
 40
0.1875
 40
0.25
 40
0.25
 40
0.25
 40
0.25
 40
0.3125
 40
0.3125
 40
0.3125
 40
0.3125
 40
0.375
 40
0.375
 40
0.375
 40
0.375
 40
0.4375
 40
0.4375
 40
0.4375
 40
0.4375
 40
0.5
 40
0.5
 40
0.5
 40
0.5
 40
0.5625
 40
0.5625
 40
0.5625
 40
0.5625
 40
0.625
 40
0.625
 40
0.625
 40
0.625
 40
0.6875
 40
0.6875
 40
0.6875
 40
0.6875
 40
0.75
 40
0.75
 40
0.75
 40
0.75
 40
0.8125
 40
0.8125
 40
0.8125
 40
0.8125
 40
0.875
 40
0.875
 40
0.875
 40
0.875
 40
1.0
 40
1.0
 40
1.0
 40
1.0
 10
-4.63724
 20
3.47738
 30
0.0
 10
-4.63724
 20
3.47738
 30
0.0
 10
-4.57945
 20
3.46976
 30
0.0
 10
-4.57945
 20
3.46976
 30
0.0
 10
-4.57945
 20
3.46976
 30
0.0
 10
-4.58845
 20
3.43621
 30
0.0
 10
-4.60528
 20
3.41007
 30
0.0
 10
-4.62983
 20
3.39155
 30
0.0
 10
-4.62983
 20
3.39155
 30
0.0
 10
-4.65438
 20
3.37303
 30
0.0
 10
-4.68571
 20
3.36371
 30
0.0
 10
-4.72392
 20
3.36371
 30
0.0
 10
-4.72392
 20
3.36371
 30
0.0
 10
-4.77197
 20
3.36371
 30
0.0
 10
-4.81007
 20
3.37853
 30
0.0
 10
-4.83822
 20
3.40817
 30
0.0
 10
-4.83822
 20
3.40817
 30
0.0
 10
-4.86637
 20
3.43769
 30
0.0
 10
-4.88044
 20
3.47929
 30
0.0
 10
-4.88044
 20
3.53273
 30
0.0
 10
-4.88044
 20
3.53273
 30
0.0
 10
-4.88044
 20
3.58798
 30
0.0
 10
-4.86626
 20
3.63094
 30
0.0
 10
-4.83779
 20
3.66142
 30
0.0
 10
-4.83779
 20
3.66142
 30
0.0
 10
-4.80932
 20
3.69201
 30
0.0
 10
-4.77239
 20
3.70725
 30
0.0
 10
-4.72699
 20
3.70725
 30
0.0
 10
-4.72699
 20
3.70725
 30
0.0
 10
-4.68307
 20
3.70725
 30
0.0
 10
-4.64719
 20
3.69233
 30
0.0
 10
-4.61935
 20
3.66238
 30
0.0
 10
-4.61935
 20
3.66238
 30
0.0
 10
-4.59152
 20
3.63243
 30
0.0
 10
-4.57755
 20
3.5903
 30
0.0
 10
-4.57755
 20
3.53601
 30
0.0
 10
-4.57755
 20
3.53601
 30
0.0
 10
-4.57755
 20
3.53273
 30
0.0
 10
-4.57766
 20
3.52776
 30
0.0
 10
-4.57787
 20
3.5212
 30
0.0
 10
-4.57787
 20
3.5212
 30
0.0
 10
-4.57787
 20
3.5212
 30
0.0
 10
-4.82329
 20
3.5212
 30
0.0
 10
-4.82329
 20
3.5212
 30
0.0
 10
-4.82329
 20
3.5212
 30
0.0
 10
-4.82118
 20
3.48511
 30
0.0
 10
-4.81102
 20
3.45738
 30
0.0
 10
-4.7926
 20
3.43822
 30
0.0
 10
-4.7926
 20
3.43822
 30
0.0
 10
-4.77429
 20
3.41907
 30
0.0
 10
-4.75133
 20
3.40944
 30
0.0
 10
-4.72392
 20
3.40944
 30
0.0
 10
-4.72392
 20
3.40944
 30
0.0
 10
-4.70349
 20
3.40944
 30
0.0
 10
-4.68603
 20
3.41483
 30
0.0
 10
-4.67164
 20
3.42563
 30
0.0
 10
-4.67164
 20
3.42563
 30
0.0
 10
-4.65714
 20
3.43642
 30
0.0
 10
-4.64571
 20
3.45367
 30
0.0
 10
-4.63724
 20
3.47738
 30
0.0
  0
SPLINE
  5
E4
330
1F
100
AcDbEntity
  8
Laag 1
100
AcDbSpline
210
0.0
220
0.0
230
1.0
 70
    11
 71
     3
 72
    24
 73
    20
 74
     0
 42
0.0000000001
 43
0.0000000001
 12
1.0
 22
0.0
 32
0.0
 13
1.0
 23
0.0
 33
0.0
 40
0.0
 40
0.0
 40
0.0
 40
0.0
 40
0.1666666666666667
 40
0.1666666666666667
 40
0.1666666666666667
 40
0.1666666666666667
 40
0.3333333333333333
 40
0.3333333333333333
 40
0.3333333333333333
 40
0.3333333333333333
 40
0.5
 40
0.5
 40
0.5
 40
0.5
 40
0.6666666666666666
 40
0.6666666666666666
 40
0.6666666666666666
 40
0.6666666666666666
 40
1.0
 40
1.0
 40
1.0
 40
1.0
 10
-4.82012
 20
3.56692
 30
0.0
 10
-4.82012
 20
3.56692
 30
0.0
 10
-4.6366
 20
3.56692
 30
0.0
 10
-4.6366
 20
3.56692
 30
0.0
 10
-4.6366
 20
3.56692
 30
0.0
 10
-4.63904
 20
3.59464
 30
0.0
 10
-4.64613
 20
3.61539
 30
0.0
 10
-4.65767
 20
3.62925
 30
0.0
 10
-4.65767
 20
3.62925
 30
0.0
 10
-4.67534
 20
3.65074
 30
0.0
 10
-4.69841
 20
3.66153
 30
0.0
 10
-4.72667
 20
3.66153
 30
0.0
 10
-4.72667
 20
3.66153
 30
0.0
 10
-4.75228
 20
3.66153
 30
0.0
 10
-4.77376
 20
3.65296
 30
0.0
 10
-4.79123
 20
3.63581
 30
0.0
 10
-4.79123
 20
3.63581
 30
0.0
 10
-4.80858
 20
3.61867
 30
0.0
 10
-4.81821
 20
3.5957
 30
0.0
 10
-4.82012
 20
3.56692
 30
0.0
  0
SPLINE
  5
E5
330
1F
100
AcDbEntity
  8
Laag 1
100
AcDbSpline
210
0.0
220
0.0
230
1.0
 70
    11
 71
     3
 72
    56
 73
    52
 74
     0
 42
0.0000000001
 43
0.0000000001
 12
1.0
 22
0.0
 32
0.0
 13
1.0
 23
0.0
 33
0.0
 40
0.0
 40
0.0
 40
0.0
 40
0.0
 40
0.0714285714285714
 40
0.0714285714285714
 40
0.0714285714285714
 40
0.0714285714285714
 40
0.1428571428571428
 40
0.1428571428571428
 40
0.1428571428571428
 40
0.1428571428571428
 40
0.2142857142857143
 40
0.2142857142857143
 40
0.2142857142857143
 40
0.2142857142857143
 40
0.2857142857142857
 40
0.2857142857142857
 40
0.2857142857142857
 40
0.2857142857142857
 40
0.3571428571428572
 40
0.3571428571428572
 40
0.3571428571428572
 40
0.3571428571428572
 40
0.4285714285714285
 40
0.4285714285714285
 40
0.4285714285714285
 40
0.4285714285714285
 40
0.5
 40
0.5
 40
0.5
 40
0.5
 40
0.5714285714285714
 40
0.5714285714285714
 40
0.5714285714285714
 40
0.5714285714285714
 40
0.6428571428571429
 40
0.6428571428571429
 40
0.6428571428571429
 40
0.6428571428571429
 40
0.7142857142857143
 40
0.7142857142857143
 40
0.7142857142857143
 40
0.7142857142857143
 40
0.7857142857142857
 40
0.7857142857142857
 40
0.7857142857142857
 40
0.7857142857142857
 40
0.8571428571428571
 40
0.8571428571428571
 40
0.8571428571428571
 40
0.8571428571428571
 40
1.0
 40
1.0
 40
1.0
 40
1.0
 10
-4.50949
 20
3.3707
 30
0.0
 10
-4.50949
 20
3.3707
 30
0.0
 10
-4.50949
 20
3.70027
 30
0.0
 10
-4.50949
 20
3.70027
 30
0.0
 10
-4.50949
 20
3.70027
 30
0.0
 10
-4.50949
 20
3.70027
 30
0.0
 10
-4.45933
 20
3.70027
 30
0.0
 10
-4.45933
 20
3.70027
 30
0.0
 10
-4.45933
 20
3.70027
 30
0.0
 10
-4.45933
 20
3.70027
 30
0.0
 10
-4.45933
 20
3.64978
 30
0.0
 10
-4.45933
 20
3.64978
 30
0.0
 10
-4.45933
 20
3.64978
 30
0.0
 10
-4.44652
 20
3.67317
 30
0.0
 10
-4.43467
 20
3.68862
 30
0.0
 10
-4.42377
 20
3.69603
 30
0.0
 10
-4.42377
 20
3.69603
 30
0.0
 10
-4.41287
 20
3.70355
 30
0.0
 10
-4.40091
 20
3.70725
 30
0.0
 10
-4.38789
 20
3.70725
 30
0.0
 10
-4.38789
 20
3.70725
 30
0.0
 10
-4.36905
 20
3.70725
 30
0.0
 10
-4.3499
 20
3.70132
 30
0.0
 10
-4.33042
 20
3.68958
 30
0.0
 10
-4.33042
 20
3.68958
 30
0.0
 10
-4.33042
 20
3.68958
 30
0.0
 10
-4.35032
 20
3.63804
 30
0.0
 10
-4.35032
 20
3.63804
 30
0.0
 10
-4.35032
 20
3.63804
 30
0.0
 10
-4.36387
 20
3.64566
 30
0.0
 10
-4.37741
 20
3.64947
 30
0.0
 10
-4.39096
 20
3.64947
 30
0.0
 10
-4.39096
 20
3.64947
 30
0.0
 10
-4.40313
 20
3.64947
 30
0.0
 10
-4.41403
 20
3.64576
 30
0.0
 10
-4.42366
 20
3.63846
 30
0.0
 10
-4.42366
 20
3.63846
 30
0.0
 10
-4.43329
 20
3.63116
 30
0.0
 10
-4.44017
 20
3.621
 30
0.0
 10
-4.4443
 20
3.60798
 30
0.0
 10
-4.4443
 20
3.60798
 30
0.0
 10
-4.45055
 20
3.58819
 30
0.0
 10
-4.45361
 20
3.56649
 30
0.0
 10
-4.45361
 20
3.54289
 30
0.0
 10
-4.45361
 20
3.54289
 30
0.0
 10
-4.45361
 20
3.54289
 30
0.0
 10
-4.45361
 20
3.3707
 30
0.0
 10
-4.45361
 20
3.3707
 30
0.0
 10
-4.45361
 20
3.3707
 30
0.0
 10
-4.45361
 20
3.3707
 30
0.0
 10
-4.50949
 20
3.3707
 30
0.0
 10
-4.50949
 20
3.3707
 30
0.0
  0
SPLINE
  5
E6
330
1F
100
AcDbEntity
  8
Laag 1
100
AcDbSpline
210
0.0
220
0.0
230
1.0
 70
    11
 71
     3
 72
    36
 73
    32
 74
     0
 42
0.0000000001
 43
0.0000000001
 12
1.0
 22
0.0
 32
0.0
 13
1.0
 23
0.0
 33
0.0
 40
0.0
 40
0.0
 40
0.0
 40
0.0
 40
0.1111111111111111
 40
0.1111111111111111
 40
0.1111111111111111
 40
0.1111111111111111
 40
0.2222222222222222
 40
0.2222222222222222
 40
0.2222222222222222
 40
0.2222222222222222
 40
0.3333333333333333
 40
0.3333333333333333
 40
0.3333333333333333
 40
0.3333333333333333
 40
0.4444444444444444
 40
0.4444444444444444
 40
0.4444444444444444
 40
0.4444444444444444
 40
0.5555555555555556
 40
0.5555555555555556
 40
0.5555555555555556
 40
0.5555555555555556
 40
0.6666666666666666
 40
0.6666666666666666
 40
0.6666666666666666
 40
0.6666666666666666
 40
0.7777777777777778
 40
0.7777777777777778
 40
0.7777777777777778
 40
0.7777777777777778
 40
1.0
 40
1.0
 40
1.0
 40
1.0
 10
-4.00985
 20
3.3707
 30
0.0
 10
-4.00985
 20
3.3707
 30
0.0
 10
-4.00985
 20
3.77202
 30
0.0
 10
-4.00985
 20
3.77202
 30
0.0
 10
-4.00985
 20
3.77202
 30
0.0
 10
-4.00985
 20
3.77202
 30
0.0
 10
-4.15971
 20
3.77202
 30
0.0
 10
-4.15971
 20
3.77202
 30
0.0
 10
-4.15971
 20
3.77202
 30
0.0
 10
-4.15971
 20
3.77202
 30
0.0
 10
-4.15971
 20
3.82536
 30
0.0
 10
-4.15971
 20
3.82536
 30
0.0
 10
-4.15971
 20
3.82536
 30
0.0
 10
-4.15971
 20
3.82536
 30
0.0
 10
-3.79967
 20
3.82536
 30
0.0
 10
-3.79967
 20
3.82536
 30
0.0
 10
-3.79967
 20
3.82536
 30
0.0
 10
-3.79967
 20
3.82536
 30
0.0
 10
-3.79967
 20
3.77202
 30
0.0
 10
-3.79967
 20
3.77202
 30
0.0
 10
-3.79967
 20
3.77202
 30
0.0
 10
-3.79967
 20
3.77202
 30
0.0
 10
-3.94953
 20
3.77202
 30
0.0
 10
-3.94953
 20
3.77202
 30
0.0
 10
-3.94953
 20
3.77202
 30
0.0
 10
-3.94953
 20
3.77202
 30
0.0
 10
-3.94953
 20
3.3707
 30
0.0
 10
-3.94953
 20
3.3707
 30
0.0
 10
-3.94953
 20
3.3707
 30
0.0
 10
-3.94953
 20
3.3707
 30
0.0
 10
-4.00985
 20
3.3707
 30
0.0
 10
-4.00985
 20
3.3707
 30
0.0
  0
SPLINE
  5
E7
330
1F
100
AcDbEntity
  8
Laag 1
100
AcDbSpline
210
0.0
220
0.0
230
1.0
 70
    11
 71
     3
 72
    64
 73
    60
 74
     0
 42
0.0000000001
 43
0.0000000001
 12
1.0
 22
0.0
 32
0.0
 13
1.0
 23
0.0
 33
0.0
 40
0.0
 40
0.0
 40
0.0
 40
0.0
 40
0.0625
 40
0.0625
 40
0.0625
 40
0.0625
 40
0.125
 40
0.125
 40
0.125
 40
0.125
 40
0.1875
 40
0.1875
 40
0.1875
 40
0.1875
 40
0.25
 40
0.25
 40
0.25
 40
0.25
 40
0.3125
 40
0.3125
 40
0.3125
 40
0.3125
 40
0.375
 40
0.375
 40
0.375
 40
0.375
 40
0.4375
 40
0.4375
 40
0.4375
 40
0.4375
 40
0.5
 40
0.5
 40
0.5
 40
0.5
 40
0.5625
 40
0.5625
 40
0.5625
 40
0.5625
 40
0.625
 40
0.625
 40
0.625
 40
0.625
 40
0.6875
 40
0.6875
 40
0.6875
 40
0.6875
 40
0.75
 40
0.75
 40
0.75
 40
0.75
 40
0.8125
 40
0.8125
 40
0.8125
 40
0.8125
 40
0.875
 40
0.875
 40
0.875
 40
0.875
 40
1.0
 40
1.0
 40
1.0
 40
1.0
 10
-3.59012
 20
3.47738
 30
0.0
 10
-3.59012
 20
3.47738
 30
0.0
 10
-3.53233
 20
3.46976
 30
0.0
 10
-3.53233
 20
3.46976
 30
0.0
 10
-3.53233
 20
3.46976
 30
0.0
 10
-3.54133
 20
3.43621
 30
0.0
 10
-3.55816
 20
3.41007
 30
0.0
 10
-3.58271
 20
3.39155
 30
0.0
 10
-3.58271
 20
3.39155
 30
0.0
 10
-3.60726
 20
3.37303
 30
0.0
 10
-3.63859
 20
3.36371
 30
0.0
 10
-3.6768
 20
3.36371
 30
0.0
 10
-3.6768
 20
3.36371
 30
0.0
 10
-3.72485
 20
3.36371
 30
0.0
 10
-3.76295
 20
3.37853
 30
0.0
 10
-3.7911
 20
3.40817
 30
0.0
 10
-3.7911
 20
3.40817
 30
0.0
 10
-3.81925
 20
3.43769
 30
0.0
 10
-3.83332
 20
3.47929
 30
0.0
 10
-3.83332
 20
3.53273
 30
0.0
 10
-3.83332
 20
3.53273
 30
0.0
 10
-3.83332
 20
3.58798
 30
0.0
 10
-3.81914
 20
3.63094
 30
0.0
 10
-3.79067
 20
3.66142
 30
0.0
 10
-3.79067
 20
3.66142
 30
0.0
 10
-3.7622
 20
3.69201
 30
0.0
 10
-3.72527
 20
3.70725
 30
0.0
 10
-3.67987
 20
3.70725
 30
0.0
 10
-3.67987
 20
3.70725
 30
0.0
 10
-3.63595
 20
3.70725
 30
0.0
 10
-3.60007
 20
3.69233
 30
0.0
 10
-3.57223
 20
3.66238
 30
0.0
 10
-3.57223
 20
3.66238
 30
0.0
 10
-3.5444
 20
3.63243
 30
0.0
 10
-3.53043
 20
3.5903
 30
0.0
 10
-3.53043
 20
3.53601
 30
0.0
 10
-3.53043
 20
3.53601
 30
0.0
 10
-3.53043
 20
3.53273
 30
0.0
 10
-3.53054
 20
3.52776
 30
0.0
 10
-3.53075
 20
3.5212
 30
0.0
 10
-3.53075
 20
3.5212
 30
0.0
 10
-3.53075
 20
3.5212
 30
0.0
 10
-3.77617
 20
3.5212
 30
0.0
 10
-3.77617
 20
3.5212
 30
0.0
 10
-3.77617
 20
3.5212
 30
0.0
 10
-3.77406
 20
3.48511
 30
0.0
 10
-3.7639
 20
3.45738
 30
0.0
 10
-3.74548
 20
3.43822
 30
0.0
 10
-3.74548
 20
3.43822
 30
0.0
 10
-3.72717
 20
3.41907
 30
0.0
 10
-3.70421
 20
3.40944
 30
0.0
 10
-3.6768
 20
3.40944
 30
0.0
 10
-3.6768
 20
3.40944
 30
0.0
 10
-3.65637
 20
3.40944
 30
0.0
 10
-3.63891
 20
3.41483
 30
0.0
 10
-3.62452
 20
3.42563
 30
0.0
 10
-3.62452
 20
3.42563
 30
0.0
 10
-3.61002
 20
3.43642
 30
0.0
 10
-3.59859
 20
3.45367
 30
0.0
 10
-3.59012
 20
3.47738
 30
0.0
  0
SPLINE
  5
E8
330
1F
100
AcDbEntity
  8
Laag 1
100
AcDbSpline
210
0.0
220
0.0
230
1.0
 70
    11
 71
     3
 72
    24
 73
    20
 74
     0
 42
0.0000000001
 43
0.0000000001
 12
1.0
 22
0.0
 32
0.0
 13
1.0
 23
0.0
 33
0.0
 40
0.0
 40
0.0
 40
0.0
 40
0.0
 40
0.1666666666666667
 40
0.1666666666666667
 40
0.1666666666666667
 40
0.1666666666666667
 40
0.3333333333333333
 40
0.3333333333333333
 40
0.3333333333333333
 40
0.3333333333333333
 40
0.5
 40
0.5
 40
0.5
 40
0.5
 40
0.6666666666666666
 40
0.6666666666666666
 40
0.6666666666666666
 40
0.6666666666666666
 40
1.0
 40
1.0
 40
1.0
 40
1.0
 10
-3.773
 20
3.56692
 30
0.0
 10
-3.773
 20
3.56692
 30
0.0
 10
-3.58948
 20
3.56692
 30
0.0
 10
-3.58948
 20
3.56692
 30
0.0
 10
-3.58948
 20
3.56692
 30
0.0
 10
-3.59192
 20
3.59464
 30
0.0
 10
-3.59901
 20
3.61539
 30
0.0
 10
-3.61055
 20
3.62925
 30
0.0
 10
-3.61055
 20
3.62925
 30
0.0
 10
-3.62822
 20
3.65074
 30
0.0
 10
-3.65129
 20
3.66153
 30
0.0
 10
-3.67955
 20
3.66153
 30
0.0
 10
-3.67955
 20
3.66153
 30
0.0
 10
-3.70516
 20
3.66153
 30
0.0
 10
-3.72664
 20
3.65296
 30
0.0
 10
-3.74411
 20
3.63581
 30
0.0
 10
-3.74411
 20
3.63581
 30
0.0
 10
-3.76146
 20
3.61867
 30
0.0
 10
-3.77109
 20
3.5957
 30
0.0
 10
-3.773
 20
3.56692
 30
0.0
  0
SPLINE
  5
E9
330
1F
100
AcDbEntity
  8
Laag 1
100
AcDbSpline
210
0.0
220
0.0
230
1.0
 70
    11
 71
     3
 72
   136
 73
   132
 74
     0
 42
0.0000000001
 43
0.0000000001
 12
1.0
 22
0.0
 32
0.0
 13
1.0
 23
0.0
 33
0.0
 40
0.0
 40
0.0
 40
0.0
 40
0.0
 40
0.0294117647058824
 40
0.0294117647058824
 40
0.0294117647058824
 40
0.0294117647058824
 40
0.0588235294117647
 40
0.0588235294117647
 40
0.0588235294117647
 40
0.0588235294117647
 40
0.0882352941176471
 40
0.0882352941176471
 40
0.0882352941176471
 40
0.0882352941176471
 40
0.1176470588235294
 40
0.1176470588235294
 40
0.1176470588235294
 40
0.1176470588235294
 40
0.1470588235294118
 40
0.1470588235294118
 40
0.1470588235294118
 40
0.1470588235294118
 40
0.1764705882352941
 40
0.1764705882352941
 40
0.1764705882352941
 40
0.1764705882352941
 40
0.2058823529411765
 40
0.2058823529411765
 40
0.2058823529411765
 40
0.2058823529411765
 40
0.2352941176470588
 40
0.2352941176470588
 40
0.2352941176470588
 40
0.2352941176470588
 40
0.2647058823529412
 40
0.2647058823529412
 40
0.2647058823529412
 40
0.2647058823529412
 40
0.2941176470588235
 40
0.2941176470588235
 40
0.2941176470588235
 40
0.2941176470588235
 40
0.3235294117647059
 40
0.3235294117647059
 40
0.3235294117647059
 40
0.3235294117647059
 40
0.3529411764705883
 40
0.3529411764705883
 40
0.3529411764705883
 40
0.3529411764705883
 40
0.3823529411764706
 40
0.3823529411764706
 40
0.3823529411764706
 40
0.3823529411764706
 40
0.4117647058823529
 40
0.4117647058823529
 40
0.4117647058823529
 40
0.4117647058823529
 40
0.4411764705882353
 40
0.4411764705882353
 40
0.4411764705882353
 40
0.4411764705882353
 40
0.4705882352941176
 40
0.4705882352941176
 40
0.4705882352941176
 40
0.4705882352941176
 40
0.5
 40
0.5
 40
0.5
 40
0.5
 40
0.5294117647058824
 40
0.5294117647058824
 40
0.5294117647058824
 40
0.5294117647058824
 40
0.5588235294117647
 40
0.5588235294117647
 40
0.5588235294117647
 40
0.5588235294117647
 40
0.5882352941176471
 40
0.5882352941176471
 40
0.5882352941176471
 40
0.5882352941176471
 40
0.6176470588235294
 40
0.6176470588235294
 40
0.6176470588235294
 40
0.6176470588235294
 40
0.6470588235294118
 40
0.6470588235294118
 40
0.6470588235294118
 40
0.6470588235294118
 40
0.6764705882352942
 40
0.6764705882352942
 40
0.6764705882352942
 40
0.6764705882352942
 40
0.7058823529411765
 40
0.7058823529411765
 40
0.7058823529411765
 40
0.7058823529411765
 40
0.7352941176470589
 40
0.7352941176470589
 40
0.7352941176470589
 40
0.7352941176470589
 40
0.7647058823529411
 40
0.7647058823529411
 40
0.7647058823529411
 40
0.7647058823529411
 40
0.7941176470588235
 40
0.7941176470588235
 40
0.7941176470588235
 40
0.7941176470588235
 40
0.8235294117647058
 40
0.8235294117647058
 40
0.8235294117647058
 40
0.8235294117647058
 40
0.8529411764705882
 40
0.8529411764705882
 40
0.8529411764705882
 40
0.8529411764705882
 40
0.8823529411764706
 40
0.8823529411764706
 40
0.8823529411764706
 40
0.8823529411764706
 40
0.9117647058823529
 40
0.9117647058823529
 40
0.9117647058823529
 40
0.9117647058823529
 40
0.9411764705882353
 40
0.9411764705882353
 40
0.9411764705882353
 40
0.9411764705882353
 40
1.0
 40
1.0
 40
1.0
 40
1.0
 10
-3.48396
 20
3.46913
 30
0.0
 10
-3.48396
 20
3.46913
 30
0.0
 10
-3.42872
 20
3.47802
 30
0.0
 10
-3.42872
 20
3.47802
 30
0.0
 10
-3.42872
 20
3.47802
 30
0.0
 10
-3.42565
 20
3.4559
 30
0.0
 10
-3.41697
 20
3.43896
 30
0.0
 10
-3.40279
 20
3.42711
 30
0.0
 10
-3.40279
 20
3.42711
 30
0.0
 10
-3.38861
 20
3.41536
 30
0.0
 10
-3.36871
 20
3.40944
 30
0.0
 10
-3.34331
 20
3.40944
 30
0.0
 10
-3.34331
 20
3.40944
 30
0.0
 10
-3.31759
 20
3.40944
 30
0.0
 10
-3.29854
 20
3.41462
 30
0.0
 10
-3.28606
 20
3.4251
 30
0.0
 10
-3.28606
 20
3.4251
 30
0.0
 10
-3.27367
 20
3.43547
 30
0.0
 10
-3.26743
 20
3.44775
 30
0.0
 10
-3.26743
 20
3.46182
 30
0.0
 10
-3.26743
 20
3.46182
 30
0.0
 10
-3.26743
 20
3.47442
 30
0.0
 10
-3.27304
 20
3.48437
 30
0.0
 10
-3.28415
 20
3.49156
 30
0.0
 10
-3.28415
 20
3.49156
 30
0.0
 10
-3.29198
 20
3.49654
 30
0.0
 10
-3.31103
 20
3.50278
 30
0.0
 10
-3.3413
 20
3.51051
 30
0.0
 10
-3.3413
 20
3.51051
 30
0.0
 10
-3.38215
 20
3.52077
 30
0.0
 10
-3.41041
 20
3.52966
 30
0.0
 10
-3.42629
 20
3.53718
 30
0.0
 10
-3.42629
 20
3.53718
 30
0.0
 10
-3.44205
 20
3.5448
 30
0.0
 10
-3.45401
 20
3.55517
 30
0.0
 10
-3.46216
 20
3.5685
 30
0.0
 10
-3.46216
 20
3.5685
 30
0.0
 10
-3.47031
 20
3.58173
 30
0.0
 10
-3.47444
 20
3.59644
 30
0.0
 10
-3.47444
 20
3.61253
 30
0.0
 10
-3.47444
 20
3.61253
 30
0.0
 10
-3.47444
 20
3.62724
 30
0.0
 10
-3.47105
 20
3.64079
 30
0.0
 10
-3.46439
 20
3.65328
 30
0.0
 10
-3.46439
 20
3.65328
 30
0.0
 10
-3.45761
 20
3.66576
 30
0.0
 10
-3.44851
 20
3.67614
 30
0.0
 10
-3.43697
 20
3.68439
 30
0.0
 10
-3.43697
 20
3.68439
 30
0.0
 10
-3.4283
 20
3.69074
 30
0.0
 10
-3.41644
 20
3.69614
 30
0.0
 10
-3.40152
 20
3.70058
 30
0.0
 10
-3.40152
 20
3.70058
 30
0.0
 10
-3.38649
 20
3.70503
 30
0.0
 10
-3.37051
 20
3.70725
 30
0.0
 10
-3.35337
 20
3.70725
 30
0.0
 10
-3.35337
 20
3.70725
 30
0.0
 10
-3.32754
 20
3.70725
 30
0.0
 10
-3.30489
 20
3.70355
 30
0.0
 10
-3.28542
 20
3.69603
 30
0.0
 10
-3.28542
 20
3.69603
 30
0.0
 10
-3.26584
 20
3.68862
 30
0.0
 10
-3.25145
 20
3.67846
 30
0.0
 10
-3.24214
 20
3.66576
 30
0.0
 10
-3.24214
 20
3.66576
 30
0.0
 10
-3.23293
 20
3.65296
 30
0.0
 10
-3.22647
 20
3.63592
 30
0.0
 10
-3.22298
 20
3.61454
 30
0.0
 10
-3.22298
 20
3.61454
 30
0.0
 10
-3.22298
 20
3.61454
 30
0.0
 10
-3.27759
 20
3.60692
 30
0.0
 10
-3.27759
 20
3.60692
 30
0.0
 10
-3.27759
 20
3.60692
 30
0.0
 10
-3.28002
 20
3.62407
 30
0.0
 10
-3.28722
 20
3.63751
 30
0.0
 10
-3.29907
 20
3.64714
 30
0.0
 10
-3.29907
 20
3.64714
 30
0.0
 10
-3.31093
 20
3.65677
 30
0.0
 10
-3.32765
 20
3.66153
 30
0.0
 10
-3.34934
 20
3.66153
 30
0.0
 10
-3.34934
 20
3.66153
 30
0.0
 10
-3.37485
 20
3.66153
 30
0.0
 10
-3.39316
 20
3.6573
 30
0.0
 10
-3.40406
 20
3.64883
 30
0.0
 10
-3.40406
 20
3.64883
 30
0.0
 10
-3.41496
 20
3.64036
 30
0.0
 10
-3.42046
 20
3.63042
 30
0.0
 10
-3.42046
 20
3.61909
 30
0.0
 10
-3.42046
 20
3.61909
 30
0.0
 10
-3.42046
 20
3.61189
 30
0.0
 10
-3.41824
 20
3.60533
 30
0.0
 10
-3.41369
 20
3.59951
 30
0.0
 10
-3.41369
 20
3.59951
 30
0.0
 10
-3.40914
 20
3.59359
 30
0.0
 10
-3.40205
 20
3.58861
 30
0.0
 10
-3.39231
 20
3.5847
 30
0.0
 10
-3.39231
 20
3.5847
 30
0.0
 10
-3.3867
 20
3.58258
 30
0.0
 10
-3.37041
 20
3.57782
 30
0.0
 10
-3.3431
 20
3.57041
 30
0.0
 10
-3.3431
 20
3.57041
 30
0.0
 10
-3.30373
 20
3.55993
 30
0.0
 10
-3.27621
 20
3.55125
 30
0.0
 10
-3.26055
 20
3.54458
 30
0.0
 10
-3.26055
 20
3.54458
 30
0.0
 10
-3.24489
 20
3.53792
 30
0.0
 10
-3.23261
 20
3.52807
 30
0.0
 10
-3.22372
 20
3.51537
 30
0.0
 10
-3.22372
 20
3.51537
 30
0.0
 10
-3.21472
 20
3.50257
 30
0.0
 10
-3.21028
 20
3.48669
 30
0.0
 10
-3.21028
 20
3.46764
 30
0.0
 10
-3.21028
 20
3.46764
 30
0.0
 10
-3.21028
 20
3.44912
 30
0.0
 10
-3.21568
 20
3.43166
 30
0.0
 10
-3.22658
 20
3.41526
 30
0.0
 10
-3.22658
 20
3.41526
 30
0.0
 10
-3.23748
 20
3.39885
 30
0.0
 10
-3.25314
 20
3.38615
 30
0.0
 10
-3.27357
 20
3.37716
 30
0.0
 10
-3.27357
 20
3.37716
 30
0.0
 10
-3.2941
 20
3.36816
 30
0.0
 10
-3.31728
 20
3.36371
 30
0.0
 10
-3.3431
 20
3.36371
 30
0.0
 10
-3.3431
 20
3.36371
 30
0.0
 10
-3.38586
 20
3.36371
 30
0.0
 10
-3.41856
 20
3.37261
 30
0.0
 10
-3.441
 20
3.39028
 30
0.0
 10
-3.441
 20
3.39028
 30
0.0
 10
-3.46343
 20
3.40806
 30
0.0
 10
-3.47772
 20
3.43431
 30
0.0
 10
-3.48396
 20
3.46913
 30
0.0
  0
SPLINE
  5
EA
330
1F
100
AcDbEntity
  8
Laag 1
100
AcDbSpline
210
0.0
220
0.0
230
1.0
 70
    11
 71
     3
 72
    84
 73
    80
 74
     0
 42
0.0000000001
 43
0.0000000001
 12
1.0
 22
0.0
 32
0.0
 13
1.0
 23
0.0
 33
0.0
 40
0.0
 40
0.0
 40
0.0
 40
0.0
 40
0.0476190476190476
 40
0.0476190476190476
 40
0.0476190476190476
 40
0.0476190476190476
 40
0.0952380952380952
 40
0.0952380952380952
 40
0.0952380952380952
 40
0.0952380952380952
 40
0.1428571428571428
 40
0.1428571428571428
 40
0.1428571428571428
 40
0.1428571428571428
 40
0.1904761904761905
 40
0.1904761904761905
 40
0.1904761904761905
 40
0.1904761904761905
 40
0.2380952380952381
 40
0.2380952380952381
 40
0.2380952380952381
 40
0.2380952380952381
 40
0.2857142857142857
 40
0.2857142857142857
 40
0.2857142857142857
 40
0.2857142857142857
 40
0.3333333333333333
 40
0.3333333333333333
 40
0.3333333333333333
 40
0.3333333333333333
 40
0.3809523809523809
 40
0.3809523809523809
 40
0.3809523809523809
 40
0.3809523809523809
 40
0.4285714285714285
 40
0.4285714285714285
 40
0.4285714285714285
 40
0.4285714285714285
 40
0.4761904761904762
 40
0.4761904761904762
 40
0.4761904761904762
 40
0.4761904761904762
 40
0.5238095238095238
 40
0.5238095238095238
 40
0.5238095238095238
 40
0.5238095238095238
 40
0.5714285714285714
 40
0.5714285714285714
 40
0.5714285714285714
 40
0.5714285714285714
 40
0.6190476190476191
 40
0.6190476190476191
 40
0.6190476190476191
 40
0.6190476190476191
 40
0.6666666666666666
 40
0.6666666666666666
 40
0.6666666666666666
 40
0.6666666666666666
 40
0.7142857142857143
 40
0.7142857142857143
 40
0.7142857142857143
 40
0.7142857142857143
 40
0.7619047619047619
 40
0.7619047619047619
 40
0.7619047619047619
 40
0.7619047619047619
 40
0.8095238095238095
 40
0.8095238095238095
 40
0.8095238095238095
 40
0.8095238095238095
 40
0.8571428571428571
 40
0.8571428571428571
 40
0.8571428571428571
 40
0.8571428571428571
 40
0.9047619047619048
 40
0.9047619047619048
 40
0.9047619047619048
 40
0.9047619047619048
 40
1.0
 40
1.0
 40
1.0
 40
1.0
 10
-3.02295
 20
3.42055
 30
0.0
 10
-3.02295
 20
3.42055
 30
0.0
 10
-3.01533
 20
3.37123
 30
0.0
 10
-3.01533
 20
3.37123
 30
0.0
 10
-3.01533
 20
3.37123
 30
0.0
 10
-3.031
 20
3.36795
 30
0.0
 10
-3.04507
 20
3.36625
 30
0.0
 10
-3.05735
 20
3.36625
 30
0.0
 10
-3.05735
 20
3.36625
 30
0.0
 10
-3.07756
 20
3.36625
 30
0.0
 10
-3.09323
 20
3.36943
 30
0.0
 10
-3.10445
 20
3.37589
 30
0.0
 10
-3.10445
 20
3.37589
 30
0.0
 10
-3.11556
 20
3.38234
 30
0.0
 10
-3.12339
 20
3.3907
 30
0.0
 10
-3.12794
 20
3.40118
 30
0.0
 10
-3.12794
 20
3.40118
 30
0.0
 10
-3.13249
 20
3.41166
 30
0.0
 10
-3.13471
 20
3.43367
 30
0.0
 10
-3.13471
 20
3.46722
 30
0.0
 10
-3.13471
 20
3.46722
 30
0.0
 10
-3.13471
 20
3.46722
 30
0.0
 10
-3.13471
 20
3.65709
 30
0.0
 10
-3.13471
 20
3.65709
 30
0.0
 10
-3.13471
 20
3.65709
 30
0.0
 10
-3.13471
 20
3.65709
 30
0.0
 10
-3.17599
 20
3.65709
 30
0.0
 10
-3.17599
 20
3.65709
 30
0.0
 10
-3.17599
 20
3.65709
 30
0.0
 10
-3.17599
 20
3.65709
 30
0.0
 10
-3.17599
 20
3.70027
 30
0.0
 10
-3.17599
 20
3.70027
 30
0.0
 10
-3.17599
 20
3.70027
 30
0.0
 10
-3.17599
 20
3.70027
 30
0.0
 10
-3.13471
 20
3.70027
 30
0.0
 10
-3.13471
 20
3.70027
 30
0.0
 10
-3.13471
 20
3.70027
 30
0.0
 10
-3.13471
 20
3.70027
 30
0.0
 10
-3.13471
 20
3.78176
 30
0.0
 10
-3.13471
 20
3.78176
 30
0.0
 10
-3.13471
 20
3.78176
 30
0.0
 10
-3.13471
 20
3.78176
 30
0.0
 10
-3.07883
 20
3.81531
 30
0.0
 10
-3.07883
 20
3.81531
 30
0.0
 10
-3.07883
 20
3.81531
 30
0.0
 10
-3.07883
 20
3.81531
 30
0.0
 10
-3.07883
 20
3.70027
 30
0.0
 10
-3.07883
 20
3.70027
 30
0.0
 10
-3.07883
 20
3.70027
 30
0.0
 10
-3.07883
 20
3.70027
 30
0.0
 10
-3.02295
 20
3.70027
 30
0.0
 10
-3.02295
 20
3.70027
 30
0.0
 10
-3.02295
 20
3.70027
 30
0.0
 10
-3.02295
 20
3.70027
 30
0.0
 10
-3.02295
 20
3.65709
 30
0.0
 10
-3.02295
 20
3.65709
 30
0.0
 10
-3.02295
 20
3.65709
 30
0.0
 10
-3.02295
 20
3.65709
 30
0.0
 10
-3.07883
 20
3.65709
 30
0.0
 10
-3.07883
 20
3.65709
 30
0.0
 10
-3.07883
 20
3.65709
 30
0.0
 10
-3.07883
 20
3.65709
 30
0.0
 10
-3.07883
 20
3.46405
 30
0.0
 10
-3.07883
 20
3.46405
 30
0.0
 10
-3.07883
 20
3.46405
 30
0.0
 10
-3.07883
 20
3.44806
 30
0.0
 10
-3.07788
 20
3.4378
 30
0.0
 10
-3.07587
 20
3.43325
 30
0.0
 10
-3.07587
 20
3.43325
 30
0.0
 10
-3.07397
 20
3.4287
 30
0.0
 10
-3.07079
 20
3.4251
 30
0.0
 10
-3.06635
 20
3.42235
 30
0.0
 10
-3.06635
 20
3.42235
 30
0.0
 10
-3.0619
 20
3.4197
 30
0.0
 10
-3.05555
 20
3.41833
 30
0.0
 10
-3.0473
 20
3.41833
 30
0.0
 10
-3.0473
 20
3.41833
 30
0.0
 10
-3.04116
 20
3.41833
 30
0.0
 10
-3.03301
 20
3.41907
 30
0.0
 10
-3.02295
 20
3.42055
 30
0.0
  0
SPLINE
  5
EB
330
1F
100
AcDbEntity
  8
Laag 1
100
AcDbSpline
210
0.0
220
0.0
230
1.0
 70
    11
 71
     3
 72
    48
 73
    44
 74
     0
 42
0.0000000001
 43
0.0000000001
 12
1.0
 22
0.0
 32
0.0
 13
1.0
 23
0.0
 33
0.0
 40
0.0
 40
0.0
 40
0.0
 40
0.0
 40
0.0833333333333333
 40
0.0833333333333333
 40
0.0833333333333333
 40
0.0833333333333333
 40
0.1666666666666667
 40
0.1666666666666667
 40
0.1666666666666667
 40
0.1666666666666667
 40
0.25
 40
0.25
 40
0.25
 40
0.25
 40
0.3333333333333333
 40
0.3333333333333333
 40
0.3333333333333333
 40
0.3333333333333333
 40
0.4166666666666667
 40
0.4166666666666667
 40
0.4166666666666667
 40
0.4166666666666667
 40
0.5
 40
0.5
 40
0.5
 40
0.5
 40
0.5833333333333334
 40
0.5833333333333334
 40
0.5833333333333334
 40
0.5833333333333334
 40
0.6666666666666666
 40
0.6666666666666666
 40
0.6666666666666666
 40
0.6666666666666666
 40
0.75
 40
0.75
 40
0.75
 40
0.75
 40
0.8333333333333334
 40
0.8333333333333334
 40
0.8333333333333334
 40
0.8333333333333334
 40
1.0
 40
1.0
 40
1.0
 40
1.0
 10
3.40204
 20
1.92645
 30
0.0
 10
3.40204
 20
2.02693
 30
0.0
 10
3.42913
 20
2.10567
 30
0.0
 10
3.48318
 20
2.16253
 30
0.0
 10
3.48318
 20
2.16253
 30
0.0
 10
3.53723
 20
2.2194
 30
0.0
 10
3.60693
 20
2.24777
 30
0.0
 10
3.69245
 20
2.24777
 30
0.0
 10
3.69245
 20
2.24777
 30
0.0
 10
3.74847
 20
2.24777
 30
0.0
 10
3.79885
 20
2.23436
 30
0.0
 10
3.84386
 20
2.20769
 30
0.0
 10
3.84386
 20
2.20769
 30
0.0
 10
3.88873
 20
2.18102
 30
0.0
 10
3.92302
 20
2.14377
 30
0.0
 10
3.94659
 20
2.09593
 30
0.0
 10
3.94659
 20
2.09593
 30
0.0
 10
3.97016
 20
2.04823
 30
0.0
 10
3.98201
 20
1.99405
 30
0.0
 10
3.98201
 20
1.93351
 30
0.0
 10
3.98201
 20
1.93351
 30
0.0
 10
3.98201
 20
1.87213
 30
0.0
 10
3.96959
 20
1.81709
 30
0.0
 10
3.94476
 20
1.76869
 30
0.0
 10
3.94476
 20
1.76869
 30
0.0
 10
3.91992
 20
1.72015
 30
0.0
 10
3.88478
 20
1.68346
 30
0.0
 10
3.83935
 20
1.65862
 30
0.0
 10
3.83935
 20
1.65862
 30
0.0
 10
3.79377
 20
1.63365
 30
0.0
 10
3.74466
 20
1.62123
 30
0.0
 10
3.69202
 20
1.62123
 30
0.0
 10
3.69202
 20
1.62123
 30
0.0
 10
3.63487
 20
1.62123
 30
0.0
 10
3.58393
 20
1.63506
 30
0.0
 10
3.53892
 20
1.66258
 30
0.0
 10
3.53892
 20
1.66258
 30
0.0
 10
3.49404
 20
1.69009
 30
0.0
 10
3.4599
 20
1.72763
 30
0.0
 10
3.43675
 20
1.77532
 30
0.0
 10
3.43675
 20
1.77532
 30
0.0
 10
3.41361
 20
1.82288
 30
0.0
 10
3.40204
 20
1.87326
 30
0.0
 10
3.40204
 20
1.92645
 30
0.0
  0
SPLINE
  5
EC
330
1F
100
AcDbEntity
  8
Laag 1
100
AcDbSpline
210
0.0
220
0.0
230
1.0
 70
    11
 71
     3
 72
    40
 73
    36
 74
     0
 42
0.0000000001
 43
0.0000000001
 12
1.0
 22
0.0
 32
0.0
 13
1.0
 23
0.0
 33
0.0
 40
0.0
 40
0.0
 40
0.0
 40
0.0
 40
0.1
 40
0.1
 40
0.1
 40
0.1
 40
0.2
 40
0.2
 40
0.2
 40
0.2
 40
0.3
 40
0.3
 40
0.3
 40
0.3
 40
0.4
 40
0.4
 40
0.4
 40
0.4
 40
0.5
 40
0.5
 40
0.5
 40
0.5
 40
0.6
 40
0.6
 40
0.6
 40
0.6
 40
0.7
 40
0.7
 40
0.7
 40
0.7
 40
0.8
 40
0.8
 40
0.8
 40
0.8
 40
1.0
 40
1.0
 40
1.0
 40
1.0
 10
3.48501
 20
1.92504
 30
0.0
 10
3.48501
 20
1.85209
 30
0.0
 10
3.50463
 20
1.79466
 30
0.0
 10
3.54386
 20
1.75275
 30
0.0
 10
3.54386
 20
1.75275
 30
0.0
 10
3.58309
 20
1.71084
 30
0.0
 10
3.63233
 20
1.68981
 30
0.0
 10
3.6916
 20
1.68981
 30
0.0
 10
3.6916
 20
1.68981
 30
0.0
 10
3.752
 20
1.68981
 30
0.0
 10
3.80153
 20
1.71098
 30
0.0
 10
3.84062
 20
1.75331
 30
0.0
 10
3.84062
 20
1.75331
 30
0.0
 10
3.87956
 20
1.79564
 30
0.0
 10
3.89904
 20
1.85576
 30
0.0
 10
3.89904
 20
1.93365
 30
0.0
 10
3.89904
 20
1.93365
 30
0.0
 10
3.89904
 20
1.9829
 30
0.0
 10
3.89071
 20
2.02594
 30
0.0
 10
3.87406
 20
2.06263
 30
0.0
 10
3.87406
 20
2.06263
 30
0.0
 10
3.85741
 20
2.09932
 30
0.0
 10
3.833
 20
2.12782
 30
0.0
 10
3.80096
 20
2.148
 30
0.0
 10
3.80096
 20
2.148
 30
0.0
 10
3.76879
 20
2.16818
 30
0.0
 10
3.73281
 20
2.17834
 30
0.0
 10
3.69287
 20
2.17834
 30
0.0
 10
3.69287
 20
2.17834
 30
0.0
 10
3.63614
 20
2.17834
 30
0.0
 10
3.58732
 20
2.15887
 30
0.0
 10
3.5464
 20
2.11992
 30
0.0
 10
3.5464
 20
2.11992
 30
0.0
 10
3.50548
 20
2.08097
 30
0.0
 10
3.48501
 20
2.01606
 30
0.0
 10
3.48501
 20
1.92504
 30
0.0
  0
SPLINE
  5
ED
330
1F
100
AcDbEntity
  8
Laag 1
100
AcDbSpline
210
0.0
220
0.0
230
1.0
 70
    11
 71
     3
 72
    44
 73
    40
 74
     0
 42
0.0000000001
 43
0.0000000001
 12
1.0
 22
0.0
 32
0.0
 13
1.0
 23
0.0
 33
0.0
 40
0.0
 40
0.0
 40
0.0
 40
0.0
 40
0.0909090909090909
 40
0.0909090909090909
 40
0.0909090909090909
 40
0.0909090909090909
 40
0.1818181818181818
 40
0.1818181818181818
 40
0.1818181818181818
 40
0.1818181818181818
 40
0.2727272727272727
 40
0.2727272727272727
 40
0.2727272727272727
 40
0.2727272727272727
 40
0.3636363636363636
 40
0.3636363636363636
 40
0.3636363636363636
 40
0.3636363636363636
 40
0.4545454545454545
 40
0.4545454545454545
 40
0.4545454545454545
 40
0.4545454545454545
 40
0.5454545454545454
 40
0.5454545454545454
 40
0.5454545454545454
 40
0.5454545454545454
 40
0.6363636363636364
 40
0.6363636363636364
 40
0.6363636363636364
 40
0.6363636363636364
 40
0.7272727272727273
 40
0.7272727272727273
 40
0.7272727272727273
 40
0.7272727272727273
 40
0.8181818181818182
 40
0.8181818181818182
 40
0.8181818181818182
 40
0.8181818181818182
 40
1.0
 40
1.0
 40
1.0
 40
1.0
 10
4.0894
 20
1.63139
 30
0.0
 10
4.0894
 20
1.63139
 30
0.0
 10
4.0894
 20
2.23761
 30
0.0
 10
4.0894
 20
2.23761
 30
0.0
 10
4.0894
 20
2.23761
 30
0.0
 10
4.0894
 20
2.23761
 30
0.0
 10
4.49834
 20
2.23761
 30
0.0
 10
4.49834
 20
2.23761
 30
0.0
 10
4.49834
 20
2.23761
 30
0.0
 10
4.49834
 20
2.23761
 30
0.0
 10
4.49834
 20
2.16649
 30
0.0
 10
4.49834
 20
2.16649
 30
0.0
 10
4.49834
 20
2.16649
 30
0.0
 10
4.49834
 20
2.16649
 30
0.0
 10
4.16983
 20
2.16649
 30
0.0
 10
4.16983
 20
2.16649
 30
0.0
 10
4.16983
 20
2.16649
 30
0.0
 10
4.16983
 20
2.16649
 30
0.0
 10
4.16983
 20
1.97768
 30
0.0
 10
4.16983
 20
1.97768
 30
0.0
 10
4.16983
 20
1.97768
 30
0.0
 10
4.16983
 20
1.97768
 30
0.0
 10
4.45431
 20
1.97768
 30
0.0
 10
4.45431
 20
1.97768
 30
0.0
 10
4.45431
 20
1.97768
 30
0.0
 10
4.45431
 20
1.97768
 30
0.0
 10
4.45431
 20
1.90656
 30
0.0
 10
4.45431
 20
1.90656
 30
0.0
 10
4.45431
 20
1.90656
 30
0.0
 10
4.45431
 20
1.90656
 30
0.0
 10
4.16983
 20
1.90656
 30
0.0
 10
4.16983
 20
1.90656
 30
0.0
 10
4.16983
 20
1.90656
 30
0.0
 10
4.16983
 20
1.90656
 30
0.0
 10
4.16983
 20
1.63139
 30
0.0
 10
4.16983
 20
1.63139
 30
0.0
 10
4.16983
 20
1.63139
 30
0.0
 10
4.16983
 20
1.63139
 30
0.0
 10
4.0894
 20
1.63139
 30
0.0
 10
4.0894
 20
1.63139
 30
0.0
  0
SPLINE
  5
EE
330
1F
100
AcDbEntity
  8
Laag 1
100
AcDbSpline
210
0.0
220
0.0
230
1.0
 70
    11
 71
     3
 72
    44
 73
    40
 74
     0
 42
0.0000000001
 43
0.0000000001
 12
1.0
 22
0.0
 32
0.0
 13
1.0
 23
0.0
 33
0.0
 40
0.0
 40
0.0
 40
0.0
 40
0.0
 40
0.0909090909090909
 40
0.0909090909090909
 40
0.0909090909090909
 40
0.0909090909090909
 40
0.1818181818181818
 40
0.1818181818181818
 40
0.1818181818181818
 40
0.1818181818181818
 40
0.2727272727272727
 40
0.2727272727272727
 40
0.2727272727272727
 40
0.2727272727272727
 40
0.3636363636363636
 40
0.3636363636363636
 40
0.3636363636363636
 40
0.3636363636363636
 40
0.4545454545454545
 40
0.4545454545454545
 40
0.4545454545454545
 40
0.4545454545454545
 40
0.5454545454545454
 40
0.5454545454545454
 40
0.5454545454545454
 40
0.5454545454545454
 40
0.6363636363636364
 40
0.6363636363636364
 40
0.6363636363636364
 40
0.6363636363636364
 40
0.7272727272727273
 40
0.7272727272727273
 40
0.7272727272727273
 40
0.7272727272727273
 40
0.8181818181818182
 40
0.8181818181818182
 40
0.8181818181818182
 40
0.8181818181818182
 40
1.0
 40
1.0
 40
1.0
 40
1.0
 10
4.60657
 20
1.63139
 30
0.0
 10
4.60657
 20
1.63139
 30
0.0
 10
4.60657
 20
2.23761
 30
0.0
 10
4.60657
 20
2.23761
 30
0.0
 10
4.60657
 20
2.23761
 30
0.0
 10
4.60657
 20
2.23761
 30
0.0
 10
5.01551
 20
2.23761
 30
0.0
 10
5.01551
 20
2.23761
 30
0.0
 10
5.01551
 20
2.23761
 30
0.0
 10
5.01551
 20
2.23761
 30
0.0
 10
5.01551
 20
2.16649
 30
0.0
 10
5.01551
 20
2.16649
 30
0.0
 10
5.01551
 20
2.16649
 30
0.0
 10
5.01551
 20
2.16649
 30
0.0
 10
4.687
 20
2.16649
 30
0.0
 10
4.687
 20
2.16649
 30
0.0
 10
4.687
 20
2.16649
 30
0.0
 10
4.687
 20
2.16649
 30
0.0
 10
4.687
 20
1.97768
 30
0.0
 10
4.687
 20
1.97768
 30
0.0
 10
4.687
 20
1.97768
 30
0.0
 10
4.687
 20
1.97768
 30
0.0
 10
4.97148
 20
1.97768
 30
0.0
 10
4.97148
 20
1.97768
 30
0.0
 10
4.97148
 20
1.97768
 30
0.0
 10
4.97148
 20
1.97768
 30
0.0
 10
4.97148
 20
1.90656
 30
0.0
 10
4.97148
 20
1.90656
 30
0.0
 10
4.97148
 20
1.90656
 30
0.0
 10
4.97148
 20
1.90656
 30
0.0
 10
4.687
 20
1.90656
 30
0.0
 10
4.687
 20
1.90656
 30
0.0
 10
4.687
 20
1.90656
 30
0.0
 10
4.687
 20
1.90656
 30
0.0
 10
4.687
 20
1.63139
 30
0.0
 10
4.687
 20
1.63139
 30
0.0
 10
4.687
 20
1.63139
 30
0.0
 10
4.687
 20
1.63139
 30
0.0
 10
4.60657
 20
1.63139
 30
0.0
 10
4.60657
 20
1.63139
 30
0.0
  0
SPLINE
  5
EF
330
1F
100
AcDbEntity
  8
Laag 1
370
     9
100
AcDbSpline
210
0.0
220
0.0
230
1.0
 70
     8
 71
     3
 72
    36
 73
    32
 74
     0
 42
0.0000000001
 43
0.0000000001
 12
1.0
 22
0.0
 32
0.0
 13
1.0
 23
0.0
 33
0.0
 40
0.0
 40
0.0
 40
0.0
 40
0.0
 40
0.1111111111111111
 40
0.1111111111111111
 40
0.1111111111111111
 40
0.1111111111111111
 40
0.2222222222222222
 40
0.2222222222222222
 40
0.2222222222222222
 40
0.2222222222222222
 40
0.3333333333333333
 40
0.3333333333333333
 40
0.3333333333333333
 40
0.3333333333333333
 40
0.4444444444444444
 40
0.4444444444444444
 40
0.4444444444444444
 40
0.4444444444444444
 40
0.5555555555555556
 40
0.5555555555555556
 40
0.5555555555555556
 40
0.5555555555555556
 40
0.6666666666666666
 40
0.6666666666666666
 40
0.6666666666666666
 40
0.6666666666666666
 40
0.7777777777777778
 40
0.7777777777777778
 40
0.7777777777777778
 40
0.7777777777777778
 40
1.0
 40
1.0
 40
1.0
 40
1.0
 10
-4.85069
 20
-4.39391
 30
0.0
 10
-4.85069
 20
-4.39391
 30
0.0
 10
-3.93426
 20
-4.39391
 30
0.0
 10
-3.93426
 20
-4.39391
 30
0.0
 10
-3.93426
 20
-4.39391
 30
0.0
 10
-3.80074
 20
-4.39389
 30
0.0
 10
-3.69246
 20
-4.50217
 30
0.0
 10
-3.69246
 20
-4.63568
 30
0.0
 10
-3.69246
 20
-4.63568
 30
0.0
 10
-3.69246
 20
-4.63568
 30
0.0
 10
-3.69247
 20
-6.95212
 30
0.0
 10
-3.69247
 20
-6.95212
 30
0.0
 10
-3.69247
 20
-6.95212
 30
0.0
 10
-3.69246
 20
-7.08561
 30
0.0
 10
-3.80074
 20
-7.19389
 30
0.0
 10
-3.93425
 20
-7.19389
 30
0.0
 10
-3.93425
 20
-7.19389
 30
0.0
 10
-3.93425
 20
-7.19389
 30
0.0
 10
-4.85069
 20
-7.19391
 30
0.0
 10
-4.85069
 20
-7.19391
 30
0.0
 10
-4.85069
 20
-7.19391
 30
0.0
 10
-4.9842
 20
-7.19389
 30
0.0
 10
-5.09247
 20
-7.08561
 30
0.0
 10
-5.09247
 20
-6.9521
 30
0.0
 10
-5.09247
 20
-6.9521
 30
0.0
 10
-5.09247
 20
-6.9521
 30
0.0
 10
-5.09248
 20
-4.6357
 30
0.0
 10
-5.09248
 20
-4.6357
 30
0.0
 10
-5.09248
 20
-4.6357
 30
0.0
 10
-5.09247
 20
-4.50217
 30
0.0
 10
-4.9842
 20
-4.39389
 30
0.0
 10
-4.85068
 20
-4.39389
 30
0.0
  0
SPLINE
  5
F0
330
1F
100
AcDbEntity
  8
Laag 1
370
     9
100
AcDbSpline
210
0.0
220
0.0
230
1.0
 70
     8
 71
     3
 72
    36
 73
    32
 74
     0
 42
0.0000000001
 43
0.0000000001
 12
1.0
 22
0.0
 32
0.0
 13
1.0
 23
0.0
 33
0.0
 40
0.0
 40
0.0
 40
0.0
 40
0.0
 40
0.1111111111111111
 40
0.1111111111111111
 40
0.1111111111111111
 40
0.1111111111111111
 40
0.2222222222222222
 40
0.2222222222222222
 40
0.2222222222222222
 40
0.2222222222222222
 40
0.3333333333333333
 40
0.3333333333333333
 40
0.3333333333333333
 40
0.3333333333333333
 40
0.4444444444444444
 40
0.4444444444444444
 40
0.4444444444444444
 40
0.4444444444444444
 40
0.5555555555555556
 40
0.5555555555555556
 40
0.5555555555555556
 40
0.5555555555555556
 40
0.6666666666666666
 40
0.6666666666666666
 40
0.6666666666666666
 40
0.6666666666666666
 40
0.7777777777777778
 40
0.7777777777777778
 40
0.7777777777777778
 40
0.7777777777777778
 40
1.0
 40
1.0
 40
1.0
 40
1.0
 10
-0.45521
 20
-4.39391
 30
0.0
 10
-0.45521
 20
-4.39391
 30
0.0
 10
0.46122
 20
-4.39391
 30
0.0
 10
0.46122
 20
-4.39391
 30
0.0
 10
0.46122
 20
-4.39391
 30
0.0
 10
0.59474
 20
-4.39389
 30
0.0
 10
0.70302
 20
-4.50217
 30
0.0
 10
0.70302
 20
-4.63568
 30
0.0
 10
0.70302
 20
-4.63568
 30
0.0
 10
0.70302
 20
-4.63568
 30
0.0
 10
0.70301
 20
-6.95212
 30
0.0
 10
0.70301
 20
-6.95212
 30
0.0
 10
0.70301
 20
-6.95212
 30
0.0
 10
0.70302
 20
-7.08561
 30
0.0
 10
0.59474
 20
-7.19389
 30
0.0
 10
0.46123
 20
-7.19389
 30
0.0
 10
0.46123
 20
-7.19389
 30
0.0
 10
0.46123
 20
-7.19389
 30
0.0
 10
-0.45521
 20
-7.19391
 30
0.0
 10
-0.45521
 20
-7.19391
 30
0.0
 10
-0.45521
 20
-7.19391
 30
0.0
 10
-0.58872
 20
-7.19389
 30
0.0
 10
-0.69699
 20
-7.08561
 30
0.0
 10
-0.69699
 20
-6.9521
 30
0.0
 10
-0.69699
 20
-6.9521
 30
0.0
 10
-0.69699
 20
-6.9521
 30
0.0
 10
-0.697
 20
-4.6357
 30
0.0
 10
-0.697
 20
-4.6357
 30
0.0
 10
-0.697
 20
-4.6357
 30
0.0
 10
-0.69699
 20
-4.50217
 30
0.0
 10
-0.58872
 20
-4.39389
 30
0.0
 10
-0.4552
 20
-4.39389
 30
0.0
  0
SPLINE
  5
F1
330
1F
100
AcDbEntity
  8
Laag 1
370
     9
100
AcDbSpline
210
0.0
220
0.0
230
1.0
 70
     8
 71
     3
 72
    36
 73
    32
 74
     0
 42
0.0000000001
 43
0.0000000001
 12
1.0
 22
0.0
 32
0.0
 13
1.0
 23
0.0
 33
0.0
 40
0.0
 40
0.0
 40
0.0
 40
0.0
 40
0.1111111111111111
 40
0.1111111111111111
 40
0.1111111111111111
 40
0.1111111111111111
 40
0.2222222222222222
 40
0.2222222222222222
 40
0.2222222222222222
 40
0.2222222222222222
 40
0.3333333333333333
 40
0.3333333333333333
 40
0.3333333333333333
 40
0.3333333333333333
 40
0.4444444444444444
 40
0.4444444444444444
 40
0.4444444444444444
 40
0.4444444444444444
 40
0.5555555555555556
 40
0.5555555555555556
 40
0.5555555555555556
 40
0.5555555555555556
 40
0.6666666666666666
 40
0.6666666666666666
 40
0.6666666666666666
 40
0.6666666666666666
 40
0.7777777777777778
 40
0.7777777777777778
 40
0.7777777777777778
 40
0.7777777777777778
 40
1.0
 40
1.0
 40
1.0
 40
1.0
 10
-5.77822
 20
-1.09161
 30
0.0
 10
-5.77822
 20
-1.09161
 30
0.0
 10
1.39276
 20
-1.09161
 30
0.0
 10
1.39276
 20
-1.09161
 30
0.0
 10
1.39276
 20
-1.09161
 30
0.0
 10
1.456
 20
-1.09161
 30
0.0
 10
1.50728
 20
-1.14289
 30
0.0
 10
1.50728
 20
-1.20612
 30
0.0
 10
1.50728
 20
-1.20612
 30
0.0
 10
1.50728
 20
-1.20612
 30
0.0
 10
1.50727
 20
-3.5071
 30
0.0
 10
1.50727
 20
-3.5071
 30
0.0
 10
1.50727
 20
-3.5071
 30
0.0
 10
1.50728
 20
-3.57031
 30
0.0
 10
1.456
 20
-3.62159
 30
0.0
 10
1.39277
 20
-3.62159
 30
0.0
 10
1.39277
 20
-3.62159
 30
0.0
 10
1.39277
 20
-3.62159
 30
0.0
 10
-5.77822
 20
-3.62161
 30
0.0
 10
-5.77822
 20
-3.62161
 30
0.0
 10
-5.77822
 20
-3.62161
 30
0.0
 10
-5.84144
 20
-3.62159
 30
0.0
 10
-5.89272
 20
-3.57031
 30
0.0
 10
-5.89272
 20
-3.50708
 30
0.0
 10
-5.89272
 20
-3.50708
 30
0.0
 10
-5.89272
 20
-3.50708
 30
0.0
 10
-5.89273
 20
-1.20612
 30
0.0
 10
-5.89273
 20
-1.20612
 30
0.0
 10
-5.89273
 20
-1.20612
 30
0.0
 10
-5.89272
 20
-1.14289
 30
0.0
 10
-5.84144
 20
-1.09161
 30
0.0
 10
-5.77821
 20
-1.09161
 30
0.0
  0
ENDSEC
  0
SECTION
  2
OBJECTS
  0
DICTIONARY
  5
C
330
0
100
AcDbDictionary
281
     1
  3
ACAD_GROUP
350
D
  3
ACAD_LAYOUT
350
1A
  3
ACAD_MATERIAL
350
3B
  3
ACAD_MLEADERSTYLE
350
113
  3
ACAD_MLINESTYLE
350
17
  3
ACAD_PLOTSETTINGS
350
19
  3
ACAD_PLOTSTYLENAME
350
E
  3
ACAD_TABLESTYLE
350
112
  3
ACAD_VISUALSTYLE
350
2A
  0
DICTIONARY
  5
D
102
{ACAD_REACTORS
330
C
102
}
330
C
100
AcDbDictionary
281
     1
  0
DICTIONARY
  5
1A
102
{ACAD_REACTORS
330
C
102
}
330
C
100
AcDbDictionary
281
     1
  3
Layout1
350
1E
  3
Layout2
350
26
  3
Model
350
22
  0
DICTIONARY
  5
3B
102
{ACAD_REACTORS
330
C
102
}
330
C
100
AcDbDictionary
281
     1
  3
ByBlock
350
3D
  3
ByLayer
350
3C
  3
Global
350
3E
  0
DICTIONARY
  5
113
102
{ACAD_REACTORS
330
C
102
}
330
C
100
AcDbDictionary
281
     1
  0
DICTIONARY
  5
17
102
{ACAD_REACTORS
330
C
102
}
330
C
100
AcDbDictionary
281
     1
  3
Standard
350
18
  0
DICTIONARY
  5
19
102
{ACAD_REACTORS
330
C
102
}
330
C
100
AcDbDictionary
281
     1
  0
ACDBDICTIONARYWDFLT
  5
E
102
{ACAD_REACTORS
330
C
102
}
330
C
100
AcDbDictionary
281
     1
  3
Normal
350
F
100
AcDbDictionaryWithDefault
340
F
  0
DICTIONARY
  5
112
102
{ACAD_REACTORS
330
C
102
}
330
C
100
AcDbDictionary
281
     1
  0
DICTIONARY
  5
2A
102
{ACAD_REACTORS
330
C
102
}
330
C
100
AcDbDictionary
281
     1
  3
2dWireframe
350
2F
  3
3D Hidden
350
31
  3
3dWireframe
350
30
  3
Basic
350
32
  3
Brighten
350
36
  3
ColorChange
350
3A
  3
Conceptual
350
34
  3
Dim
350
35
  3
Facepattern
350
39
  3
Flat
350
2B
  3
FlatWithEdges
350
2C
  3
Gouraud
350
2D
  3
GouraudWithEdges
350
2E
  3
Linepattern
350
38
  3
Realistic
350
33
  3
Thicken
350
37
  0
LAYOUT
  5
1E
102
{ACAD_REACTORS
330
1A
102
}
330
1A
100
AcDbPlotSettings
  1

  2
none_device
  4

  6

 40
0.0
 41
0.0
 42
0.0
 43
0.0
 44
0.0
 45
0.0
 46
0.0
 47
0.0
 48
0.0
 49
0.0
140
0.0
141
0.0
142
1.0
143
1.0
 70
   688
 72
     0
 73
     0
 74
     5
  7

 75
    16
 76
     0
 77
     2
 78
   300
147
1.0
148
0.0
149
0.0
100
AcDbLayout
  1
Layout1
 70
     1
 71
     1
 10
0.0
 20
0.0
 11
12.0
 21
9.0
 12
0.0
 22
0.0
 32
0.0
 14
1.000000000000000E+20
 24
1.000000000000000E+20
 34
1.000000000000000E+20
 15
-1.000000000000000E+20
 25
-1.000000000000000E+20
 35
-1.000000000000000E+20
146
0.0
 13
0.0
 23
0.0
 33
0.0
 16
1.0
 26
0.0
 36
0.0
 17
0.0
 27
1.0
 37
0.0
 76
     0
330
1B
  0
LAYOUT
  5
26
102
{ACAD_REACTORS
330
1A
102
}
330
1A
100
AcDbPlotSettings
  1

  2
none_device
  4

  6

 40
0.0
 41
0.0
 42
0.0
 43
0.0
 44
0.0
 45
0.0
 46
0.0
 47
0.0
 48
0.0
 49
0.0
140
0.0
141
0.0
142
1.0
143
1.0
 70
   688
 72
     0
 73
     0
 74
     5
  7

 75
    16
 76
     0
 77
     2
 78
   300
147
1.0
148
0.0
149
0.0
100
AcDbLayout
  1
Layout2
 70
     1
 71
     2
 10
0.0
 20
0.0
 11
0.0
 21
0.0
 12
0.0
 22
0.0
 32
0.0
 14
0.0
 24
0.0
 34
0.0
 15
0.0
 25
0.0
 35
0.0
146
0.0
 13
0.0
 23
0.0
 33
0.0
 16
1.0
 26
0.0
 36
0.0
 17
0.0
 27
1.0
 37
0.0
 76
     0
330
23
  0
LAYOUT
  5
22
102
{ACAD_REACTORS
330
1A
102
}
330
1A
100
AcDbPlotSettings
  1

  2
none_device
  4

  6

 40
0.0
 41
0.0
 42
0.0
 43
0.0
 44
0.0
 45
0.0
 46
0.0
 47
0.0
 48
0.0
 49
0.0
140
0.0
141
0.0
142
1.0
143
1.0
 70
  1712
 72
     0
 73
     0
 74
     0
  7

 75
     0
 76
     0
 77
     2
 78
   300
147
1.0
148
0.0
149
0.0
100
AcDbLayout
  1
Model
 70
     1
 71
     0
 10
0.0
 20
0.0
 11
12.0
 21
9.0
 12
0.0
 22
0.0
 32
0.0
 14
-7.87951
 24
-10.04652
 34
0.0
 15
6.76681
 25
12.2007
 35
0.0
146
0.0
 13
0.0
 23
0.0
 33
0.0
 16
1.0
 26
0.0
 36
0.0
 17
0.0
 27
1.0
 37
0.0
 76
     0
330
1F
331
29
  0
MATERIAL
  5
3D
102
{ACAD_REACTORS
330
3B
102
}
330
3B
100
AcDbMaterial
  1
ByBlock
 72
     1
 94
      127
  0
MATERIAL
  5
3C
102
{ACAD_REACTORS
330
3B
102
}
330
3B
100
AcDbMaterial
  1
ByLayer
 72
     1
 94
      127
  0
MATERIAL
  5
3E
102
{ACAD_REACTORS
330
3B
102
}
330
3B
100
AcDbMaterial
  1
Global
 72
     1
 94
      127
  0
MLINESTYLE
  5
18
102
{ACAD_REACTORS
330
17
102
}
330
17
100
AcDbMlineStyle
  2
Standard
 70
     0
  3

 62
   256
 51
90.0
 52
90.0
 71
     2
 49
0.5
 62
   256
  6
BYLAYER
 49
-0.5
 62
   256
  6
BYLAYER
  0
ACDBPLACEHOLDER
  5
F
102
{ACAD_REACTORS
330
E
102
}
330
E
  0
VISUALSTYLE
  5
2F
102
{ACAD_REACTORS
330
2A
102
}
102
{ACAD_XDICTIONARY
360
FA
102
}
330
2A
100
AcDbVisualStyle
  2
2dWireframe
 70
     4
 71
     0
 72
     2
 73
     0
 90
        0
 40
-0.6
 41
-30.0
 62
     5
 63
     7
421
 16777215
 74
     1
 91
        4
 64
     7
 65
   257
 75
     1
175
     1
 42
1.0
 92
        0
 66
   257
 43
1.0
 76
     1
 77
     6
 78
     2
 67
     7
 79
     5
170
     0
171
     0
290
     0
174
     0
 93
        1
 44
0.0
173
     0
291
     0
 45
0.0
  0
VISUALSTYLE
  5
31
102
{ACAD_REACTORS
330
2A
102
}
102
{ACAD_XDICTIONARY
360
FE
102
}
330
2A
100
AcDbVisualStyle
  2
3D Hidden
 70
     6
 71
     1
 72
     2
 73
     2
 90
        0
 40
-0.6
 41
-30.0
 62
     5
 63
     7
421
 16777215
 74
     2
 91
        2
 64
     7
 65
   257
 75
     2
175
     1
 42
40.0
 92
        0
 66
   257
 43
1.0
 76
     1
 77
     6
 78
     2
 67
     7
 79
     3
170
     0
171
     0
290
     0
174
     0
 93
        1
 44
0.0
173
     0
291
     0
 45
0.0
  0
VISUALSTYLE
  5
30
102
{ACAD_REACTORS
330
2A
102
}
102
{ACAD_XDICTIONARY
360
FC
102
}
330
2A
100
AcDbVisualStyle
  2
3dWireframe
 70
     5
 71
     0
 72
     2
 73
     0
 90
        0
 40
-0.6
 41
-30.0
 62
     5
 63
     7
421
 16777215
 74
     1
 91
        4
 64
     7
 65
   257
 75
     1
175
     1
 42
1.0
 92
        0
 66
   257
 43
1.0
 76
     1
 77
     6
 78
     2
 67
     7
 79
     5
170
     0
171
     0
290
     0
174
     0
 93
        1
 44
0.0
173
     0
291
     0
 45
0.0
  0
VISUALSTYLE
  5
32
102
{ACAD_REACTORS
330
2A
102
}
102
{ACAD_XDICTIONARY
360
100
102
}
330
2A
100
AcDbVisualStyle
  2
Basic
 70
     7
 71
     1
 72
     0
 73
     1
 90
        0
 40
-0.6
 41
-30.0
 62
     5
 63
     7
421
 16777215
 74
     0
 91
        4
 64
     7
 65
   257
 75
     1
175
     1
 42
1.0
 92
        8
 66
     7
 43
1.0
 76
     1
 77
     6
 78
     2
 67
     7
 79
     5
170
     0
171
     0
290
     0
174
     0
 93
        1
 44
0.0
173
     0
291
     1
 45
0.0
  0
VISUALSTYLE
  5
36
102
{ACAD_REACTORS
330
2A
102
}
102
{ACAD_XDICTIONARY
360
108
102
}
330
2A
100
AcDbVisualStyle
  2
Brighten
 70
    12
 71
     2
 72
     2
 73
     0
 90
        0
 40
-0.6
 41
-30.0
 62
     5
 63
     7
421
 16777215
 74
     1
 91
        4
 64
     7
 65
   257
 75
     1
175
     1
 42
1.0
 92
        8
 66
     7
 43
1.0
 76
     1
 77
     6
 78
     2
 67
     7
 79
     5
170
     0
171
     0
290
     0
174
     0
 93
        1
 44
50.0
173
     0
291
     1
 45
0.0
  0
VISUALSTYLE
  5
3A
102
{ACAD_REACTORS
330
2A
102
}
102
{ACAD_XDICTIONARY
360
110
102
}
330
2A
100
AcDbVisualStyle
  2
ColorChange
 70
    16
 71
     2
 72
     2
 73
     3
 90
        0
 40
-0.6
 41
-30.0
 62
     5
 63
     8
421
  8421504
 74
     1
 91
        4
 64
     7
 65
   257
 75
     1
175
     1
 42
1.0
 92
        8
 66
     8
424
  8421504
 43
1.0
 76
     1
 77
     6
 78
     2
 67
     7
 79
     5
170
     0
171
     0
290
     0
174
     0
 93
        1
 44
0.0
173
     0
291
     1
 45
0.0
  0
VISUALSTYLE
  5
34
102
{ACAD_REACTORS
330
2A
102
}
102
{ACAD_XDICTIONARY
360
104
102
}
330
2A
100
AcDbVisualStyle
  2
Conceptual
 70
     9
 71
     3
 72
     2
 73
     0
 90
        0
 40
-0.6
 41
-30.0
 62
     5
 63
     7
421
 16777215
 74
     2
 91
        2
 64
     7
 65
   257
 75
     1
175
     1
 42
40.0
 92
        8
 66
     7
 43
1.0
 76
     1
 77
     6
 78
     2
 67
     7
 79
     3
170
     0
171
     0
290
     0
174
     0
 93
        1
 44
0.0
173
     0
291
     0
 45
0.0
  0
VISUALSTYLE
  5
35
102
{ACAD_REACTORS
330
2A
102
}
102
{ACAD_XDICTIONARY
360
106
102
}
330
2A
100
AcDbVisualStyle
  2
Dim
 70
    11
 71
     2
 72
     2
 73
     0
 90
        0
 40
-0.6
 41
-30.0
 62
     5
 63
     7
421
 16777215
 74
     1
 91
        4
 64
     7
 65
   257
 75
     1
175
     1
 42
1.0
 92
        8
 66
     7
 43
1.0
 76
     1
 77
     6
 78
     2
 67
     7
 79
     5
170
     0
171
     0
290
     0
174
     0
 93
        1
 44
-50.0
173
     0
291
     1
 45
0.0
  0
VISUALSTYLE
  5
39
102
{ACAD_REACTORS
330
2A
102
}
102
{ACAD_XDICTIONARY
360
10E
102
}
330
2A
100
AcDbVisualStyle
  2
Facepattern
 70
    15
 71
     2
 72
     2
 73
     0
 90
        0
 40
-0.6
 41
-30.0
 62
     5
 63
     7
421
 16777215
 74
     1
 91
        4
 64
     7
 65
   257
 75
     1
175
     1
 42
1.0
 92
        8
 66
     7
 43
1.0
 76
     1
 77
     6
 78
     2
 67
     7
 79
     5
170
     0
171
     0
290
     0
174
     0
 93
        1
 44
0.0
173
     0
291
     1
 45
0.0
  0
VISUALSTYLE
  5
2B
102
{ACAD_REACTORS
330
2A
102
}
102
{ACAD_XDICTIONARY
360
F2
102
}
330
2A
100
AcDbVisualStyle
  2
Flat
 70
     0
 71
     2
 72
     1
 73
     1
 90
        2
 40
-0.6
 41
30.0
 62
     5
 63
     7
421
 16777215
 74
     0
 91
        4
 64
     7
 65
   257
 75
     1
175
     1
 42
1.0
 92
        8
 66
     7
 43
1.0
 76
     1
 77
     6
 78
     2
 67
     7
 79
     5
170
     0
171
     0
290
     0
174
     0
 93
       13
 44
0.0
173
     0
291
     1
 45
0.0
  0
VISUALSTYLE
  5
2C
102
{ACAD_REACTORS
330
2A
102
}
102
{ACAD_XDICTIONARY
360
F4
102
}
330
2A
100
AcDbVisualStyle
  2
FlatWithEdges
 70
     1
 71
     2
 72
     1
 73
     1
 90
        2
 40
-0.6
 41
30.0
 62
     5
 63
     7
421
 16777215
 74
     1
 91
        4
 64
     7
 65
   257
 75
     1
175
     1
 42
1.0
 92
        0
 66
   257
 43
1.0
 76
     1
 77
     6
 78
     2
 67
     7
 79
     5
170
     0
171
     0
290
     0
174
     0
 93
       13
 44
0.0
173
     0
291
     1
 45
0.0
  0
VISUALSTYLE
  5
2D
102
{ACAD_REACTORS
330
2A
102
}
102
{ACAD_XDICTIONARY
360
F6
102
}
330
2A
100
AcDbVisualStyle
  2
Gouraud
 70
     2
 71
     2
 72
     2
 73
     1
 90
        2
 40
-0.6
 41
30.0
 62
     5
 63
     7
421
 16777215
 74
     0
 91
        4
 64
     7
 65
   257
 75
     1
175
     1
 42
1.0
 92
        0
 66
     7
 43
1.0
 76
     1
 77
     6
 78
     2
 67
     7
 79
     5
170
     0
171
     0
290
     0
174
     0
 93
       13
 44
0.0
173
     0
291
     1
 45
0.0
  0
VISUALSTYLE
  5
2E
102
{ACAD_REACTORS
330
2A
102
}
102
{ACAD_XDICTIONARY
360
F8
102
}
330
2A
100
AcDbVisualStyle
  2
GouraudWithEdges
 70
     3
 71
     2
 72
     2
 73
     1
 90
        2
 40
-0.6
 41
30.0
 62
     5
 63
     7
421
 16777215
 74
     1
 91
        4
 64
     7
 65
   257
 75
     1
175
     1
 42
1.0
 92
        0
 66
   257
 43
1.0
 76
     1
 77
     6
 78
     2
 67
     7
 79
     5
170
     0
171
     0
290
     0
174
     0
 93
       13
 44
0.0
173
     0
291
     1
 45
0.0
  0
VISUALSTYLE
  5
38
102
{ACAD_REACTORS
330
2A
102
}
102
{ACAD_XDICTIONARY
360
10C
102
}
330
2A
100
AcDbVisualStyle
  2
Linepattern
 70
    14
 71
     2
 72
     2
 73
     0
 90
        0
 40
-0.6
 41
-30.0
 62
     5
 63
     7
421
 16777215
 74
     1
 91
        4
 64
     7
 65
   257
 75
     7
175
     7
 42
1.0
 92
        8
 66
     7
 43
1.0
 76
     1
 77
     6
 78
     2
 67
     7
 79
     5
170
     0
171
     0
290
     0
174
     0
 93
        1
 44
0.0
173
     0
291
     1
 45
0.0
  0
VISUALSTYLE
  5
33
102
{ACAD_REACTORS
330
2A
102
}
102
{ACAD_XDICTIONARY
360
102
102
}
330
2A
100
AcDbVisualStyle
  2
Realistic
 70
     8
 71
     2
 72
     2
 73
     0
 90
        0
 40
-0.6
 41
-30.0
 62
     5
 63
     7
421
 16777215
 74
     1
 91
        0
 64
     7
 65
   257
 75
     1
175
     1
 42
1.0
 92
        8
 66
     8
424
  7895160
 43
1.0
 76
     1
 77
     6
 78
     2
 67
     7
 79
     5
170
     0
171
     0
290
     0
174
     0
 93
       13
 44
0.0
173
     0
291
     0
 45
0.0
  0
VISUALSTYLE
  5
37
102
{ACAD_REACTORS
330
2A
102
}
102
{ACAD_XDICTIONARY
360
10A
102
}
330
2A
100
AcDbVisualStyle
  2
Thicken
 70
    13
 71
     2
 72
     2
 73
     0
 90
        0
 40
-0.6
 41
-30.0
 62
     5
 63
     7
421
 16777215
 74
     1
 91
        4
 64
     7
 65
   257
 75
     1
175
     1
 42
1.0
 92
       12
 66
     7
 43
1.0
 76
     1
 77
     6
 78
     2
 67
     7
 79
     5
170
     0
171
     0
290
     0
174
     0
 93
        1
 44
0.0
173
     0
291
     1
 45
0.0
  0
DICTIONARY
  5
FA
330
2F
100
AcDbDictionary
280
     1
281
     1
  3
ACAD_XREC_ROUNDTRIP
360
FB
  0
DICTIONARY
  5
FE
330
31
100
AcDbDictionary
280
     1
281
     1
  3
ACAD_XREC_ROUNDTRIP
360
FF
  0
DICTIONARY
  5
FC
330
30
100
AcDbDictionary
280
     1
281
     1
  3
ACAD_XREC_ROUNDTRIP
360
FD
  0
DICTIONARY
  5
100
330
32
100
AcDbDictionary
280
     1
281
     1
  3
ACAD_XREC_ROUNDTRIP
360
101
  0
DICTIONARY
  5
108
330
36
100
AcDbDictionary
280
     1
281
     1
  3
ACAD_XREC_ROUNDTRIP
360
109
  0
DICTIONARY
  5
110
330
3A
100
AcDbDictionary
280
     1
281
     1
  3
ACAD_XREC_ROUNDTRIP
360
111
  0
DICTIONARY
  5
104
330
34
100
AcDbDictionary
280
     1
281
     1
  3
ACAD_XREC_ROUNDTRIP
360
105
  0
DICTIONARY
  5
106
330
35
100
AcDbDictionary
280
     1
281
     1
  3
ACAD_XREC_ROUNDTRIP
360
107
  0
DICTIONARY
  5
10E
330
39
100
AcDbDictionary
280
     1
281
     1
  3
ACAD_XREC_ROUNDTRIP
360
10F
  0
DICTIONARY
  5
F2
330
2B
100
AcDbDictionary
280
     1
281
     1
  3
ACAD_XREC_ROUNDTRIP
360
F3
  0
DICTIONARY
  5
F4
330
2C
100
AcDbDictionary
280
     1
281
     1
  3
ACAD_XREC_ROUNDTRIP
360
F5
  0
DICTIONARY
  5
F6
330
2D
100
AcDbDictionary
280
     1
281
     1
  3
ACAD_XREC_ROUNDTRIP
360
F7
  0
DICTIONARY
  5
F8
330
2E
100
AcDbDictionary
280
     1
281
     1
  3
ACAD_XREC_ROUNDTRIP
360
F9
  0
DICTIONARY
  5
10C
330
38
100
AcDbDictionary
280
     1
281
     1
  3
ACAD_XREC_ROUNDTRIP
360
10D
  0
DICTIONARY
  5
102
330
33
100
AcDbDictionary
280
     1
281
     1
  3
ACAD_XREC_ROUNDTRIP
360
103
  0
DICTIONARY
  5
10A
330
37
100
AcDbDictionary
280
     1
281
     1
  3
ACAD_XREC_ROUNDTRIP
360
10B
  0
XRECORD
  5
FB
102
{ACAD_REACTORS
330
FA
102
}
330
FA
100
AcDbXrecord
280
     1
102
RTVSPropertyOp0
 70
     1
102
RTVSPropertyOp1
 70
     1
102
RTVSPropertyOp2
 70
     1
102
RTVSPropertyOp3
 70
     1
102
RTVSPropertyOp4
 70
     1
102
RTVSPropertyOp5
 70
     1
102
RTVSPropertyOp6
 70
     1
102
RTVSPropertyOp7
 70
     1
102
RTVSPropertyOp8
 70
     1
102
RTVSPropertyOp9
 70
     1
102
RTVSPropertyOp10
 70
     1
102
RTVSPropertyOp11
 70
     1
102
RTVSPropertyOp12
 70
     1
102
RTVSPropertyOp13
 70
     1
102
RTVSPropertyOp14
 70
     1
102
RTVSPropertyOp15
 70
     1
102
RTVSPropertyOp16
 70
     1
102
RTVSPropertyOp17
 70
     1
102
RTVSPropertyOp18
 70
     1
102
RTVSPropertyOp19
 70
     1
102
RTVSPropertyOp20
 70
     1
102
RTVSPropertyOp21
 70
     1
102
RTVSPropertyOp22
 70
     1
102
RTVSPropertyOp23
 70
     1
102
RTVSPropertyOp24
 70
     1
102
RTVSPropertyOp25
 70
     1
102
RTVSPropertyOp26
 70
     1
102
RTVSPropertyOp27
 70
     1
102
RTVSPropertyOp28
 70
     1
102
RTVSPropertyOp29
 70
     1
102
RTVSPropertyOp30
 70
     1
102
RTVSPropertyOp31
 70
     1
102
RTVSPropertyOp32
 70
     1
  0
XRECORD
  5
FF
102
{ACAD_REACTORS
330
FE
102
}
330
FE
100
AcDbXrecord
280
     1
102
RTVSPropertyOp0
 70
     1
102
RTVSPropertyOp1
 70
     1
102
RTVSPropertyOp2
 70
     1
102
RTVSPropertyOp3
 70
     1
102
RTVSPropertyOp4
 70
     1
102
RTVSPropertyOp5
 70
     1
102
RTVSPropertyOp6
 70
     1
102
RTVSPropertyOp7
 70
     1
102
RTVSPropertyOp8
 70
     1
102
RTVSPropertyOp9
 70
     1
102
RTVSPropertyOp10
 70
     1
102
RTVSPropertyOp11
 70
     1
102
RTVSPropertyOp12
 70
     1
102
RTVSPropertyOp13
 70
     1
102
RTVSPropertyOp14
 70
     1
102
RTVSPropertyOp15
 70
     1
102
RTVSPropertyOp16
 70
     1
102
RTVSPropertyOp17
 70
     1
102
RTVSPropertyOp18
 70
     1
102
RTVSPropertyOp19
 70
     1
102
RTVSPropertyOp20
 70
     1
102
RTVSPropertyOp21
 70
     1
102
RTVSPropertyOp22
 70
     1
102
RTVSPropertyOp23
 70
     1
102
RTVSPropertyOp24
 70
     1
102
RTVSPropertyOp25
 70
     1
102
RTVSPropertyOp26
 70
     1
102
RTVSPropertyOp27
 70
     1
102
RTVSPropertyOp28
 70
     1
102
RTVSPropertyOp29
 70
     1
102
RTVSPropertyOp30
 70
     1
102
RTVSPropertyOp31
 70
     1
102
RTVSPropertyOp32
 70
     1
  0
XRECORD
  5
FD
102
{ACAD_REACTORS
330
FC
102
}
330
FC
100
AcDbXrecord
280
     1
102
RTVSPropertyOp0
 70
     1
102
RTVSPropertyOp1
 70
     1
102
RTVSPropertyOp2
 70
     1
102
RTVSPropertyOp3
 70
     1
102
RTVSPropertyOp4
 70
     1
102
RTVSPropertyOp5
 70
     1
102
RTVSPropertyOp6
 70
     1
102
RTVSPropertyOp7
 70
     1
102
RTVSPropertyOp8
 70
     1
102
RTVSPropertyOp9
 70
     1
102
RTVSPropertyOp10
 70
     1
102
RTVSPropertyOp11
 70
     1
102
RTVSPropertyOp12
 70
     1
102
RTVSPropertyOp13
 70
     1
102
RTVSPropertyOp14
 70
     1
102
RTVSPropertyOp15
 70
     1
102
RTVSPropertyOp16
 70
     1
102
RTVSPropertyOp17
 70
     1
102
RTVSPropertyOp18
 70
     1
102
RTVSPropertyOp19
 70
     1
102
RTVSPropertyOp20
 70
     1
102
RTVSPropertyOp21
 70
     1
102
RTVSPropertyOp22
 70
     1
102
RTVSPropertyOp23
 70
     1
102
RTVSPropertyOp24
 70
     1
102
RTVSPropertyOp25
 70
     1
102
RTVSPropertyOp26
 70
     1
102
RTVSPropertyOp27
 70
     1
102
RTVSPropertyOp28
 70
     1
102
RTVSPropertyOp29
 70
     1
102
RTVSPropertyOp30
 70
     1
102
RTVSPropertyOp31
 70
     1
102
RTVSPropertyOp32
 70
     1
  0
XRECORD
  5
101
102
{ACAD_REACTORS
330
100
102
}
330
100
100
AcDbXrecord
280
     1
102
RTVSPropertyOp0
 70
     1
102
RTVSPropertyOp1
 70
     1
102
RTVSPropertyOp2
 70
     1
102
RTVSPropertyOp3
 70
     1
102
RTVSPropertyOp4
 70
     1
102
RTVSPropertyOp5
 70
     1
102
RTVSPropertyOp6
 70
     1
102
RTVSPropertyOp7
 70
     1
102
RTVSPropertyOp8
 70
     1
102
RTVSPropertyOp9
 70
     1
102
RTVSPropertyOp10
 70
     1
102
RTVSPropertyOp11
 70
     1
102
RTVSPropertyOp12
 70
     1
102
RTVSPropertyOp13
 70
     1
102
RTVSPropertyOp14
 70
     1
102
RTVSPropertyOp15
 70
     1
102
RTVSPropertyOp16
 70
     1
102
RTVSPropertyOp17
 70
     1
102
RTVSPropertyOp18
 70
     1
102
RTVSPropertyOp19
 70
     1
102
RTVSPropertyOp20
 70
     1
102
RTVSPropertyOp21
 70
     1
102
RTVSPropertyOp22
 70
     1
102
RTVSPropertyOp23
 70
     1
102
RTVSPropertyOp24
 70
     1
102
RTVSPropertyOp25
 70
     1
102
RTVSPropertyOp26
 70
     1
102
RTVSPropertyOp27
 70
     1
102
RTVSPropertyOp28
 70
     1
102
RTVSPropertyOp29
 70
     1
102
RTVSPropertyOp30
 70
     1
102
RTVSPropertyOp31
 70
     1
102
RTVSPropertyOp32
 70
     1
  0
XRECORD
  5
109
102
{ACAD_REACTORS
330
108
102
}
330
108
100
AcDbXrecord
280
     1
102
RTVSPropertyOp0
 70
     1
102
RTVSPropertyOp1
 70
     1
102
RTVSPropertyOp2
 70
     1
102
RTVSPropertyOp3
 70
     1
102
RTVSPropertyOp4
 70
     1
102
RTVSPropertyOp5
 70
     1
102
RTVSPropertyOp6
 70
     1
102
RTVSPropertyOp7
 70
     1
102
RTVSPropertyOp8
 70
     1
102
RTVSPropertyOp9
 70
     1
102
RTVSPropertyOp10
 70
     1
102
RTVSPropertyOp11
 70
     1
102
RTVSPropertyOp12
 70
     1
102
RTVSPropertyOp13
 70
     1
102
RTVSPropertyOp14
 70
     1
102
RTVSPropertyOp15
 70
     1
102
RTVSPropertyOp16
 70
     1
102
RTVSPropertyOp17
 70
     1
102
RTVSPropertyOp18
 70
     1
102
RTVSPropertyOp19
 70
     1
102
RTVSPropertyOp20
 70
     1
102
RTVSPropertyOp21
 70
     1
102
RTVSPropertyOp22
 70
     1
102
RTVSPropertyOp23
 70
     1
102
RTVSPropertyOp24
 70
     1
102
RTVSPropertyOp25
 70
     1
102
RTVSPropertyOp26
 70
     1
102
RTVSPropertyOp27
 70
     1
102
RTVSPropertyOp28
 70
     1
102
RTVSPropertyOp29
 70
     1
102
RTVSPropertyOp30
 70
     1
102
RTVSPropertyOp31
 70
     1
102
RTVSPropertyOp32
 70
     1
  0
XRECORD
  5
111
102
{ACAD_REACTORS
330
110
102
}
330
110
100
AcDbXrecord
280
     1
102
RTVSPropertyOp0
 70
     1
102
RTVSPropertyOp1
 70
     1
102
RTVSPropertyOp2
 70
     1
102
RTVSPropertyOp3
 70
     1
102
RTVSPropertyOp4
 70
     1
102
RTVSPropertyOp5
 70
     1
102
RTVSPropertyOp6
 70
     1
102
RTVSPropertyOp7
 70
     1
102
RTVSPropertyOp8
 70
     1
102
RTVSPropertyOp9
 70
     1
102
RTVSPropertyOp10
 70
     1
102
RTVSPropertyOp11
 70
     1
102
RTVSPropertyOp12
 70
     1
102
RTVSPropertyOp13
 70
     1
102
RTVSPropertyOp14
 70
     1
102
RTVSPropertyOp15
 70
     1
102
RTVSPropertyOp16
 70
     1
102
RTVSPropertyOp17
 70
     1
102
RTVSPropertyOp18
 70
     1
102
RTVSPropertyOp19
 70
     1
102
RTVSPropertyOp20
 70
     1
102
RTVSPropertyOp21
 70
     1
102
RTVSPropertyOp22
 70
     1
102
RTVSPropertyOp23
 70
     1
102
RTVSPropertyOp24
 70
     1
102
RTVSPropertyOp25
 70
     1
102
RTVSPropertyOp26
 70
     1
102
RTVSPropertyOp27
 70
     1
102
RTVSPropertyOp28
 70
     1
102
RTVSPropertyOp29
 70
     1
102
RTVSPropertyOp30
 70
     1
102
RTVSPropertyOp31
 70
     1
102
RTVSPropertyOp32
 70
     1
  0
XRECORD
  5
105
102
{ACAD_REACTORS
330
104
102
}
330
104
100
AcDbXrecord
280
     1
102
RTVSPropertyOp0
 70
     1
102
RTVSPropertyOp1
 70
     1
102
RTVSPropertyOp2
 70
     1
102
RTVSPropertyOp3
 70
     1
102
RTVSPropertyOp4
 70
     1
102
RTVSPropertyOp5
 70
     1
102
RTVSPropertyOp6
 70
     1
102
RTVSPropertyOp7
 70
     1
102
RTVSPropertyOp8
 70
     1
102
RTVSPropertyOp9
 70
     1
102
RTVSPropertyOp10
 70
     1
102
RTVSPropertyOp11
 70
     1
102
RTVSPropertyOp12
 70
     1
102
RTVSPropertyOp13
 70
     1
102
RTVSPropertyOp14
 70
     1
102
RTVSPropertyOp15
 70
     1
102
RTVSPropertyOp16
 70
     1
102
RTVSPropertyOp17
 70
     1
102
RTVSPropertyOp18
 70
     1
102
RTVSPropertyOp19
 70
     1
102
RTVSPropertyOp20
 70
     1
102
RTVSPropertyOp21
 70
     1
102
RTVSPropertyOp22
 70
     1
102
RTVSPropertyOp23
 70
     1
102
RTVSPropertyOp24
 70
     1
102
RTVSPropertyOp25
 70
     1
102
RTVSPropertyOp26
 70
     1
102
RTVSPropertyOp27
 70
     1
102
RTVSPropertyOp28
 70
     1
102
RTVSPropertyOp29
 70
     1
102
RTVSPropertyOp30
 70
     1
102
RTVSPropertyOp31
 70
     1
102
RTVSPropertyOp32
 70
     1
  0
XRECORD
  5
107
102
{ACAD_REACTORS
330
106
102
}
330
106
100
AcDbXrecord
280
     1
102
RTVSPropertyOp0
 70
     1
102
RTVSPropertyOp1
 70
     1
102
RTVSPropertyOp2
 70
     1
102
RTVSPropertyOp3
 70
     1
102
RTVSPropertyOp4
 70
     1
102
RTVSPropertyOp5
 70
     1
102
RTVSPropertyOp6
 70
     1
102
RTVSPropertyOp7
 70
     1
102
RTVSPropertyOp8
 70
     1
102
RTVSPropertyOp9
 70
     1
102
RTVSPropertyOp10
 70
     1
102
RTVSPropertyOp11
 70
     1
102
RTVSPropertyOp12
 70
     1
102
RTVSPropertyOp13
 70
     1
102
RTVSPropertyOp14
 70
     1
102
RTVSPropertyOp15
 70
     1
102
RTVSPropertyOp16
 70
     1
102
RTVSPropertyOp17
 70
     1
102
RTVSPropertyOp18
 70
     1
102
RTVSPropertyOp19
 70
     1
102
RTVSPropertyOp20
 70
     1
102
RTVSPropertyOp21
 70
     1
102
RTVSPropertyOp22
 70
     1
102
RTVSPropertyOp23
 70
     1
102
RTVSPropertyOp24
 70
     1
102
RTVSPropertyOp25
 70
     1
102
RTVSPropertyOp26
 70
     1
102
RTVSPropertyOp27
 70
     1
102
RTVSPropertyOp28
 70
     1
102
RTVSPropertyOp29
 70
     1
102
RTVSPropertyOp30
 70
     1
102
RTVSPropertyOp31
 70
     1
102
RTVSPropertyOp32
 70
     1
  0
XRECORD
  5
10F
102
{ACAD_REACTORS
330
10E
102
}
330
10E
100
AcDbXrecord
280
     1
102
RTVSPropertyOp0
 70
     1
102
RTVSPropertyOp1
 70
     1
102
RTVSPropertyOp2
 70
     1
102
RTVSPropertyOp3
 70
     1
102
RTVSPropertyOp4
 70
     1
102
RTVSPropertyOp5
 70
     1
102
RTVSPropertyOp6
 70
     1
102
RTVSPropertyOp7
 70
     1
102
RTVSPropertyOp8
 70
     1
102
RTVSPropertyOp9
 70
     1
102
RTVSPropertyOp10
 70
     1
102
RTVSPropertyOp11
 70
     1
102
RTVSPropertyOp12
 70
     1
102
RTVSPropertyOp13
 70
     1
102
RTVSPropertyOp14
 70
     1
102
RTVSPropertyOp15
 70
     1
102
RTVSPropertyOp16
 70
     1
102
RTVSPropertyOp17
 70
     1
102
RTVSPropertyOp18
 70
     1
102
RTVSPropertyOp19
 70
     1
102
RTVSPropertyOp20
 70
     1
102
RTVSPropertyOp21
 70
     1
102
RTVSPropertyOp22
 70
     1
102
RTVSPropertyOp23
 70
     1
102
RTVSPropertyOp24
 70
     1
102
RTVSPropertyOp25
 70
     1
102
RTVSPropertyOp26
 70
     1
102
RTVSPropertyOp27
 70
     1
102
RTVSPropertyOp28
 70
     1
102
RTVSPropertyOp29
 70
     1
102
RTVSPropertyOp30
 70
     1
102
RTVSPropertyOp31
 70
     1
102
RTVSPropertyOp32
 70
     1
  0
XRECORD
  5
F3
102
{ACAD_REACTORS
330
F2
102
}
330
F2
100
AcDbXrecord
280
     1
102
RTVSPropertyOp0
 70
     1
102
RTVSPropertyOp1
 70
     1
102
RTVSPropertyOp2
 70
     1
102
RTVSPropertyOp3
 70
     1
102
RTVSPropertyOp4
 70
     1
102
RTVSPropertyOp5
 70
     1
102
RTVSPropertyOp6
 70
     1
102
RTVSPropertyOp7
 70
     1
102
RTVSPropertyOp8
 70
     1
102
RTVSPropertyOp9
 70
     1
102
RTVSPropertyOp10
 70
     1
102
RTVSPropertyOp11
 70
     1
102
RTVSPropertyOp12
 70
     1
102
RTVSPropertyOp13
 70
     1
102
RTVSPropertyOp14
 70
     1
102
RTVSPropertyOp15
 70
     1
102
RTVSPropertyOp16
 70
     1
102
RTVSPropertyOp17
 70
     1
102
RTVSPropertyOp18
 70
     1
102
RTVSPropertyOp19
 70
     1
102
RTVSPropertyOp20
 70
     1
102
RTVSPropertyOp21
 70
     1
102
RTVSPropertyOp22
 70
     1
102
RTVSPropertyOp23
 70
     1
102
RTVSPropertyOp24
 70
     1
102
RTVSPropertyOp25
 70
     1
102
RTVSPropertyOp26
 70
     1
102
RTVSPropertyOp27
 70
     1
102
RTVSPropertyOp28
 70
     1
102
RTVSPropertyOp29
 70
     1
102
RTVSPropertyOp30
 70
     1
102
RTVSPropertyOp31
 70
     1
102
RTVSPropertyOp32
 70
     1
  0
XRECORD
  5
F5
102
{ACAD_REACTORS
330
F4
102
}
330
F4
100
AcDbXrecord
280
     1
102
RTVSPropertyOp0
 70
     1
102
RTVSPropertyOp1
 70
     1
102
RTVSPropertyOp2
 70
     1
102
RTVSPropertyOp3
 70
     1
102
RTVSPropertyOp4
 70
     1
102
RTVSPropertyOp5
 70
     1
102
RTVSPropertyOp6
 70
     1
102
RTVSPropertyOp7
 70
     1
102
RTVSPropertyOp8
 70
     1
102
RTVSPropertyOp9
 70
     1
102
RTVSPropertyOp10
 70
     1
102
RTVSPropertyOp11
 70
     1
102
RTVSPropertyOp12
 70
     1
102
RTVSPropertyOp13
 70
     1
102
RTVSPropertyOp14
 70
     1
102
RTVSPropertyOp15
 70
     1
102
RTVSPropertyOp16
 70
     1
102
RTVSPropertyOp17
 70
     1
102
RTVSPropertyOp18
 70
     1
102
RTVSPropertyOp19
 70
     1
102
RTVSPropertyOp20
 70
     1
102
RTVSPropertyOp21
 70
     1
102
RTVSPropertyOp22
 70
     1
102
RTVSPropertyOp23
 70
     1
102
RTVSPropertyOp24
 70
     1
102
RTVSPropertyOp25
 70
     1
102
RTVSPropertyOp26
 70
     1
102
RTVSPropertyOp27
 70
     1
102
RTVSPropertyOp28
 70
     1
102
RTVSPropertyOp29
 70
     1
102
RTVSPropertyOp30
 70
     1
102
RTVSPropertyOp31
 70
     1
102
RTVSPropertyOp32
 70
     1
  0
XRECORD
  5
F7
102
{ACAD_REACTORS
330
F6
102
}
330
F6
100
AcDbXrecord
280
     1
102
RTVSPropertyOp0
 70
     1
102
RTVSPropertyOp1
 70
     1
102
RTVSPropertyOp2
 70
     1
102
RTVSPropertyOp3
 70
     1
102
RTVSPropertyOp4
 70
     1
102
RTVSPropertyOp5
 70
     1
102
RTVSPropertyOp6
 70
     1
102
RTVSPropertyOp7
 70
     1
102
RTVSPropertyOp8
 70
     1
102
RTVSPropertyOp9
 70
     1
102
RTVSPropertyOp10
 70
     1
102
RTVSPropertyOp11
 70
     1
102
RTVSPropertyOp12
 70
     1
102
RTVSPropertyOp13
 70
     1
102
RTVSPropertyOp14
 70
     1
102
RTVSPropertyOp15
 70
     1
102
RTVSPropertyOp16
 70
     1
102
RTVSPropertyOp17
 70
     1
102
RTVSPropertyOp18
 70
     1
102
RTVSPropertyOp19
 70
     1
102
RTVSPropertyOp20
 70
     1
102
RTVSPropertyOp21
 70
     1
102
RTVSPropertyOp22
 70
     1
102
RTVSPropertyOp23
 70
     1
102
RTVSPropertyOp24
 70
     1
102
RTVSPropertyOp25
 70
     1
102
RTVSPropertyOp26
 70
     1
102
RTVSPropertyOp27
 70
     1
102
RTVSPropertyOp28
 70
     1
102
RTVSPropertyOp29
 70
     1
102
RTVSPropertyOp30
 70
     1
102
RTVSPropertyOp31
 70
     1
102
RTVSPropertyOp32
 70
     1
  0
XRECORD
  5
F9
102
{ACAD_REACTORS
330
F8
102
}
330
F8
100
AcDbXrecord
280
     1
102
RTVSPropertyOp0
 70
     1
102
RTVSPropertyOp1
 70
     1
102
RTVSPropertyOp2
 70
     1
102
RTVSPropertyOp3
 70
     1
102
RTVSPropertyOp4
 70
     1
102
RTVSPropertyOp5
 70
     1
102
RTVSPropertyOp6
 70
     1
102
RTVSPropertyOp7
 70
     1
102
RTVSPropertyOp8
 70
     1
102
RTVSPropertyOp9
 70
     1
102
RTVSPropertyOp10
 70
     1
102
RTVSPropertyOp11
 70
     1
102
RTVSPropertyOp12
 70
     1
102
RTVSPropertyOp13
 70
     1
102
RTVSPropertyOp14
 70
     1
102
RTVSPropertyOp15
 70
     1
102
RTVSPropertyOp16
 70
     1
102
RTVSPropertyOp17
 70
     1
102
RTVSPropertyOp18
 70
     1
102
RTVSPropertyOp19
 70
     1
102
RTVSPropertyOp20
 70
     1
102
RTVSPropertyOp21
 70
     1
102
RTVSPropertyOp22
 70
     1
102
RTVSPropertyOp23
 70
     1
102
RTVSPropertyOp24
 70
     1
102
RTVSPropertyOp25
 70
     1
102
RTVSPropertyOp26
 70
     1
102
RTVSPropertyOp27
 70
     1
102
RTVSPropertyOp28
 70
     1
102
RTVSPropertyOp29
 70
     1
102
RTVSPropertyOp30
 70
     1
102
RTVSPropertyOp31
 70
     1
102
RTVSPropertyOp32
 70
     1
  0
XRECORD
  5
10D
102
{ACAD_REACTORS
330
10C
102
}
330
10C
100
AcDbXrecord
280
     1
102
RTVSPropertyOp0
 70
     1
102
RTVSPropertyOp1
 70
     1
102
RTVSPropertyOp2
 70
     1
102
RTVSPropertyOp3
 70
     1
102
RTVSPropertyOp4
 70
     1
102
RTVSPropertyOp5
 70
     1
102
RTVSPropertyOp6
 70
     1
102
RTVSPropertyOp7
 70
     1
102
RTVSPropertyOp8
 70
     1
102
RTVSPropertyOp9
 70
     1
102
RTVSPropertyOp10
 70
     1
102
RTVSPropertyOp11
 70
     1
102
RTVSPropertyOp12
 70
     1
102
RTVSPropertyOp13
 70
     1
102
RTVSPropertyOp14
 70
     1
102
RTVSPropertyOp15
 70
     1
102
RTVSPropertyOp16
 70
     1
102
RTVSPropertyOp17
 70
     1
102
RTVSPropertyOp18
 70
     1
102
RTVSPropertyOp19
 70
     1
102
RTVSPropertyOp20
 70
     1
102
RTVSPropertyOp21
 70
     1
102
RTVSPropertyOp22
 70
     1
102
RTVSPropertyOp23
 70
     1
102
RTVSPropertyOp24
 70
     1
102
RTVSPropertyOp25
 70
     1
102
RTVSPropertyOp26
 70
     1
102
RTVSPropertyOp27
 70
     1
102
RTVSPropertyOp28
 70
     1
102
RTVSPropertyOp29
 70
     1
102
RTVSPropertyOp30
 70
     1
102
RTVSPropertyOp31
 70
     1
102
RTVSPropertyOp32
 70
     1
  0
XRECORD
  5
103
102
{ACAD_REACTORS
330
102
102
}
330
102
100
AcDbXrecord
280
     1
102
RTVSPropertyOp0
 70
     1
102
RTVSPropertyOp1
 70
     1
102
RTVSPropertyOp2
 70
     1
102
RTVSPropertyOp3
 70
     1
102
RTVSPropertyOp4
 70
     1
102
RTVSPropertyOp5
 70
     1
102
RTVSPropertyOp6
 70
     1
102
RTVSPropertyOp7
 70
     1
102
RTVSPropertyOp8
 70
     1
102
RTVSPropertyOp9
 70
     1
102
RTVSPropertyOp10
 70
     1
102
RTVSPropertyOp11
 70
     1
102
RTVSPropertyOp12
 70
     1
102
RTVSPropertyOp13
 70
     1
102
RTVSPropertyOp14
 70
     1
102
RTVSPropertyOp15
 70
     1
102
RTVSPropertyOp16
 70
     1
102
RTVSPropertyOp17
 70
     1
102
RTVSPropertyOp18
 70
     1
102
RTVSPropertyOp19
 70
     1
102
RTVSPropertyOp20
 70
     1
102
RTVSPropertyOp21
 70
     1
102
RTVSPropertyOp22
 70
     1
102
RTVSPropertyOp23
 70
     1
102
RTVSPropertyOp24
 70
     1
102
RTVSPropertyOp25
 70
     1
102
RTVSPropertyOp26
 70
     1
102
RTVSPropertyOp27
 70
     1
102
RTVSPropertyOp28
 70
     1
102
RTVSPropertyOp29
 70
     1
102
RTVSPropertyOp30
 70
     1
102
RTVSPropertyOp31
 70
     1
102
RTVSPropertyOp32
 70
     1
  0
XRECORD
  5
10B
102
{ACAD_REACTORS
330
10A
102
}
330
10A
100
AcDbXrecord
280
     1
102
RTVSPropertyOp0
 70
     1
102
RTVSPropertyOp1
 70
     1
102
RTVSPropertyOp2
 70
     1
102
RTVSPropertyOp3
 70
     1
102
RTVSPropertyOp4
 70
     1
102
RTVSPropertyOp5
 70
     1
102
RTVSPropertyOp6
 70
     1
102
RTVSPropertyOp7
 70
     1
102
RTVSPropertyOp8
 70
     1
102
RTVSPropertyOp9
 70
     1
102
RTVSPropertyOp10
 70
     1
102
RTVSPropertyOp11
 70
     1
102
RTVSPropertyOp12
 70
     1
102
RTVSPropertyOp13
 70
     1
102
RTVSPropertyOp14
 70
     1
102
RTVSPropertyOp15
 70
     1
102
RTVSPropertyOp16
 70
     1
102
RTVSPropertyOp17
 70
     1
102
RTVSPropertyOp18
 70
     1
102
RTVSPropertyOp19
 70
     1
102
RTVSPropertyOp20
 70
     1
102
RTVSPropertyOp21
 70
     1
102
RTVSPropertyOp22
 70
     1
102
RTVSPropertyOp23
 70
     1
102
RTVSPropertyOp24
 70
     1
102
RTVSPropertyOp25
 70
     1
102
RTVSPropertyOp26
 70
     1
102
RTVSPropertyOp27
 70
     1
102
RTVSPropertyOp28
 70
     1
102
RTVSPropertyOp29
 70
     1
102
RTVSPropertyOp30
 70
     1
102
RTVSPropertyOp31
 70
     1
102
RTVSPropertyOp32
 70
     1
  0
ENDSEC
  0
EOF
