999
dxflib 2.0.4.8
  0
SECTION
  2
HEADER
  9
$ACADVER
  1
AC1015
  9
$HANDSEED
  5
FFFF
  9
$DIMASZ
 40
2.5
  9
$DIMGAP
 40
0.625
  9
$INSUNITS
 70
4
  9
$DIMEXO
 40
0.625
  9
$DIMTXT
 40
2.5
  9
$DIMSTYLE
  2
Standard
  9
$PLIMMIN
 10
0.0
 20
0.0
  9
$PLIMMAX
 10
210.0
 20
297.0
  9
$DIMEXE
 40
1.25
  0
ENDSEC
  0
SECTION
  2
TABLES
  0
TABLE
  2
VPORT
  5
8
100
AcDbSymbolTable
 70
1
  0
VPORT
  5
30
100
AcDbSymbolTableRecord
100
AcDbViewportTableRecord
  2
*Active
 70
0
 10
0.0
 20
0.0
 11
1.0
 21
1.0
 12
286.30555555555549
 22
148.5
 13
0.0
 23
0.0
 14
10.0
 24
10.0
 15
10.0
 25
10.0
 16
0.0
 26
0.0
 36
1.0
 17
0.0
 27
0.0
 37
0.0
 40
297.0
 41
1.92798353909465
 42
50.0
 43
0.0
 44
0.0
 50
0.0
 51
0.0
 71
0
 72
100
 73
1
 74
3
 75
1
 76
1
 77
0
 78
0
281
0
 65
1
110
0.0
120
0.0
130
0.0
111
1.0
121
0.0
131
0.0
112
0.0
122
1.0
132
0.0
 79
0
146
0.0
  0
ENDTAB
  0
TABLE
  2
LTYPE
  5
5
100
AcDbSymbolTable
 70
21
  0
LTYPE
  5
14
100
AcDbSymbolTableRecord
100
AcDbLinetypeTableRecord
  2
ByBlock
 70
0
  3

 72
65
 73
0
 40
0.0
  0
LTYPE
  5
15
100
AcDbSymbolTableRecord
100
AcDbLinetypeTableRecord
  2
ByLayer
 70
0
  3

 72
65
 73
0
 40
0.0
  0
LTYPE
  5
16
100
AcDbSymbolTableRecord
100
AcDbLinetypeTableRecord
  2
CONTINUOUS
 70
0
  3
Solid line
 72
65
 73
0
 40
0.0
  0
LTYPE
  5
31
100
AcDbSymbolTableRecord
100
AcDbLinetypeTableRecord
  2
DOT
 70
0
  3
Dot . . . . . . . . . . . . . . . . . . . . . .
 72
65
 73
2
 40
6.3499999999999996
 49
0.0
 74
0
 49
-6.3499999999999996
 74
0
  0
LTYPE
  5
32
100
AcDbSymbolTableRecord
100
AcDbLinetypeTableRecord
  2
DOT2
 70
0
  3
Dot (.5x) .....................................
 72
65
 73
2
 40
3.1749999999999998
 49
0.0
 74
0
 49
-3.1749999999999998
 74
0
  0
LTYPE
  5
33
100
AcDbSymbolTableRecord
100
AcDbLinetypeTableRecord
  2
DOTX2
 70
0
  3
Dot (2x) .  .  .  .  .  .  .  .  .  .  .  .  .
 72
65
 73
2
 40
12.699999999999999
 49
0.0
 74
0
 49
-12.699999999999999
 74
0
  0
LTYPE
  5
34
100
AcDbSymbolTableRecord
100
AcDbLinetypeTableRecord
  2
DASHED
 70
0
  3
Dashed __ __ __ __ __ __ __ __ __ __ __ __ __ _
 72
65
 73
2
 40
19.050000000000001
 49
12.699999999999999
 74
0
 49
-6.3499999999999996
 74
0
  0
LTYPE
  5
35
100
AcDbSymbolTableRecord
100
AcDbLinetypeTableRecord
  2
DASHED2
 70
0
  3
Dashed (.5x) _ _ _ _ _ _ _ _ _ _ _ _ _ _ _ _ _
 72
65
 73
2
 40
9.5250000000000004
 49
6.3499999999999996
 74
0
 49
-3.1749999999999998
 74
0
  0
LTYPE
  5
36
100
AcDbSymbolTableRecord
100
AcDbLinetypeTableRecord
  2
DASHEDX2
 70
0
  3
Dashed (2x) ____  ____  ____  ____  ____  ___
 72
65
 73
2
 40
38.100000000000001
 49
25.399999999999999
 74
0
 49
-12.699999999999999
 74
0
  0
LTYPE
  5
37
100
AcDbSymbolTableRecord
100
AcDbLinetypeTableRecord
  2
DASHDOT
 70
0
  3
Dash dot __ . __ . __ . __ . __ . __ . __ . __
 72
65
 73
4
 40
25.399999999999999
 49
12.699999999999999
 74
0
 49
-6.3499999999999996
 74
0
 49
0.0
 74
0
 49
-6.3499999999999996
 74
0
  0
LTYPE
  5
38
100
AcDbSymbolTableRecord
100
AcDbLinetypeTableRecord
  2
DASHDOT2
 70
0
  3
Dash dot (.5x) _._._._._._._._._._._._._._._.
 72
65
 73
4
 40
12.699999999999999
 49
6.3499999999999996
 74
0
 49
-3.1749999999999998
 74
0
 49
0.0
 74
0
 49
-3.1749999999999998
 74
0
  0
LTYPE
  5
39
100
AcDbSymbolTableRecord
100
AcDbLinetypeTableRecord
  2
DASHDOTX2
 70
0
  3
Dash dot (2x) ____  .  ____  .  ____  .  ___
 72
65
 73
4
 40
50.799999999999997
 49
25.399999999999999
 74
0
 49
-12.699999999999999
 74
0
 49
0.0
 74
0
 49
-12.699999999999999
 74
0
  0
LTYPE
  5
3A
100
AcDbSymbolTableRecord
100
AcDbLinetypeTableRecord
  2
DIVIDE
 70
0
  3
Divide ____ . . ____ . . ____ . . ____ . . ____
 72
65
 73
6
 40
31.75
 49
12.699999999999999
 74
0
 49
-6.3499999999999996
 74
0
 49
0.0
 74
0
 49
-6.3499999999999996
 74
0
 49
0.0
 74
0
 49
-6.3499999999999996
 74
0
  0
LTYPE
  5
3B
100
AcDbSymbolTableRecord
100
AcDbLinetypeTableRecord
  2
DIVIDE2
 70
0
  3
Divide (.5x) __..__..__..__..__..__..__..__.._
 72
65
 73
6
 40
15.875
 49
6.3499999999999996
 74
0
 49
-3.1749999999999998
 74
0
 49
0.0
 74
0
 49
-3.1749999999999998
 74
0
 49
0.0
 74
0
 49
-3.1749999999999998
 74
0
  0
LTYPE
  5
3C
100
AcDbSymbolTableRecord
100
AcDbLinetypeTableRecord
  2
DIVIDEX2
 70
0
  3
Divide (2x) ________  .  .  ________  .  .  _
 72
65
 73
6
 40
63.5
 49
25.399999999999999
 74
0
 49
-12.699999999999999
 74
0
 49
0.0
 74
0
 49
-12.699999999999999
 74
0
 49
0.0
 74
0
 49
-12.699999999999999
 74
0
  0
LTYPE
  5
3D
100
AcDbSymbolTableRecord
100
AcDbLinetypeTableRecord
  2
CENTER
 70
0
  3
Center ____ _ ____ _ ____ _ ____ _ ____ _ ____
 72
65
 73
4
 40
50.799999999999997
 49
31.75
 74
0
 49
-6.3499999999999996
 74
0
 49
6.3499999999999996
 74
0
 49
-6.3499999999999996
 74
0
  0
LTYPE
  5
3E
100
AcDbSymbolTableRecord
100
AcDbLinetypeTableRecord
  2
CENTER2
 70
0
  3
Center (.5x) ___ _ ___ _ ___ _ ___ _ ___ _ ___
 72
65
 73
4
 40
28.574999999999999
 49
19.050000000000001
 74
0
 49
-3.1749999999999998
 74
0
 49
3.1749999999999998
 74
0
 49
-3.1749999999999998
 74
0
  0
LTYPE
  5
3F
100
AcDbSymbolTableRecord
100
AcDbLinetypeTableRecord
  2
CENTERX2
 70
0
  3
Center (2x) ________  __  ________  __  _____
 72
65
 73
4
 40
101.59999999999999
 49
63.5
 74
0
 49
-12.699999999999999
 74
0
 49
12.699999999999999
 74
0
 49
-12.699999999999999
 74
0
  0
LTYPE
  5
40
100
AcDbSymbolTableRecord
100
AcDbLinetypeTableRecord
  2
BORDER
 70
0
  3
Border __ __ . __ __ . __ __ . __ __ . __ __ .
 72
65
 73
6
 40
44.450000000000003
 49
12.699999999999999
 74
0
 49
-6.3499999999999996
 74
0
 49
12.699999999999999
 74
0
 49
-6.3499999999999996
 74
0
 49
0.0
 74
0
 49
-6.3499999999999996
 74
0
  0
LTYPE
  5
41
100
AcDbSymbolTableRecord
100
AcDbLinetypeTableRecord
  2
BORDER2
 70
0
  3
Border (.5x) __.__.__.__.__.__.__.__.__.__.__.
 72
65
 73
6
 40
22.225000000000001
 49
6.3499999999999996
 74
0
 49
-3.1749999999999998
 74
0
 49
6.3499999999999996
 74
0
 49
-3.1749999999999998
 74
0
 49
0.0
 74
0
 49
-3.1749999999999998
 74
0
  0
LTYPE
  5
42
100
AcDbSymbolTableRecord
100
AcDbLinetypeTableRecord
  2
BORDERX2
 70
0
  3
Border (2x) ____  ____  .  ____  ____  .  ___
 72
65
 73
6
 40
88.900000000000006
 49
25.399999999999999
 74
0
 49
-12.699999999999999
 74
0
 49
25.399999999999999
 74
0
 49
-12.699999999999999
 74
0
 49
0.0
 74
0
 49
-12.699999999999999
 74
0
  0
ENDTAB
  0
TABLE
  2
LAYER
  5
2
100
AcDbSymbolTable
 70
3
  0
LAYER
  5
10
100
AcDbSymbolTableRecord
100
AcDbLayerTableRecord
  2
0
 70
0
 62
7
  6
CONTINUOUS
370
0
390
F
  0
LAYER
  5
43
100
AcDbSymbolTableRecord
100
AcDbLayerTableRecord
  2
Layer 1
 70
0
 62
7
  6
CONTINUOUS
370
-3
390
F
  0
LAYER
  5
44
100
AcDbSymbolTableRecord
100
AcDbLayerTableRecord
  2
Laag 1
 70
0
 62
7
  6
CONTINUOUS
370
-3
390
F
  0
ENDTAB
  0
TABLE
  2
STYLE
  5
3
100
AcDbSymbolTable
 70
1
  0
STYLE
  5
11
100
AcDbSymbolTableRecord
100
AcDbTextStyleTableRecord
  2
Standard
 70
0
 40
0.0
 41
0.75
 50
0.0
 71
0
 42
2.5
  3
txt
  4

  0
ENDTAB
  0
TABLE
  2
VIEW
  5
6
100
AcDbSymbolTable
 70
0
  0
ENDTAB
  0
TABLE
  2
UCS
  5
7
100
AcDbSymbolTable
 70
0
  0
ENDTAB
  0
TABLE
  2
APPID
  5
9
100
AcDbSymbolTable
 70
1
  0
APPID
  5
12
100
AcDbSymbolTableRecord
100
AcDbRegAppTableRecord
  2
ACAD
 70
0
  0
ENDTAB
  0
TABLE
  2
DIMSTYLE
  5
A
100
AcDbSymbolTable
 70
1
100
AcDbDimStyleTable
 71
0
  0
DIMSTYLE
105
27
100
AcDbSymbolTableRecord
100
AcDbDimStyleTableRecord
  2
Standard
 41
2.5
 42
0.625
 43
3.75
 44
1.25
 70
0
 73
0
 74
0
 77
1
 78
8
140
2.5
141
2.5
143
0.03937007874016
147
0.625
171
3
172
1
271
2
272
2
274
3
278
44
283
0
284
8
340
11
  0
ENDTAB
  0
TABLE
  2
BLOCK_RECORD
  5
1
100
AcDbSymbolTable
 70
1
  0
BLOCK_RECORD
  5
1F
100
AcDbSymbolTableRecord
100
AcDbBlockTableRecord
  2
*Model_Space
340
22
  0
BLOCK_RECORD
  5
1B
100
AcDbSymbolTableRecord
100
AcDbBlockTableRecord
  2
*Paper_Space
340
1E
  0
BLOCK_RECORD
  5
23
100
AcDbSymbolTableRecord
100
AcDbBlockTableRecord
  2
*Paper_Space0
340
26
  0
ENDTAB
  0
ENDSEC
  0
SECTION
  2
BLOCKS
  0
BLOCK
  5
20
100
AcDbEntity
  8
0
100
AcDbBlockBegin
  2
*Model_Space
 70
0
 10
0.0
 20
0.0
 30
0.0
  3
*Model_Space
  1

  0
ENDBLK
  5
21
100
AcDbEntity
  8
0
100
AcDbBlockEnd
  0
BLOCK
  5
1C
100
AcDbEntity
 67
1
  8
0
100
AcDbBlockBegin
  2
*Paper_Space
 70
0
 10
0.0
 20
0.0
 30
0.0
  3
*Paper_Space
  1

  0
ENDBLK
  5
1D
100
AcDbEntity
 67
1
  8
0
100
AcDbBlockEnd
  0
BLOCK
  5
24
100
AcDbEntity
  8
0
100
AcDbBlockBegin
  2
*Paper_Space0
 70
0
 10
0.0
 20
0.0
 30
0.0
  3
*Paper_Space0
  1

  0
ENDBLK
  5
25
100
AcDbEntity
  8
0
100
AcDbBlockEnd
  0
ENDSEC
  0
SECTION
  2
ENTITIES
  0
LINE
  5
45
100
AcDbEntity
100
AcDbLine
  8
0
 62
256
370
-1
  6
ByLayer
 10
0.0
 20
0.0
 30
0.0
 11
252.0
 21
0.0
 31
0.0
  0
LINE
  5
46
100
AcDbEntity
100
AcDbLine
  8
0
 62
256
370
-1
  6
ByLayer
 10
0.0
 20
627.0
 30
0.0
 11
0.0
 21
0.0
 31
0.0
  0
LINE
  5
47
100
AcDbEntity
100
AcDbLine
  8
0
 62
256
370
-1
  6
ByLayer
 10
252.0
 20
627.0
 30
0.0
 11
0.0
 21
627.0
 31
0.0
  0
LINE
  5
48
100
AcDbEntity
100
AcDbLine
  8
0
 62
256
370
-1
  6
ByLayer
 10
252.0
 20
0.0
 30
0.0
 11
252.0
 21
627.0
 31
0.0
  0
SPLINE
  5
49
  8
Laag 1
 62
250
370
9
  6
ByLayer
100
AcDbEntity
100
AcDbSpline
 70
11
 71
3
 72
8
 73
4
 74
0
 40
0.0
 40
0.0
 40
0.0
 40
0.0
 40
1.0
 40
1.0
 40
1.0
 40
1.0
 10
86.995905405405466
 20
71.374013513513603
 30
0.0
 10
86.995905405405466
 20
71.374013513513603
 30
0.0
 10
86.995905405405466
 20
71.374013513513603
 30
0.0
 10
86.995905405405466
 20
71.374013513513603
 30
0.0
  0
SPLINE
  5
4A
  8
Laag 1
 62
250
370
9
  6
ByLayer
100
AcDbEntity
100
AcDbSpline
 70
8
 71
3
 72
8
 73
4
 74
0
 40
0.0
 40
0.0
 40
0.0
 40
0.0
 40
1.0
 40
1.0
 40
1.0
 40
1.0
 10
79.995905405405438
 20
64.374013513513574
 30
0.0
 10
79.995905405405438
 20
64.374013513513574
 30
0.0
 10
79.995905405405438
 20
64.3739135135136
 30
0.0
 10
79.995905405405438
 20
64.3739135135136
 30
0.0
  0
SPLINE
  5
4B
  8
Laag 1
 62
250
370
9
  6
ByLayer
100
AcDbEntity
100
AcDbSpline
 70
8
 71
3
 72
8
 73
4
 74
0
 40
0.0
 40
0.0
 40
0.0
 40
0.0
 40
1.0
 40
1.0
 40
1.0
 40
1.0
 10
86.99580540540552
 20
57.37401351351361
 30
0.0
 10
86.99580540540552
 20
57.37401351351361
 30
0.0
 10
86.99580540540552
 20
57.373913513513578
 30
0.0
 10
86.99580540540552
 20
57.373913513513578
 30
0.0
  0
SPLINE
  5
4C
  8
Laag 1
 62
250
370
9
  6
ByLayer
100
AcDbEntity
100
AcDbSpline
 70
11
 71
3
 72
8
 73
4
 74
0
 40
0.0
 40
0.0
 40
0.0
 40
0.0
 40
1.0
 40
1.0
 40
1.0
 40
1.0
 10
93.995805405405463
 20
64.374013513513574
 30
0.0
 10
93.995805405405463
 20
64.374013513513574
 30
0.0
 10
93.995805405405463
 20
64.374013513513574
 30
0.0
 10
93.995805405405463
 20
64.374013513513574
 30
0.0
  0
SPLINE
  5
4D
  8
Laag 1
 62
250
370
9
  6
ByLayer
100
AcDbEntity
100
AcDbSpline
 70
11
 71
3
 72
8
 73
4
 74
0
 40
0.0
 40
0.0
 40
0.0
 40
0.0
 40
1.0
 40
1.0
 40
1.0
 40
1.0
 10
86.995905405405466
 20
71.374013513513603
 30
0.0
 10
86.995905405405466
 20
71.374013513513603
 30
0.0
 10
86.995905405405466
 20
71.374013513513603
 30
0.0
 10
86.995905405405466
 20
71.374013513513603
 30
0.0
  0
SPLINE
  5
4E
  8
Laag 1
 62
250
370
9
  6
ByLayer
100
AcDbEntity
100
AcDbSpline
 70
11
 71
3
 72
8
 73
4
 74
0
 40
0.0
 40
0.0
 40
0.0
 40
0.0
 40
1.0
 40
1.0
 40
1.0
 40
1.0
 10
49.567405405405502
 20
116.07501351351354
 30
0.0
 10
49.567405405405502
 20
116.07501351351354
 30
0.0
 10
49.567405405405502
 20
116.07501351351354
 30
0.0
 10
49.567405405405502
 20
116.07501351351354
 30
0.0
  0
SPLINE
  5
4F
  8
Laag 1
 62
250
370
9
  6
ByLayer
100
AcDbEntity
100
AcDbSpline
 70
8
 71
3
 72
8
 73
4
 74
0
 40
0.0
 40
0.0
 40
0.0
 40
0.0
 40
1.0
 40
1.0
 40
1.0
 40
1.0
 10
48.56750540540552
 20
115.0750135135136
 30
0.0
 10
48.56750540540552
 20
115.0750135135136
 30
0.0
 10
48.56750540540552
 20
115.07491351351356
 30
0.0
 10
48.56750540540552
 20
115.07491351351356
 30
0.0
  0
SPLINE
  5
50
  8
Laag 1
 62
250
370
9
  6
ByLayer
100
AcDbEntity
100
AcDbSpline
 70
11
 71
3
 72
8
 73
4
 74
0
 40
0.0
 40
0.0
 40
0.0
 40
0.0
 40
1.0
 40
1.0
 40
1.0
 40
1.0
 10
50.567405405405516
 20
115.0750135135136
 30
0.0
 10
50.567405405405516
 20
115.0750135135136
 30
0.0
 10
50.567405405405516
 20
115.0750135135136
 30
0.0
 10
50.567405405405516
 20
115.0750135135136
 30
0.0
  0
SPLINE
  5
51
  8
Laag 1
 62
250
370
9
  6
ByLayer
100
AcDbEntity
100
AcDbSpline
 70
11
 71
3
 72
8
 73
4
 74
0
 40
0.0
 40
0.0
 40
0.0
 40
0.0
 40
1.0
 40
1.0
 40
1.0
 40
1.0
 10
49.567405405405502
 20
116.07501351351354
 30
0.0
 10
49.567405405405502
 20
116.07501351351354
 30
0.0
 10
49.567405405405502
 20
116.07501351351354
 30
0.0
 10
49.567405405405502
 20
116.07501351351354
 30
0.0
  0
SPLINE
  5
52
  8
Laag 1
 62
250
370
9
  6
ByLayer
100
AcDbEntity
100
AcDbSpline
 70
11
 71
3
 72
8
 73
4
 74
0
 40
0.0
 40
0.0
 40
0.0
 40
0.0
 40
1.0
 40
1.0
 40
1.0
 40
1.0
 10
49.567105405405478
 20
51.199013513513613
 30
0.0
 10
49.567105405405478
 20
51.199013513513613
 30
0.0
 10
49.567105405405478
 20
51.199013513513613
 30
0.0
 10
49.567105405405478
 20
51.199013513513613
 30
0.0
  0
SPLINE
  5
53
  8
Laag 1
 62
250
370
9
  6
ByLayer
100
AcDbEntity
100
AcDbSpline
 70
8
 71
3
 72
8
 73
4
 74
0
 40
0.0
 40
0.0
 40
0.0
 40
0.0
 40
1.0
 40
1.0
 40
1.0
 40
1.0
 10
48.567205405405495
 20
50.199013513513599
 30
0.0
 10
48.567205405405495
 20
50.199013513513599
 30
0.0
 10
48.567205405405495
 20
50.198813513513606
 30
0.0
 10
48.567205405405495
 20
50.198813513513606
 30
0.0
  0
SPLINE
  5
54
  8
Laag 1
 62
250
370
9
  6
ByLayer
100
AcDbEntity
100
AcDbSpline
 70
8
 71
3
 72
8
 73
4
 74
0
 40
0.0
 40
0.0
 40
0.0
 40
0.0
 40
1.0
 40
1.0
 40
1.0
 40
1.0
 10
49.567105405405478
 20
49.199013513513584
 30
0.0
 10
49.567105405405478
 20
49.199013513513584
 30
0.0
 10
49.567105405405478
 20
49.198813513513592
 30
0.0
 10
49.567105405405478
 20
49.198813513513592
 30
0.0
  0
SPLINE
  5
55
  8
Laag 1
 62
250
370
9
  6
ByLayer
100
AcDbEntity
100
AcDbSpline
 70
11
 71
3
 72
8
 73
4
 74
0
 40
0.0
 40
0.0
 40
0.0
 40
0.0
 40
1.0
 40
1.0
 40
1.0
 40
1.0
 10
49.567105405405478
 20
51.199013513513613
 30
0.0
 10
49.567105405405478
 20
51.199013513513613
 30
0.0
 10
49.567105405405478
 20
51.199013513513613
 30
0.0
 10
49.567105405405478
 20
51.199013513513613
 30
0.0
  0
SPLINE
  5
56
  8
Laag 1
 62
250
370
9
  6
ByLayer
100
AcDbEntity
100
AcDbSpline
 70
11
 71
3
 72
8
 73
4
 74
0
 40
0.0
 40
0.0
 40
0.0
 40
0.0
 40
1.0
 40
1.0
 40
1.0
 40
1.0
 10
124.7879054054055
 20
115.99501351351358
 30
0.0
 10
124.7879054054055
 20
115.99501351351358
 30
0.0
 10
124.7879054054055
 20
115.99501351351358
 30
0.0
 10
124.7879054054055
 20
115.99501351351358
 30
0.0
  0
SPLINE
  5
57
  8
Laag 1
 62
250
370
9
  6
ByLayer
100
AcDbEntity
100
AcDbSpline
 70
8
 71
3
 72
8
 73
4
 74
0
 40
0.0
 40
0.0
 40
0.0
 40
0.0
 40
1.0
 40
1.0
 40
1.0
 40
1.0
 10
123.7879054054055
 20
114.99501351351358
 30
0.0
 10
123.7879054054055
 20
114.99501351351358
 30
0.0
 10
123.7879054054055
 20
114.99491351351361
 30
0.0
 10
123.7879054054055
 20
114.99491351351361
 30
0.0
  0
SPLINE
  5
58
  8
Laag 1
 62
250
370
9
  6
ByLayer
100
AcDbEntity
100
AcDbSpline
 70
11
 71
3
 72
8
 73
4
 74
0
 40
0.0
 40
0.0
 40
0.0
 40
0.0
 40
1.0
 40
1.0
 40
1.0
 40
1.0
 10
125.78800540540547
 20
114.99501351351358
 30
0.0
 10
125.78800540540547
 20
114.99501351351358
 30
0.0
 10
125.78800540540547
 20
114.99501351351358
 30
0.0
 10
125.78800540540547
 20
114.99501351351358
 30
0.0
  0
SPLINE
  5
59
  8
Laag 1
 62
250
370
9
  6
ByLayer
100
AcDbEntity
100
AcDbSpline
 70
11
 71
3
 72
8
 73
4
 74
0
 40
0.0
 40
0.0
 40
0.0
 40
0.0
 40
1.0
 40
1.0
 40
1.0
 40
1.0
 10
124.7879054054055
 20
115.99501351351358
 30
0.0
 10
124.7879054054055
 20
115.99501351351358
 30
0.0
 10
124.7879054054055
 20
115.99501351351358
 30
0.0
 10
124.7879054054055
 20
115.99501351351358
 30
0.0
  0
SPLINE
  5
5A
  8
Laag 1
 62
250
370
9
  6
ByLayer
100
AcDbEntity
100
AcDbSpline
 70
11
 71
3
 72
8
 73
4
 74
0
 40
0.0
 40
0.0
 40
0.0
 40
0.0
 40
1.0
 40
1.0
 40
1.0
 40
1.0
 10
124.70880540540549
 20
51.199013513513613
 30
0.0
 10
124.70880540540549
 20
51.199013513513613
 30
0.0
 10
124.70880540540549
 20
51.199013513513613
 30
0.0
 10
124.70880540540549
 20
51.199013513513613
 30
0.0
  0
SPLINE
  5
5B
  8
Laag 1
 62
250
370
9
  6
ByLayer
100
AcDbEntity
100
AcDbSpline
 70
8
 71
3
 72
8
 73
4
 74
0
 40
0.0
 40
0.0
 40
0.0
 40
0.0
 40
1.0
 40
1.0
 40
1.0
 40
1.0
 10
123.70880540540546
 20
50.199013513513599
 30
0.0
 10
123.70880540540546
 20
50.199013513513599
 30
0.0
 10
123.70880540540546
 20
50.198813513513606
 30
0.0
 10
123.70880540540546
 20
50.198813513513606
 30
0.0
  0
SPLINE
  5
5C
  8
Laag 1
 62
250
370
9
  6
ByLayer
100
AcDbEntity
100
AcDbSpline
 70
8
 71
3
 72
8
 73
4
 74
0
 40
0.0
 40
0.0
 40
0.0
 40
0.0
 40
1.0
 40
1.0
 40
1.0
 40
1.0
 10
124.70870540540551
 20
49.199013513513584
 30
0.0
 10
124.70870540540551
 20
49.199013513513584
 30
0.0
 10
124.70870540540551
 20
49.198813513513592
 30
0.0
 10
124.70870540540551
 20
49.198813513513592
 30
0.0
  0
SPLINE
  5
5D
  8
Laag 1
 62
250
370
9
  6
ByLayer
100
AcDbEntity
100
AcDbSpline
 70
11
 71
3
 72
8
 73
4
 74
0
 40
0.0
 40
0.0
 40
0.0
 40
0.0
 40
1.0
 40
1.0
 40
1.0
 40
1.0
 10
125.70900540540549
 20
50.199013513513599
 30
0.0
 10
125.70900540540549
 20
50.199013513513599
 30
0.0
 10
125.70900540540549
 20
50.199013513513599
 30
0.0
 10
125.70900540540549
 20
50.199013513513599
 30
0.0
  0
SPLINE
  5
5E
  8
Laag 1
 62
250
370
9
  6
ByLayer
100
AcDbEntity
100
AcDbSpline
 70
11
 71
3
 72
8
 73
4
 74
0
 40
0.0
 40
0.0
 40
0.0
 40
0.0
 40
1.0
 40
1.0
 40
1.0
 40
1.0
 10
124.70880540540549
 20
51.199013513513613
 30
0.0
 10
124.70880540540549
 20
51.199013513513613
 30
0.0
 10
124.70880540540549
 20
51.199013513513613
 30
0.0
 10
124.70880540540549
 20
51.199013513513613
 30
0.0
  0
SPLINE
  5
5F
  8
Laag 1
 62
256
370
9
  6
ByLayer
100
AcDbEntity
100
AcDbSpline
 70
8
 71
3
 72
36
 73
32
 74
0
 40
0.0
 40
0.0
 40
0.0
 40
0.0
 40
0.0344827586206897
 40
0.0689655172413793
 40
0.103448275862069
 40
0.1379310344827586
 40
0.1724137931034483
 40
0.2068965517241379
 40
0.2413793103448276
 40
0.2758620689655172
 40
0.3103448275862069
 40
0.3448275862068966
 40
0.3793103448275862
 40
0.4137931034482759
 40
0.4482758620689655
 40
0.4827586206896552
 40
0.5172413793103449
 40
0.5517241379310345
 40
0.5862068965517241
 40
0.6206896551724138
 40
0.6551724137931034
 40
0.6896551724137932
 40
0.7241379310344828
 40
0.7586206896551724
 40
0.7931034482758621
 40
0.8275862068965517
 40
0.8620689655172413
 40
0.8965517241379311
 40
0.9310344827586207
 40
0.9655172413793104
 40
1.0
 40
1.0
 40
1.0
 40
1.0
 10
60.454105405405507
 20
78.51201351351358
 30
0.0
 10
60.454105405405507
 20
78.51201351351358
 30
0.0
 10
69.618405405405497
 20
78.51201351351358
 30
0.0
 10
69.618405405405497
 20
78.51201351351358
 30
0.0
 10
69.618405405405497
 20
78.51201351351358
 30
0.0
 10
70.953605405405455
 20
78.512213513513586
 30
0.0
 10
72.036405405405475
 20
77.429413513513566
 30
0.0
 10
72.036405405405475
 20
76.094313513513555
 30
0.0
 10
72.036405405405475
 20
76.094313513513555
 30
0.0
 10
72.036405405405475
 20
76.094313513513555
 30
0.0
 10
72.0363054054055
 20
52.929913513513561
 30
0.0
 10
72.0363054054055
 20
52.929913513513561
 30
0.0
 10
72.0363054054055
 20
52.929913513513561
 30
0.0
 10
72.036405405405475
 20
51.595013513513614
 30
0.0
 10
70.953605405405455
 20
50.512213513513608
 30
0.0
 10
69.618505405405443
 20
50.512213513513608
 30
0.0
 10
69.618505405405443
 20
50.512213513513608
 30
0.0
 10
69.618505405405443
 20
50.512213513513608
 30
0.0
 10
60.454105405405507
 20
50.512013513513615
 30
0.0
 10
60.454105405405507
 20
50.512013513513615
 30
0.0
 10
60.454105405405507
 20
50.512013513513615
 30
0.0
 10
59.119005405405495
 20
50.512213513513608
 30
0.0
 10
58.03630540540545
 20
51.595013513513614
 30
0.0
 10
58.03630540540545
 20
52.930113513513625
 30
0.0
 10
58.03630540540545
 20
52.930113513513625
 30
0.0
 10
58.03630540540545
 20
52.930113513513625
 30
0.0
 10
58.036205405405489
 20
76.094113513513577
 30
0.0
 10
58.036205405405489
 20
76.094113513513577
 30
0.0
 10
58.036205405405489
 20
76.094113513513577
 30
0.0
 10
58.03630540540545
 20
77.429413513513566
 30
0.0
 10
59.119005405405495
 20
78.512213513513586
 30
0.0
 10
60.454205405405467
 20
78.512213513513586
 30
0.0
  0
SPLINE
  5
60
  8
Laag 1
 62
256
370
9
  6
ByLayer
100
AcDbEntity
100
AcDbSpline
 70
8
 71
3
 72
36
 73
32
 74
0
 40
0.0
 40
0.0
 40
0.0
 40
0.0
 40
0.0344827586206897
 40
0.0689655172413793
 40
0.103448275862069
 40
0.1379310344827586
 40
0.1724137931034483
 40
0.2068965517241379
 40
0.2413793103448276
 40
0.2758620689655172
 40
0.3103448275862069
 40
0.3448275862068966
 40
0.3793103448275862
 40
0.4137931034482759
 40
0.4482758620689655
 40
0.4827586206896552
 40
0.5172413793103449
 40
0.5517241379310345
 40
0.5862068965517241
 40
0.6206896551724138
 40
0.6551724137931034
 40
0.6896551724137932
 40
0.7241379310344828
 40
0.7586206896551724
 40
0.7931034482758621
 40
0.8275862068965517
 40
0.8620689655172413
 40
0.8965517241379311
 40
0.9310344827586207
 40
0.9655172413793104
 40
1.0
 40
1.0
 40
1.0
 40
1.0
 10
104.40890540540551
 20
78.51201351351358
 30
0.0
 10
104.40890540540551
 20
78.51201351351358
 30
0.0
 10
113.57320540540547
 20
78.51201351351358
 30
0.0
 10
113.57320540540547
 20
78.51201351351358
 30
0.0
 10
113.57320540540547
 20
78.51201351351358
 30
0.0
 10
114.90840540540546
 20
78.512213513513586
 30
0.0
 10
115.99120540540545
 20
77.429413513513566
 30
0.0
 10
115.99120540540545
 20
76.094313513513555
 30
0.0
 10
115.99120540540545
 20
76.094313513513555
 30
0.0
 10
115.99120540540545
 20
76.094313513513555
 30
0.0
 10
115.99110540540551
 20
52.929913513513561
 30
0.0
 10
115.99110540540551
 20
52.929913513513561
 30
0.0
 10
115.99110540540551
 20
52.929913513513561
 30
0.0
 10
115.99120540540545
 20
51.595013513513614
 30
0.0
 10
114.90840540540546
 20
50.512213513513608
 30
0.0
 10
113.57330540540551
 20
50.512213513513608
 30
0.0
 10
113.57330540540551
 20
50.512213513513608
 30
0.0
 10
113.57330540540551
 20
50.512213513513608
 30
0.0
 10
104.40890540540551
 20
50.512013513513615
 30
0.0
 10
104.40890540540551
 20
50.512013513513615
 30
0.0
 10
104.40890540540551
 20
50.512013513513615
 30
0.0
 10
103.07380540540549
 20
50.512213513513608
 30
0.0
 10
101.99110540540551
 20
51.595013513513614
 30
0.0
 10
101.99110540540551
 20
52.930113513513625
 30
0.0
 10
101.99110540540551
 20
52.930113513513625
 30
0.0
 10
101.99110540540551
 20
52.930113513513625
 30
0.0
 10
101.99100540540547
 20
76.094113513513577
 30
0.0
 10
101.99100540540547
 20
76.094113513513577
 30
0.0
 10
101.99100540540547
 20
76.094113513513577
 30
0.0
 10
101.99110540540551
 20
77.429413513513566
 30
0.0
 10
103.07380540540549
 20
78.512213513513586
 30
0.0
 10
104.40900540540545
 20
78.512213513513586
 30
0.0
  0
SPLINE
  5
61
  8
Laag 1
 62
256
370
9
  6
ByLayer
100
AcDbEntity
100
AcDbSpline
 70
8
 71
3
 72
36
 73
32
 74
0
 40
0.0
 40
0.0
 40
0.0
 40
0.0
 40
0.0344827586206897
 40
0.0689655172413793
 40
0.103448275862069
 40
0.1379310344827586
 40
0.1724137931034483
 40
0.2068965517241379
 40
0.2413793103448276
 40
0.2758620689655172
 40
0.3103448275862069
 40
0.3448275862068966
 40
0.3793103448275862
 40
0.4137931034482759
 40
0.4482758620689655
 40
0.4827586206896552
 40
0.5172413793103449
 40
0.5517241379310345
 40
0.5862068965517241
 40
0.6206896551724138
 40
0.6551724137931034
 40
0.6896551724137932
 40
0.7241379310344828
 40
0.7586206896551724
 40
0.7931034482758621
 40
0.8275862068965517
 40
0.8620689655172413
 40
0.8965517241379311
 40
0.9310344827586207
 40
0.9655172413793104
 40
1.0
 40
1.0
 40
1.0
 40
1.0
 10
51.178805405405463
 20
111.5350135135136
 30
0.0
 10
51.178805405405463
 20
111.5350135135136
 30
0.0
 10
122.88860540540546
 20
111.5350135135136
 30
0.0
 10
122.88860540540546
 20
111.5350135135136
 30
0.0
 10
122.88860540540546
 20
111.5350135135136
 30
0.0
 10
123.52100540540548
 20
111.5350135135136
 30
0.0
 10
124.03380540540545
 20
111.02221351351355
 30
0.0
 10
124.03380540540545
 20
110.38991351351359
 30
0.0
 10
124.03380540540545
 20
110.38991351351359
 30
0.0
 10
124.03380540540545
 20
110.38991351351359
 30
0.0
 10
124.0337054054055
 20
87.38011351351355
 30
0.0
 10
124.0337054054055
 20
87.38011351351355
 30
0.0
 10
124.0337054054055
 20
87.38011351351355
 30
0.0
 10
124.03380540540545
 20
86.74801351351357
 30
0.0
 10
123.52100540540548
 20
86.2352135135136
 30
0.0
 10
122.88870540540549
 20
86.2352135135136
 30
0.0
 10
122.88870540540549
 20
86.2352135135136
 30
0.0
 10
122.88870540540549
 20
86.2352135135136
 30
0.0
 10
51.178805405405463
 20
86.235013513513593
 30
0.0
 10
51.178805405405463
 20
86.235013513513593
 30
0.0
 10
51.178805405405463
 20
86.235013513513593
 30
0.0
 10
50.546605405405451
 20
86.2352135135136
 30
0.0
 10
50.033805405405467
 20
86.74801351351357
 30
0.0
 10
50.033805405405467
 20
87.380313513513613
 30
0.0
 10
50.033805405405467
 20
87.380313513513613
 30
0.0
 10
50.033805405405467
 20
87.380313513513613
 30
0.0
 10
50.033705405405506
 20
110.38991351351359
 30
0.0
 10
50.033705405405506
 20
110.38991351351359
 30
0.0
 10
50.033705405405506
 20
110.38991351351359
 30
0.0
 10
50.033805405405467
 20
111.02221351351355
 30
0.0
 10
50.546605405405451
 20
111.5350135135136
 30
0.0
 10
51.178905405405494
 20
111.5350135135136
 30
0.0
  0
SPLINE
  5
62
  8
Laag 1
 62
256
370
9
  6
ByLayer
100
AcDbEntity
100
AcDbSpline
 70
11
 71
3
 72
20
 73
16
 74
0
 40
0.0
 40
0.0
 40
0.0
 40
0.0
 40
0.0769230769230769
 40
0.1538461538461539
 40
0.2307692307692308
 40
0.3076923076923077
 40
0.3846153846153846
 40
0.4615384615384616
 40
0.5384615384615384
 40
0.6153846153846154
 40
0.6923076923076923
 40
0.7692307692307693
 40
0.8461538461538462
 40
0.9230769230769231
 40
1.0
 40
1.0
 40
1.0
 40
1.0
 10
49.567405405405502
 20
116.07501351351354
 30
0.0
 10
49.015205405405517
 20
116.07501351351354
 30
0.0
 10
48.56750540540552
 20
115.62731351351354
 30
0.0
 10
48.56750540540552
 20
115.07511351351357
 30
0.0
 10
48.56750540540552
 20
115.07511351351357
 30
0.0
 10
48.567405405405488
 20
114.52281351351354
 30
0.0
 10
49.015205405405517
 20
114.07511351351354
 30
0.0
 10
49.567405405405502
 20
114.07511351351354
 30
0.0
 10
49.567405405405502
 20
114.07511351351354
 30
0.0
 10
50.119705405405519
 20
114.0750135135136
 30
0.0
 10
50.567405405405516
 20
114.52281351351354
 30
0.0
 10
50.567405405405516
 20
115.0750135135136
 30
0.0
 10
50.567405405405516
 20
115.0750135135136
 30
0.0
 10
50.567505405405477
 20
115.62731351351354
 30
0.0
 10
50.119705405405519
 20
116.07501351351354
 30
0.0
 10
49.567405405405502
 20
116.07501351351354
 30
0.0
  0
SPLINE
  5
63
  8
Laag 1
 62
256
370
9
  6
ByLayer
100
AcDbEntity
100
AcDbSpline
 70
11
 71
3
 72
20
 73
16
 74
0
 40
0.0
 40
0.0
 40
0.0
 40
0.0
 40
0.0769230769230769
 40
0.1538461538461539
 40
0.2307692307692308
 40
0.3076923076923077
 40
0.3846153846153846
 40
0.4615384615384616
 40
0.5384615384615384
 40
0.6153846153846154
 40
0.6923076923076923
 40
0.7692307692307693
 40
0.8461538461538462
 40
0.9230769230769231
 40
1.0
 40
1.0
 40
1.0
 40
1.0
 10
86.995905405405466
 20
71.374013513513603
 30
0.0
 10
83.129905405405452
 20
71.374013513513603
 30
0.0
 10
79.995905405405438
 20
68.240013513513588
 30
0.0
 10
79.995905405405438
 20
64.374113513513606
 30
0.0
 10
79.995905405405438
 20
64.374113513513606
 30
0.0
 10
79.995805405405491
 20
60.508113513513585
 30
0.0
 10
83.129805405405506
 20
57.374113513513571
 30
0.0
 10
86.99580540540552
 20
57.374113513513571
 30
0.0
 10
86.99580540540552
 20
57.374113513513571
 30
0.0
 10
90.861805405405448
 20
57.37401351351361
 30
0.0
 10
93.995805405405463
 20
60.508013513513625
 30
0.0
 10
93.995805405405463
 20
64.374013513513574
 30
0.0
 10
93.995805405405463
 20
64.374013513513574
 30
0.0
 10
93.995905405405495
 20
68.240013513513588
 30
0.0
 10
90.86190540540548
 20
71.374013513513603
 30
0.0
 10
86.995905405405466
 20
71.374013513513603
 30
0.0
  0
SPLINE
  5
64
  8
Laag 1
 62
256
370
9
  6
ByLayer
100
AcDbEntity
100
AcDbSpline
 70
11
 71
3
 72
20
 73
16
 74
0
 40
0.0
 40
0.0
 40
0.0
 40
0.0
 40
0.0769230769230769
 40
0.1538461538461539
 40
0.2307692307692308
 40
0.3076923076923077
 40
0.3846153846153846
 40
0.4615384615384616
 40
0.5384615384615384
 40
0.6153846153846154
 40
0.6923076923076923
 40
0.7692307692307693
 40
0.8461538461538462
 40
0.9230769230769231
 40
1.0
 40
1.0
 40
1.0
 40
1.0
 10
124.70880540540549
 20
51.199013513513613
 30
0.0
 10
124.15650540540545
 20
51.199013513513613
 30
0.0
 10
123.70880540540546
 20
50.751413513513576
 30
0.0
 10
123.70880540540546
 20
50.199213513513591
 30
0.0
 10
123.70880540540546
 20
50.199213513513591
 30
0.0
 10
123.70870540540551
 20
49.646813513513614
 30
0.0
 10
124.15650540540545
 20
49.199213513513577
 30
0.0
 10
124.70870540540551
 20
49.199213513513577
 30
0.0
 10
124.70870540540551
 20
49.199213513513577
 30
0.0
 10
125.26100540540546
 20
49.199013513513584
 30
0.0
 10
125.70870540540545
 20
49.646813513513614
 30
0.0
 10
125.70870540540545
 20
50.199013513513599
 30
0.0
 10
125.70870540540545
 20
50.199013513513599
 30
0.0
 10
125.70880540540549
 20
50.751413513513576
 30
0.0
 10
125.26100540540546
 20
51.199013513513613
 30
0.0
 10
124.70880540540549
 20
51.199013513513613
 30
0.0
  0
SPLINE
  5
65
  8
Laag 1
 62
256
370
9
  6
ByLayer
100
AcDbEntity
100
AcDbSpline
 70
11
 71
3
 72
20
 73
16
 74
0
 40
0.0
 40
0.0
 40
0.0
 40
0.0
 40
0.0769230769230769
 40
0.1538461538461539
 40
0.2307692307692308
 40
0.3076923076923077
 40
0.3846153846153846
 40
0.4615384615384616
 40
0.5384615384615384
 40
0.6153846153846154
 40
0.6923076923076923
 40
0.7692307692307693
 40
0.8461538461538462
 40
0.9230769230769231
 40
1.0
 40
1.0
 40
1.0
 40
1.0
 10
124.7879054054055
 20
115.99501351351358
 30
0.0
 10
124.23560540540549
 20
115.99501351351358
 30
0.0
 10
123.7879054054055
 20
115.54731351351359
 30
0.0
 10
123.7879054054055
 20
114.99511351351362
 30
0.0
 10
123.7879054054055
 20
114.99511351351362
 30
0.0
 10
123.78780540540546
 20
114.44281351351358
 30
0.0
 10
124.23560540540549
 20
113.99511351351359
 30
0.0
 10
124.78780540540546
 20
113.99511351351359
 30
0.0
 10
124.78780540540546
 20
113.99511351351359
 30
0.0
 10
125.3401054054055
 20
113.99501351351356
 30
0.0
 10
125.78780540540549
 20
114.44281351351358
 30
0.0
 10
125.78780540540549
 20
114.99501351351358
 30
0.0
 10
125.78780540540549
 20
114.99501351351358
 30
0.0
 10
125.78790540540544
 20
115.54731351351359
 30
0.0
 10
125.3401054054055
 20
115.99501351351358
 30
0.0
 10
124.7879054054055
 20
115.99501351351358
 30
0.0
  0
SPLINE
  5
66
  8
Laag 1
 62
256
370
9
  6
ByLayer
100
AcDbEntity
100
AcDbSpline
 70
11
 71
3
 72
20
 73
16
 74
0
 40
0.0
 40
0.0
 40
0.0
 40
0.0
 40
0.0769230769230769
 40
0.1538461538461539
 40
0.2307692307692308
 40
0.3076923076923077
 40
0.3846153846153846
 40
0.4615384615384616
 40
0.5384615384615384
 40
0.6153846153846154
 40
0.6923076923076923
 40
0.7692307692307693
 40
0.8461538461538462
 40
0.9230769230769231
 40
1.0
 40
1.0
 40
1.0
 40
1.0
 10
49.567105405405478
 20
51.199013513513613
 30
0.0
 10
49.014905405405493
 20
51.199013513513613
 30
0.0
 10
48.567205405405495
 20
50.751413513513576
 30
0.0
 10
48.567205405405495
 20
50.199213513513591
 30
0.0
 10
48.567205405405495
 20
50.199213513513591
 30
0.0
 10
48.567105405405464
 20
49.646813513513614
 30
0.0
 10
49.014905405405493
 20
49.199213513513577
 30
0.0
 10
49.567105405405478
 20
49.199213513513577
 30
0.0
 10
49.567105405405478
 20
49.199213513513577
 30
0.0
 10
50.119405405405494
 20
49.199013513513584
 30
0.0
 10
50.567105405405492
 20
49.646813513513614
 30
0.0
 10
50.567105405405492
 20
50.199013513513599
 30
0.0
 10
50.567105405405492
 20
50.199013513513599
 30
0.0
 10
50.567205405405453
 20
50.751413513513576
 30
0.0
 10
50.119405405405494
 20
51.199013513513613
 30
0.0
 10
49.567105405405478
 20
51.199013513513613
 30
0.0
  0
ENDSEC
  0
SECTION
  2
OBJECTS
  0
DICTIONARY
  5
C
100
AcDbDictionary
280
0
281
1
  3
ACAD_GROUP
350
D
  3
ACAD_LAYOUT
350
1A
  3
ACAD_MLINESTYLE
350
17
  3
ACAD_PLOTSETTINGS
350
19
  3
ACAD_PLOTSTYLENAME
350
E
  3
AcDbVariableDictionary
350
67
  0
DICTIONARY
  5
D
100
AcDbDictionary
280
0
281
1
  0
ACDBDICTIONARYWDFLT
  5
E
100
AcDbDictionary
281
1
  3
Normal
350
F
100
AcDbDictionaryWithDefault
340
F
  0
ACDBPLACEHOLDER
  5
F
  0
DICTIONARY
  5
17
100
AcDbDictionary
280
0
281
1
  3
Standard
350
18
  0
MLINESTYLE
  5
18
100
AcDbMlineStyle
  2
STANDARD
 70
0
  3

 62
256
 51
90.0
 52
90.0
 71
2
 49
0.5
 62
256
  6
BYLAYER
 49
-0.5
 62
256
  6
BYLAYER
  0
DICTIONARY
  5
19
100
AcDbDictionary
280
0
281
1
  0
DICTIONARY
  5
1A
100
AcDbDictionary
281
1
  3
Layout1
350
1E
  3
Layout2
350
26
  3
Model
350
22
  0
LAYOUT
  5
1E
100
AcDbPlotSettings
  1

  2
C:\Program Files\AutoCAD 2002\plotters\DWF ePlot (optimized for plotting).pc3
  4

  6

 40
0.0
 41
0.0
 42
0.0
 43
0.0
 44
0.0
 45
0.0
 46
0.0
 47
0.0
 48
0.0
 49
0.0
140
0.0
141
0.0
142
1.0
143
1.0
 70
688
 72
0
 73
0
 74
5
  7

 75
16
147
1.0
148
0.0
149
0.0
100
AcDbLayout
  1
Layout1
 70
1
 71
1
 10
0.0
 20
0.0
 11
420.0
 21
297.0
 12
0.0
 22
0.0
 32
0.0
 14
100000000000000000000.0
 24
100000000000000000000.0
 34
100000000000000000000.0
 15
-100000000000000000000.0
 25
-100000000000000000000.0
 35
-100000000000000000000.0
146
0.0
 13
0.0
 23
0.0
 33
0.0
 16
1.0
 26
0.0
 36
0.0
 17
0.0
 27
1.0
 37
0.0
 76
0
330
1B
  0
LAYOUT
  5
22
100
AcDbPlotSettings
  1

  2
C:\Program Files\AutoCAD 2002\plotters\DWF ePlot (optimized for plotting).pc3
  4

  6

 40
0.0
 41
0.0
 42
0.0
 43
0.0
 44
0.0
 45
0.0
 46
0.0
 47
0.0
 48
0.0
 49
0.0
140
0.0
141
0.0
142
1.0
143
1.0
 70
1712
 72
0
 73
0
 74
0
  7

 75
0
147
1.0
148
0.0
149
0.0
100
AcDbLayout
  1
Model
 70
1
 71
0
 10
0.0
 20
0.0
 11
12.0
 21
9.0
 12
0.0
 22
0.0
 32
0.0
 14
0.0
 24
0.0
 34
0.0
 15
0.0
 25
0.0
 35
0.0
146
0.0
 13
0.0
 23
0.0
 33
0.0
 16
1.0
 26
0.0
 36
0.0
 17
0.0
 27
1.0
 37
0.0
 76
0
330
1F
  0
LAYOUT
  5
26
100
AcDbPlotSettings
  1

  2
C:\Program Files\AutoCAD 2002\plotters\DWF ePlot (optimized for plotting).pc3
  4

  6

 40
0.0
 41
0.0
 42
0.0
 43
0.0
 44
0.0
 45
0.0
 46
0.0
 47
0.0
 48
0.0
 49
0.0
140
0.0
141
0.0
142
1.0
143
1.0
 70
688
 72
0
 73
0
 74
5
  7

 75
16
147
1.0
148
0.0
149
0.0
100
AcDbLayout
  1
Layout2
 70
1
 71
2
 10
0.0
 20
0.0
 11
12.0
 21
9.0
 12
0.0
 22
0.0
 32
0.0
 14
0.0
 24
0.0
 34
0.0
 15
0.0
 25
0.0
 35
0.0
146
0.0
 13
0.0
 23
0.0
 33
0.0
 16
1.0
 26
0.0
 36
0.0
 17
0.0
 27
1.0
 37
0.0
 76
0
330
23
  0
DICTIONARY
  5
67
100
AcDbDictionary
281
1
  3
DIMASSOC
350
69
  3
HIDETEXT
350
68
  0
DICTIONARYVAR
  5
68
100
DictionaryVariables
280
0
  1
2
  0
DICTIONARYVAR
  5
69
100
DictionaryVariables
280
0
  1
1
  0
ENDSEC
  0
EOF
