999
dxflib 2.2.0.0
  0
SECTION
  2
HEADER
  9
$ACADVER
  1
AC1015
  9
$HANDSEED
  5
FFFF
  9
$DIMASZ
 40
0.0025
  9
$PLIMMIN
 10
0.0
 20
0.0
  9
$DIMEXE
 40
0.00125
  9
$DIMGAP
 40
0.000625
  9
$PLIMMAX
 10
0.21
 20
0.297
  9
$INSUNITS
 70
6
  9
$DIMEXO
 40
0.000625
  9
$DIMTXT
 40
0.0025
  0
ENDSEC
  0
SECTION
  2
TABLES
  0
TABLE
  2
VPORT
  5
8
100
AcDbSymbolTable
 70
1
  0
VPORT
  5
30
100
AcDbSymbolTableRecord
100
AcDbViewportTableRecord
  2
*Active
 70
0
 10
0.0
 20
0.0
 11
1.0
 21
1.0
 12
286.3055555555554861
 22
148.5
 13
0.0
 23
0.0
 14
10.0
 24
10.0
 15
10.0
 25
10.0
 16
0.0
 26
0.0
 36
1.0
 17
0.0
 27
0.0
 37
0.0
 40
297.0
 41
1.92798353909465
 42
50.0
 43
0.0
 44
0.0
 50
0.0
 51
0.0
 71
0
 72
100
 73
1
 74
3
 75
1
 76
1
 77
0
 78
0
281
0
 65
1
110
0.0
120
0.0
130
0.0
111
1.0
121
0.0
131
0.0
112
0.0
122
1.0
132
0.0
 79
0
146
0.0
  0
ENDTAB
  0
TABLE
  2
LTYPE
  5
5
100
AcDbSymbolTable
 70
21
  0
LTYPE
  5
14
100
AcDbSymbolTableRecord
100
AcDbLinetypeTableRecord
  2
ByBlock
 70
0
  3

 72
65
 73
0
 40
0.0
  0
LTYPE
  5
15
100
AcDbSymbolTableRecord
100
AcDbLinetypeTableRecord
  2
ByLayer
 70
0
  3

 72
65
 73
0
 40
0.0
  0
LTYPE
  5
16
100
AcDbSymbolTableRecord
100
AcDbLinetypeTableRecord
  2
CONTINUOUS
 70
0
  3
Solid line
 72
65
 73
0
 40
0.0
  0
LTYPE
  5
31
100
AcDbSymbolTableRecord
100
AcDbLinetypeTableRecord
  2
DOT
 70
0
  3
Dot . . . . . . . . . . . . . . . . . . . . . .
 72
65
 73
2
 40
6.3499999999999996
 49
0.0
 74
0
 49
-6.3499999999999996
 74
0
  0
LTYPE
  5
32
100
AcDbSymbolTableRecord
100
AcDbLinetypeTableRecord
  2
DOT2
 70
0
  3
Dot (.5x) .....................................
 72
65
 73
2
 40
3.1749999999999998
 49
0.0
 74
0
 49
-3.1749999999999998
 74
0
  0
LTYPE
  5
33
100
AcDbSymbolTableRecord
100
AcDbLinetypeTableRecord
  2
DOTX2
 70
0
  3
Dot (2x) .  .  .  .  .  .  .  .  .  .  .  .  .
 72
65
 73
2
 40
12.6999999999999993
 49
0.0
 74
0
 49
-12.6999999999999993
 74
0
  0
LTYPE
  5
34
100
AcDbSymbolTableRecord
100
AcDbLinetypeTableRecord
  2
DASHED
 70
0
  3
Dashed __ __ __ __ __ __ __ __ __ __ __ __ __ _
 72
65
 73
2
 40
19.0500000000000007
 49
12.6999999999999993
 74
0
 49
-6.3499999999999996
 74
0
  0
LTYPE
  5
35
100
AcDbSymbolTableRecord
100
AcDbLinetypeTableRecord
  2
DASHED2
 70
0
  3
Dashed (.5x) _ _ _ _ _ _ _ _ _ _ _ _ _ _ _ _ _
 72
65
 73
2
 40
9.5250000000000004
 49
6.3499999999999996
 74
0
 49
-3.1749999999999998
 74
0
  0
LTYPE
  5
36
100
AcDbSymbolTableRecord
100
AcDbLinetypeTableRecord
  2
DASHEDX2
 70
0
  3
Dashed (2x) ____  ____  ____  ____  ____  ___
 72
65
 73
2
 40
38.1000000000000014
 49
25.3999999999999986
 74
0
 49
-12.6999999999999993
 74
0
  0
LTYPE
  5
37
100
AcDbSymbolTableRecord
100
AcDbLinetypeTableRecord
  2
DASHDOT
 70
0
  3
Dash dot __ . __ . __ . __ . __ . __ . __ . __
 72
65
 73
4
 40
25.3999999999999986
 49
12.6999999999999993
 74
0
 49
-6.3499999999999996
 74
0
 49
0.0
 74
0
 49
-6.3499999999999996
 74
0
  0
LTYPE
  5
38
100
AcDbSymbolTableRecord
100
AcDbLinetypeTableRecord
  2
DASHDOT2
 70
0
  3
Dash dot (.5x) _._._._._._._._._._._._._._._.
 72
65
 73
4
 40
12.6999999999999993
 49
6.3499999999999996
 74
0
 49
-3.1749999999999998
 74
0
 49
0.0
 74
0
 49
-3.1749999999999998
 74
0
  0
LTYPE
  5
39
100
AcDbSymbolTableRecord
100
AcDbLinetypeTableRecord
  2
DASHDOTX2
 70
0
  3
Dash dot (2x) ____  .  ____  .  ____  .  ___
 72
65
 73
4
 40
50.7999999999999972
 49
25.3999999999999986
 74
0
 49
-12.6999999999999993
 74
0
 49
0.0
 74
0
 49
-12.6999999999999993
 74
0
  0
LTYPE
  5
3A
100
AcDbSymbolTableRecord
100
AcDbLinetypeTableRecord
  2
DIVIDE
 70
0
  3
Divide ____ . . ____ . . ____ . . ____ . . ____
 72
65
 73
6
 40
31.75
 49
12.6999999999999993
 74
0
 49
-6.3499999999999996
 74
0
 49
0.0
 74
0
 49
-6.3499999999999996
 74
0
 49
0.0
 74
0
 49
-6.3499999999999996
 74
0
  0
LTYPE
  5
3B
100
AcDbSymbolTableRecord
100
AcDbLinetypeTableRecord
  2
DIVIDE2
 70
0
  3
Divide (.5x) __..__..__..__..__..__..__..__.._
 72
65
 73
6
 40
15.875
 49
6.3499999999999996
 74
0
 49
-3.1749999999999998
 74
0
 49
0.0
 74
0
 49
-3.1749999999999998
 74
0
 49
0.0
 74
0
 49
-3.1749999999999998
 74
0
  0
LTYPE
  5
3C
100
AcDbSymbolTableRecord
100
AcDbLinetypeTableRecord
  2
DIVIDEX2
 70
0
  3
Divide (2x) ________  .  .  ________  .  .  _
 72
65
 73
6
 40
63.5
 49
25.3999999999999986
 74
0
 49
-12.6999999999999993
 74
0
 49
0.0
 74
0
 49
-12.6999999999999993
 74
0
 49
0.0
 74
0
 49
-12.6999999999999993
 74
0
  0
LTYPE
  5
3D
100
AcDbSymbolTableRecord
100
AcDbLinetypeTableRecord
  2
CENTER
 70
0
  3
Center ____ _ ____ _ ____ _ ____ _ ____ _ ____
 72
65
 73
4
 40
50.7999999999999972
 49
31.75
 74
0
 49
-6.3499999999999996
 74
0
 49
6.3499999999999996
 74
0
 49
-6.3499999999999996
 74
0
  0
LTYPE
  5
3E
100
AcDbSymbolTableRecord
100
AcDbLinetypeTableRecord
  2
CENTER2
 70
0
  3
Center (.5x) ___ _ ___ _ ___ _ ___ _ ___ _ ___
 72
65
 73
4
 40
28.5749999999999993
 49
19.0500000000000007
 74
0
 49
-3.1749999999999998
 74
0
 49
3.1749999999999998
 74
0
 49
-3.1749999999999998
 74
0
  0
LTYPE
  5
3F
100
AcDbSymbolTableRecord
100
AcDbLinetypeTableRecord
  2
CENTERX2
 70
0
  3
Center (2x) ________  __  ________  __  _____
 72
65
 73
4
 40
101.5999999999999943
 49
63.5
 74
0
 49
-12.6999999999999993
 74
0
 49
12.6999999999999993
 74
0
 49
-12.6999999999999993
 74
0
  0
LTYPE
  5
40
100
AcDbSymbolTableRecord
100
AcDbLinetypeTableRecord
  2
BORDER
 70
0
  3
Border __ __ . __ __ . __ __ . __ __ . __ __ .
 72
65
 73
6
 40
44.4500000000000028
 49
12.6999999999999993
 74
0
 49
-6.3499999999999996
 74
0
 49
12.6999999999999993
 74
0
 49
-6.3499999999999996
 74
0
 49
0.0
 74
0
 49
-6.3499999999999996
 74
0
  0
LTYPE
  5
41
100
AcDbSymbolTableRecord
100
AcDbLinetypeTableRecord
  2
BORDER2
 70
0
  3
Border (.5x) __.__.__.__.__.__.__.__.__.__.__.
 72
65
 73
6
 40
22.2250000000000014
 49
6.3499999999999996
 74
0
 49
-3.1749999999999998
 74
0
 49
6.3499999999999996
 74
0
 49
-3.1749999999999998
 74
0
 49
0.0
 74
0
 49
-3.1749999999999998
 74
0
  0
LTYPE
  5
42
100
AcDbSymbolTableRecord
100
AcDbLinetypeTableRecord
  2
BORDERX2
 70
0
  3
Border (2x) ____  ____  .  ____  ____  .  ___
 72
65
 73
6
 40
88.9000000000000057
 49
25.3999999999999986
 74
0
 49
-12.6999999999999993
 74
0
 49
25.3999999999999986
 74
0
 49
-12.6999999999999993
 74
0
 49
0.0
 74
0
 49
-12.6999999999999993
 74
0
  0
ENDTAB
  0
TABLE
  2
LAYER
  5
2
100
AcDbSymbolTable
 70
1
  0
LAYER
  5
10
100
AcDbSymbolTableRecord
100
AcDbLayerTableRecord
  2
0
 70
0
 62
7
  6
CONTINUOUS
290
1
370
0
390
F
  0
ENDTAB
  0
TABLE
  2
STYLE
  5
3
100
AcDbSymbolTable
 70
1
  0
STYLE
  5
11
100
AcDbSymbolTableRecord
100
AcDbTextStyleTableRecord
  2
Standard
 70
0
 40
0.0
 41
0.75
 50
0.0
 71
0
 42
2.5
  3
txt
  4

  0
ENDTAB
  0
TABLE
  2
VIEW
  5
6
100
AcDbSymbolTable
 70
0
  0
ENDTAB
  0
TABLE
  2
UCS
  5
7
100
AcDbSymbolTable
 70
0
  0
ENDTAB
  0
TABLE
  2
APPID
  5
9
100
AcDbSymbolTable
 70
1
  0
APPID
  5
12
100
AcDbSymbolTableRecord
100
AcDbRegAppTableRecord
  2
ACAD
 70
0
  0
ENDTAB
  0
TABLE
  2
DIMSTYLE
  5
A
100
AcDbSymbolTable
 70
1
100
AcDbDimStyleTable
 71
0
  0
DIMSTYLE
105
27
100
AcDbSymbolTableRecord
100
AcDbDimStyleTableRecord
  2
Standard
 41
0.0025
 42
0.000625
 43
3.75
 44
0.00125
 70
0
 73
0
 74
0
 77
1
 78
8
140
0.0025
141
2.5
143
0.03937007874016
147
0.000625
171
3
172
1
271
2
272
2
274
3
278
44
283
0
284
8
340
11
  0
ENDTAB
  0
TABLE
  2
BLOCK_RECORD
  5
1
100
AcDbSymbolTable
 70
1
  0
BLOCK_RECORD
  5
1F
100
AcDbSymbolTableRecord
100
AcDbBlockTableRecord
  2
*Model_Space
340
22
  0
BLOCK_RECORD
  5
1B
100
AcDbSymbolTableRecord
100
AcDbBlockTableRecord
  2
*Paper_Space
340
1E
  0
BLOCK_RECORD
  5
23
100
AcDbSymbolTableRecord
100
AcDbBlockTableRecord
  2
*Paper_Space0
340
26
  0
ENDTAB
  0
ENDSEC
  0
SECTION
  2
BLOCKS
  0
BLOCK
  5
20
100
AcDbEntity
  8
0
100
AcDbBlockBegin
  2
*Model_Space
 70
0
 10
0.0
 20
0.0
 30
0.0
  3
*Model_Space
  1

  0
ENDBLK
  5
21
100
AcDbEntity
  8
0
100
AcDbBlockEnd
  0
BLOCK
  5
1C
100
AcDbEntity
 67
1
  8
0
100
AcDbBlockBegin
  2
*Paper_Space
 70
0
 10
0.0
 20
0.0
 30
0.0
  3
*Paper_Space
  1

  0
ENDBLK
  5
1D
100
AcDbEntity
 67
1
  8
0
100
AcDbBlockEnd
  0
BLOCK
  5
24
100
AcDbEntity
  8
0
100
AcDbBlockBegin
  2
*Paper_Space0
 70
0
 10
0.0
 20
0.0
 30
0.0
  3
*Paper_Space0
  1

  0
ENDBLK
  5
25
100
AcDbEntity
  8
0
100
AcDbBlockEnd
  0
ENDSEC
  0
SECTION
  2
ENTITIES
  0
LINE
  5
43
100
AcDbEntity
100
AcDbLine
  8
0
 62
256
370
-1
  6
ByLayer
 10
12.6142461289393228
 20
3.8989840310050461
 30
0.0
 11
12.6142461289393228
 21
6.32189151999183
 31
0.0
  0
LINE
  5
44
100
AcDbEntity
100
AcDbLine
  8
0
 62
256
370
-1
  6
ByLayer
 10
12.6142461289393228
 20
6.32189151999183
 30
0.0
 11
19.7948628690274262
 21
6.32189151999183
 31
0.0
  0
LINE
  5
45
100
AcDbEntity
100
AcDbLine
  8
0
 62
256
370
-1
  6
ByLayer
 10
6.9534531773974724
 20
3.9430368944411676
 30
0.0
 11
6.9314267456794108
 21
6.32189151999183
 31
0.0
  0
LINE
  5
46
100
AcDbEntity
100
AcDbLine
  8
0
 62
256
370
-1
  6
ByLayer
 10
6.9314267456794108
 20
6.32189151999183
 30
0.0
 11
-0.1831106992545095
 21
6.3439179517098907
 31
0.0
  0
ELLIPSE
  5
47
100
AcDbEntity
100
AcDbEllipse
  8
0
 62
256
370
-1
  6
ByLayer
 10
9.7325693668247872
 20
16.1979928415777401
 30
0.0
 11
-9.9807268722466986
 21
0.0430203744493376
 31
0.0
 40
0.9913608917789132
 41
3.1547117290118596
 42
5.4361396588849606
  0
ELLIPSE
  5
48
100
AcDbEntity
100
AcDbEllipse
  8
0
 62
256
370
-1
  6
ByLayer
 10
9.7325693668247872
 20
16.2840335904764189
 30
0.0
 11
-7.3134636563876665
 21
-0.0430203744493411
 31
0.0
 40
0.9646379018027058
 41
3.1416652461751298
 42
5.4205521102489271
  0
LINE
  5
49
100
AcDbEntity
100
AcDbLine
  8
0
 62
256
370
-1
  6
ByLayer
 10
19.7993369879701646
 20
6.3033067182297202
 30
0.0
 11
19.7563166135208235
 21
16.3270539649257564
 31
0.0
  0
LINE
  5
4A
100
AcDbEntity
100
AcDbLine
  8
0
 62
256
370
-1
  6
ByLayer
 10
17.0890533976617931
 20
16.3700743393750976
 30
0.0
 11
17.0890533976617931
 21
11.5087720265997646
 31
0.0
  0
LINE
  5
4B
100
AcDbEntity
100
AcDbLine
  8
0
 62
256
370
-1
  6
ByLayer
 10
17.0890533976617931
 20
11.5087720265997646
 30
0.0
 11
-0.205137130972572
 21
11.5087720265997646
 31
0.0
  0
LINE
  5
4C
100
AcDbEntity
100
AcDbLine
  8
0
 62
256
370
-1
  6
ByLayer
 10
-0.205137130972572
 20
11.5087720265997646
 30
0.0
 11
-0.1621167565232327
 21
6.3463270926790578
 31
0.0
  0
LINE
  5
4D
100
AcDbEntity
100
AcDbLine
  8
0
 62
256
370
-1
  6
ByLayer
 10
3.1934724505252259
 20
23.6405176213134247
 30
0.0
 11
4.9573078029481339
 21
21.6615803966438172
 31
0.0
  0
LINE
  5
4E
100
AcDbEntity
100
AcDbLine
  8
0
 62
256
370
-1
  6
ByLayer
 10
2.794862869027428
 20
3.9430122248376449
 30
0.0
 11
6.9534528690274282
 21
3.9430122248376449
 31
0.0
  0
LINE
  5
4F
100
AcDbEntity
100
AcDbLine
  8
0
 62
256
370
-1
  6
ByLayer
 10
16.7948628690274262
 20
3.8990122248376444
 30
0.0
 11
12.6142628690274279
 21
3.8990122248376444
 31
0.0
  0
LINE
  5
50
100
AcDbEntity
100
AcDbLine
  8
0
 62
256
370
-1
  6
ByLayer
 10
7.294862869027428
 20
0.2558122248376442
 30
0.0
 11
12.294862869027428
 21
0.2558122248376442
 31
0.0
  0
LINE
  5
51
100
AcDbEntity
100
AcDbLine
  8
0
 62
256
370
-1
  6
ByLayer
 10
2.794862869027428
 20
3.8990122248376444
 30
0.0
 11
7.294862869027428
 21
0.2558122248376442
 31
0.0
  0
LINE
  5
52
100
AcDbEntity
100
AcDbLine
  8
0
 62
256
370
-1
  6
ByLayer
 10
12.294862869027428
 20
0.2558122248376442
 30
0.0
 11
16.7948628690274262
 21
3.8990122248376444
 31
0.0
  0
LINE
  5
53
100
AcDbEntity
100
AcDbLine
  8
0
 62
256
370
-1
  6
ByLayer
 10
33.5382334881417137
 20
3.8989840310050461
 30
0.0
 11
33.5382334881417137
 21
6.32189151999183
 31
0.0
  0
LINE
  5
54
100
AcDbEntity
100
AcDbLine
  8
0
 62
256
370
-1
  6
ByLayer
 10
33.5382334881417137
 20
6.32189151999183
 30
0.0
 11
40.7188502282298188
 21
6.32189151999183
 31
0.0
  0
LINE
  5
55
100
AcDbEntity
100
AcDbLine
  8
0
 62
256
370
-1
  6
ByLayer
 10
27.8774405365998632
 20
3.9430368944411676
 30
0.0
 11
27.8554141048818025
 21
6.32189151999183
 31
0.0
  0
LINE
  5
56
100
AcDbEntity
100
AcDbLine
  8
0
 62
256
370
-1
  6
ByLayer
 10
27.8554141048818025
 20
6.32189151999183
 30
0.0
 11
20.7408766599478795
 21
6.3439179517098907
 31
0.0
  0
ELLIPSE
  5
57
100
AcDbEntity
100
AcDbEllipse
  8
0
 62
256
370
-1
  6
ByLayer
 10
30.6565567260271763
 20
16.1979928415777401
 30
0.0
 11
-9.9807268722466986
 21
0.0430203744493376
 31
0.0
 40
0.9913608917789132
 41
3.1547117290118596
 42
5.4361396588849606
  0
ELLIPSE
  5
58
100
AcDbEntity
100
AcDbEllipse
  8
0
 62
256
370
-1
  6
ByLayer
 10
30.6565567260271763
 20
16.2840335904764189
 30
0.0
 11
-7.3134636563876665
 21
-0.0430203744493411
 31
0.0
 40
0.9646379018027058
 41
3.1416652461751298
 42
5.4205521102489271
  0
LINE
  5
59
100
AcDbEntity
100
AcDbLine
  8
0
 62
256
370
-1
  6
ByLayer
 10
40.7233243471725501
 20
6.3033067182297202
 30
0.0
 11
40.6803039727232161
 21
16.3270539649257564
 31
0.0
  0
LINE
  5
5A
100
AcDbEntity
100
AcDbLine
  8
0
 62
256
370
-1
  6
ByLayer
 10
38.0130407568641857
 20
16.3700743393750976
 30
0.0
 11
38.0130407568641857
 21
11.5087720265997646
 31
0.0
  0
LINE
  5
5B
100
AcDbEntity
100
AcDbLine
  8
0
 62
256
370
-1
  6
ByLayer
 10
38.0130407568641857
 20
11.5087720265997646
 30
0.0
 11
20.7188502282298188
 21
11.5087720265997646
 31
0.0
  0
LINE
  5
5C
100
AcDbEntity
100
AcDbLine
  8
0
 62
256
370
-1
  6
ByLayer
 10
20.7188502282298188
 20
11.5087720265997646
 30
0.0
 11
20.76187060267916
 21
6.3463270926790578
 31
0.0
  0
LINE
  5
5D
100
AcDbEntity
100
AcDbLine
  8
0
 62
256
370
-1
  6
ByLayer
 10
24.1174598097276167
 20
23.6405176213134247
 30
0.0
 11
25.8812951621505256
 21
21.6615803966438172
 31
0.0
  0
LINE
  5
5E
100
AcDbEntity
100
AcDbLine
  8
0
 62
256
370
-1
  6
ByLayer
 10
23.7188502282298188
 20
3.9430122248376449
 30
0.0
 11
27.877440228229819
 21
3.9430122248376449
 31
0.0
  0
LINE
  5
5F
100
AcDbEntity
100
AcDbLine
  8
0
 62
256
370
-1
  6
ByLayer
 10
37.7188502282298188
 20
3.8990122248376444
 30
0.0
 11
33.5382502282298205
 21
3.8990122248376444
 31
0.0
  0
LINE
  5
60
100
AcDbEntity
100
AcDbLine
  8
0
 62
256
370
-1
  6
ByLayer
 10
28.2188502282298188
 20
0.2558122248376442
 30
0.0
 11
33.2188502282298188
 21
0.2558122248376442
 31
0.0
  0
LINE
  5
61
100
AcDbEntity
100
AcDbLine
  8
0
 62
256
370
-1
  6
ByLayer
 10
23.7188502282298188
 20
3.8990122248376444
 30
0.0
 11
28.2188502282298188
 21
0.2558122248376442
 31
0.0
  0
LINE
  5
62
100
AcDbEntity
100
AcDbLine
  8
0
 62
256
370
-1
  6
ByLayer
 10
33.2188502282298188
 20
0.2558122248376442
 30
0.0
 11
37.7188502282298188
 21
3.8990122248376444
 31
0.0
  0
LINE
  5
63
100
AcDbEntity
100
AcDbLine
  8
0
 62
256
370
-1
  6
ByLayer
 10
54.8724951092892468
 20
3.8989840310050461
 30
0.0
 11
54.8724951092892468
 21
6.32189151999183
 31
0.0
  0
LINE
  5
64
100
AcDbEntity
100
AcDbLine
  8
0
 62
256
370
-1
  6
ByLayer
 10
54.8724951092892468
 20
6.32189151999183
 30
0.0
 11
62.0531118493773519
 21
6.32189151999183
 31
0.0
  0
LINE
  5
65
100
AcDbEntity
100
AcDbLine
  8
0
 62
256
370
-1
  6
ByLayer
 10
49.2117021577473963
 20
3.9430368944411676
 30
0.0
 11
49.1896757260293356
 21
6.32189151999183
 31
0.0
  0
LINE
  5
66
100
AcDbEntity
100
AcDbLine
  8
0
 62
256
370
-1
  6
ByLayer
 10
49.1896757260293356
 20
6.32189151999183
 30
0.0
 11
42.0751382810954198
 21
6.3439179517098907
 31
0.0
  0
ELLIPSE
  5
67
100
AcDbEntity
100
AcDbEllipse
  8
0
 62
256
370
-1
  6
ByLayer
 10
51.9908183471747094
 20
16.1979928415777401
 30
0.0
 11
-9.9807268722466986
 21
0.0430203744493376
 31
0.0
 40
0.9913608917789132
 41
3.1547117290118596
 42
5.4361396588849606
  0
ELLIPSE
  5
68
100
AcDbEntity
100
AcDbEllipse
  8
0
 62
256
370
-1
  6
ByLayer
 10
51.9908183471747094
 20
16.2840335904764189
 30
0.0
 11
-7.3134636563876665
 21
-0.0430203744493411
 31
0.0
 40
0.9646379018027058
 41
3.1416652461751298
 42
5.4205521102489271
  0
LINE
  5
69
100
AcDbEntity
100
AcDbLine
  8
0
 62
256
370
-1
  6
ByLayer
 10
62.0575859683200903
 20
6.3033067182297202
 30
0.0
 11
62.0145655938707492
 21
16.3270539649257564
 31
0.0
  0
LINE
  5
6A
100
AcDbEntity
100
AcDbLine
  8
0
 62
256
370
-1
  6
ByLayer
 10
59.3473023780117188
 20
16.3700743393750976
 30
0.0
 11
59.3473023780117188
 21
11.5087720265997646
 31
0.0
  0
LINE
  5
6B
100
AcDbEntity
100
AcDbLine
  8
0
 62
256
370
-1
  6
ByLayer
 10
59.3473023780117188
 20
11.5087720265997646
 30
0.0
 11
42.0531118493773519
 21
11.5087720265997646
 31
0.0
  0
LINE
  5
6C
100
AcDbEntity
100
AcDbLine
  8
0
 62
256
370
-1
  6
ByLayer
 10
42.0531118493773519
 20
11.5087720265997646
 30
0.0
 11
42.0961322238266931
 21
6.3463270926790578
 31
0.0
  0
LINE
  5
6D
100
AcDbEntity
100
AcDbLine
  8
0
 62
256
370
-1
  6
ByLayer
 10
45.4517214308751534
 20
23.6405176213134247
 30
0.0
 11
47.2155567832980552
 21
21.6615803966438172
 31
0.0
  0
LINE
  5
6E
100
AcDbEntity
100
AcDbLine
  8
0
 62
256
370
-1
  6
ByLayer
 10
45.0531118493773519
 20
3.9430122248376449
 30
0.0
 11
49.2117018493773557
 21
3.9430122248376449
 31
0.0
  0
LINE
  5
6F
100
AcDbEntity
100
AcDbLine
  8
0
 62
256
370
-1
  6
ByLayer
 10
59.0531118493773519
 20
3.8990122248376444
 30
0.0
 11
54.8725118493773536
 21
3.8990122248376444
 31
0.0
  0
LINE
  5
70
100
AcDbEntity
100
AcDbLine
  8
0
 62
256
370
-1
  6
ByLayer
 10
49.5531118493773519
 20
0.2558122248376442
 30
0.0
 11
54.5531118493773519
 21
0.2558122248376442
 31
0.0
  0
LINE
  5
71
100
AcDbEntity
100
AcDbLine
  8
0
 62
256
370
-1
  6
ByLayer
 10
45.0531118493773519
 20
3.8990122248376444
 30
0.0
 11
49.5531118493773519
 21
0.2558122248376442
 31
0.0
  0
LINE
  5
72
100
AcDbEntity
100
AcDbLine
  8
0
 62
256
370
-1
  6
ByLayer
 10
54.5531118493773519
 20
0.2558122248376442
 30
0.0
 11
59.0531118493773519
 21
3.8990122248376444
 31
0.0
  0
LINE
  5
73
100
AcDbEntity
100
AcDbLine
  8
0
 62
256
370
-1
  6
ByLayer
 10
75.7964824684916323
 20
3.8989840310050461
 30
0.0
 11
75.7964824684916323
 21
6.32189151999183
 31
0.0
  0
LINE
  5
74
100
AcDbEntity
100
AcDbLine
  8
0
 62
256
370
-1
  6
ByLayer
 10
75.7964824684916323
 20
6.32189151999183
 30
0.0
 11
82.9770992085797445
 21
6.32189151999183
 31
0.0
  0
LINE
  5
75
100
AcDbEntity
100
AcDbLine
  8
0
 62
256
370
-1
  6
ByLayer
 10
70.1356895169497818
 20
3.9430368944411676
 30
0.0
 11
70.1136630852317353
 21
6.32189151999183
 31
0.0
  0
LINE
  5
76
100
AcDbEntity
100
AcDbLine
  8
0
 62
256
370
-1
  6
ByLayer
 10
70.1136630852317353
 20
6.32189151999183
 30
0.0
 11
62.9991256402978053
 21
6.3439179517098907
 31
0.0
  0
ELLIPSE
  5
77
100
AcDbEntity
100
AcDbEllipse
  8
0
 62
256
370
-1
  6
ByLayer
 10
72.9148057063771091
 20
16.1979928415777401
 30
0.0
 11
-9.9807268722466986
 21
0.0430203744493376
 31
0.0
 40
0.9913608917789132
 41
3.1547117290118596
 42
5.4361396588849606
  0
ELLIPSE
  5
78
100
AcDbEntity
100
AcDbEllipse
  8
0
 62
256
370
-1
  6
ByLayer
 10
72.9148057063771091
 20
16.2840335904764189
 30
0.0
 11
-7.3134636563876665
 21
-0.0430203744493411
 31
0.0
 40
0.9646379018027058
 41
3.1416652461751298
 42
5.4205521102489271
  0
LINE
  5
79
100
AcDbEntity
100
AcDbLine
  8
0
 62
256
370
-1
  6
ByLayer
 10
82.9815733275224829
 20
6.3033067182297202
 30
0.0
 11
82.9385529530731418
 21
16.3270539649257564
 31
0.0
  0
LINE
  5
7A
100
AcDbEntity
100
AcDbLine
  8
0
 62
256
370
-1
  6
ByLayer
 10
80.2712897372141185
 20
16.3700743393750976
 30
0.0
 11
80.2712897372141185
 21
11.5087720265997646
 31
0.0
  0
LINE
  5
7B
100
AcDbEntity
100
AcDbLine
  8
0
 62
256
370
-1
  6
ByLayer
 10
80.2712897372141185
 20
11.5087720265997646
 30
0.0
 11
62.9770992085797445
 21
11.5087720265997646
 31
0.0
  0
LINE
  5
7C
100
AcDbEntity
100
AcDbLine
  8
0
 62
256
370
-1
  6
ByLayer
 10
62.9770992085797445
 20
11.5087720265997646
 30
0.0
 11
63.0201195830290857
 21
6.3463270926790578
 31
0.0
  0
LINE
  5
7D
100
AcDbEntity
100
AcDbLine
  8
0
 62
256
370
-1
  6
ByLayer
 10
66.3757087900775389
 20
23.6405176213134247
 30
0.0
 11
68.1395441425004549
 21
21.6615803966438172
 31
0.0
  0
LINE
  5
7E
100
AcDbEntity
100
AcDbLine
  8
0
 62
256
370
-1
  6
ByLayer
 10
65.9770992085797445
 20
3.9430122248376449
 30
0.0
 11
70.1356892085797483
 21
3.9430122248376449
 31
0.0
  0
LINE
  5
7F
100
AcDbEntity
100
AcDbLine
  8
0
 62
256
370
-1
  6
ByLayer
 10
79.9770992085797445
 20
3.8990122248376444
 30
0.0
 11
75.7964992085797462
 21
3.8990122248376444
 31
0.0
  0
LINE
  5
80
100
AcDbEntity
100
AcDbLine
  8
0
 62
256
370
-1
  6
ByLayer
 10
70.4770992085797445
 20
0.2558122248376442
 30
0.0
 11
75.4770992085797445
 21
0.2558122248376442
 31
0.0
  0
LINE
  5
81
100
AcDbEntity
100
AcDbLine
  8
0
 62
256
370
-1
  6
ByLayer
 10
65.9770992085797445
 20
3.8990122248376444
 30
0.0
 11
70.4770992085797445
 21
0.2558122248376442
 31
0.0
  0
LINE
  5
82
100
AcDbEntity
100
AcDbLine
  8
0
 62
256
370
-1
  6
ByLayer
 10
75.4770992085797445
 20
0.2558122248376442
 30
0.0
 11
79.9770992085797445
 21
3.8990122248376444
 31
0.0
  0
LINE
  5
83
100
AcDbEntity
100
AcDbLine
  8
0
 62
256
370
-1
  6
ByLayer
 10
97.1307440896391796
 20
4.1041211619776181
 30
0.0
 11
97.1307440896391796
 21
6.527028650964402
 31
0.0
  0
LINE
  5
84
100
AcDbEntity
100
AcDbLine
  8
0
 62
256
370
-1
  6
ByLayer
 10
97.1307440896391796
 20
6.527028650964402
 30
0.0
 11
104.3113608297272776
 21
6.527028650964402
 31
0.0
  0
LINE
  5
85
100
AcDbEntity
100
AcDbLine
  8
0
 62
256
370
-1
  6
ByLayer
 10
91.4699511380973291
 20
4.1481740254137396
 30
0.0
 11
91.4479247063792684
 21
6.527028650964402
 31
0.0
  0
LINE
  5
86
100
AcDbEntity
100
AcDbLine
  8
0
 62
256
370
-1
  6
ByLayer
 10
91.4479247063792684
 20
6.527028650964402
 30
0.0
 11
84.3333872614453384
 21
6.5490550826824627
 31
0.0
  0
ELLIPSE
  5
87
100
AcDbEntity
100
AcDbEllipse
  8
0
 62
256
370
-1
  6
ByLayer
 10
94.2490673275246422
 20
16.4031299725503104
 30
0.0
 11
-9.9807268722466986
 21
0.0430203744493376
 31
0.0
 40
0.9913608917789132
 41
3.1547117290118596
 42
5.4361396588849606
  0
ELLIPSE
  5
88
100
AcDbEntity
100
AcDbEllipse
  8
0
 62
256
370
-1
  6
ByLayer
 10
94.2490673275246422
 20
16.4891707214489927
 30
0.0
 11
-7.3134636563876665
 21
-0.0430203744493411
 31
0.0
 40
0.9646379018027058
 41
3.1416652461751298
 42
5.4205521102489271
  0
LINE
  5
89
100
AcDbEntity
100
AcDbLine
  8
0
 62
256
370
-1
  6
ByLayer
 10
104.315834948670016
 20
6.5084438492022922
 30
0.0
 11
104.2728145742206749
 21
16.5321910958983267
 31
0.0
  0
LINE
  5
8A
100
AcDbEntity
100
AcDbLine
  8
0
 62
256
370
-1
  6
ByLayer
 10
101.6055513583616516
 20
16.5752114703476678
 30
0.0
 11
101.6055513583616516
 21
11.7139091575723366
 31
0.0
  0
LINE
  5
8B
100
AcDbEntity
100
AcDbLine
  8
0
 62
256
370
-1
  6
ByLayer
 10
101.6055513583616516
 20
11.7139091575723366
 30
0.0
 11
84.3113608297272776
 21
11.7139091575723366
 31
0.0
  0
LINE
  5
8C
100
AcDbEntity
100
AcDbLine
  8
0
 62
256
370
-1
  6
ByLayer
 10
84.3113608297272776
 20
11.7139091575723366
 30
0.0
 11
84.3543812041766188
 21
6.5514642236516298
 31
0.0
  0
LINE
  5
8D
100
AcDbEntity
100
AcDbLine
  8
0
 62
256
370
-1
  6
ByLayer
 10
87.709970411225072
 20
23.845654752285995
 30
0.0
 11
89.473805763647988
 21
21.8667175276163874
 31
0.0
  0
LINE
  5
8E
100
AcDbEntity
100
AcDbLine
  8
0
 62
256
370
-1
  6
ByLayer
 10
87.3113608297272776
 20
4.1481493558102169
 30
0.0
 11
91.4699508297272814
 21
4.1481493558102169
 31
0.0
  0
LINE
  5
8F
100
AcDbEntity
100
AcDbLine
  8
0
 62
256
370
-1
  6
ByLayer
 10
101.3113608297272776
 20
4.1041493558102164
 30
0.0
 11
97.1307608297272793
 21
4.1041493558102164
 31
0.0
  0
LINE
  5
90
100
AcDbEntity
100
AcDbLine
  8
0
 62
256
370
-1
  6
ByLayer
 10
91.8113608297272776
 20
0.4609493558102162
 30
0.0
 11
96.8113608297272776
 21
0.4609493558102162
 31
0.0
  0
LINE
  5
91
100
AcDbEntity
100
AcDbLine
  8
0
 62
256
370
-1
  6
ByLayer
 10
87.3113608297272776
 20
4.1041493558102164
 30
0.0
 11
91.8113608297272776
 21
0.4609493558102162
 31
0.0
  0
LINE
  5
92
100
AcDbEntity
100
AcDbLine
  8
0
 62
256
370
-1
  6
ByLayer
 10
96.8113608297272776
 20
0.4609493558102162
 30
0.0
 11
101.3113608297272776
 21
4.1041493558102164
 31
0.0
  0
LINE
  5
93
100
AcDbEntity
100
AcDbLine
  8
0
 62
256
370
-1
  6
ByLayer
 10
118.0547314488415651
 20
4.1041211619776181
 30
0.0
 11
118.0547314488415651
 21
6.527028650964402
 31
0.0
  0
LINE
  5
94
100
AcDbEntity
100
AcDbLine
  8
0
 62
256
370
-1
  6
ByLayer
 10
118.0547314488415651
 20
6.527028650964402
 30
0.0
 11
125.2353481889296631
 21
6.527028650964402
 31
0.0
  0
LINE
  5
95
100
AcDbEntity
100
AcDbLine
  8
0
 62
256
370
-1
  6
ByLayer
 10
112.3939384972997146
 20
4.1481740254137396
 30
0.0
 11
112.3719120655816539
 21
6.527028650964402
 31
0.0
  0
LINE
  5
96
100
AcDbEntity
100
AcDbLine
  8
0
 62
256
370
-1
  6
ByLayer
 10
112.3719120655816539
 20
6.527028650964402
 30
0.0
 11
105.2573746206477381
 21
6.5490550826824627
 31
0.0
  0
ELLIPSE
  5
97
100
AcDbEntity
100
AcDbEllipse
  8
0
 62
256
370
-1
  6
ByLayer
 10
115.1730546867270277
 20
16.4031299725503104
 30
0.0
 11
-9.9807268722466986
 21
0.0430203744493376
 31
0.0
 40
0.9913608917789132
 41
3.1547117290118596
 42
5.4361396588849606
  0
ELLIPSE
  5
98
100
AcDbEntity
100
AcDbEllipse
  8
0
 62
256
370
-1
  6
ByLayer
 10
115.1730546867270277
 20
16.4891707214489927
 30
0.0
 11
-7.3134636563876665
 21
-0.0430203744493411
 31
0.0
 40
0.9646379018027058
 41
3.1416652461751298
 42
5.4205521102489271
  0
LINE
  5
99
100
AcDbEntity
100
AcDbLine
  8
0
 62
256
370
-1
  6
ByLayer
 10
125.2398223078724016
 20
6.5084438492022922
 30
0.0
 11
125.1968019334230746
 21
16.5321910958983267
 31
0.0
  0
LINE
  5
9A
100
AcDbEntity
100
AcDbLine
  8
0
 62
256
370
-1
  6
ByLayer
 10
122.5295387175640371
 20
16.5752114703476678
 30
0.0
 11
122.5295387175640371
 21
11.7139091575723366
 31
0.0
  0
LINE
  5
9B
100
AcDbEntity
100
AcDbLine
  8
0
 62
256
370
-1
  6
ByLayer
 10
122.5295387175640371
 20
11.7139091575723366
 30
0.0
 11
105.2353481889296631
 21
11.7139091575723366
 31
0.0
  0
LINE
  5
9C
100
AcDbEntity
100
AcDbLine
  8
0
 62
256
370
-1
  6
ByLayer
 10
105.2353481889296631
 20
11.7139091575723366
 30
0.0
 11
105.2783685633790185
 21
6.5514642236516298
 31
0.0
  0
LINE
  5
9D
100
AcDbEntity
100
AcDbLine
  8
0
 62
256
370
-1
  6
ByLayer
 10
108.6339577704274717
 20
23.845654752285995
 30
0.0
 11
110.3977931228503735
 21
21.8667175276163874
 31
0.0
  0
LINE
  5
9E
100
AcDbEntity
100
AcDbLine
  8
0
 62
256
370
-1
  6
ByLayer
 10
108.2353481889296631
 20
4.1481493558102169
 30
0.0
 11
112.3939381889296669
 21
4.1481493558102169
 31
0.0
  0
LINE
  5
9F
100
AcDbEntity
100
AcDbLine
  8
0
 62
256
370
-1
  6
ByLayer
 10
122.2353481889296631
 20
4.1041493558102164
 30
0.0
 11
118.0547481889296648
 21
4.1041493558102164
 31
0.0
  0
LINE
  5
A0
100
AcDbEntity
100
AcDbLine
  8
0
 62
256
370
-1
  6
ByLayer
 10
112.7353481889296631
 20
0.4609493558102162
 30
0.0
 11
117.7353481889296631
 21
0.4609493558102162
 31
0.0
  0
LINE
  5
A1
100
AcDbEntity
100
AcDbLine
  8
0
 62
256
370
-1
  6
ByLayer
 10
108.2353481889296631
 20
4.1041493558102164
 30
0.0
 11
112.7353481889296631
 21
0.4609493558102162
 31
0.0
  0
LINE
  5
A2
100
AcDbEntity
100
AcDbLine
  8
0
 62
256
370
-1
  6
ByLayer
 10
117.7353481889296631
 20
0.4609493558102162
 30
0.0
 11
122.2353481889296631
 21
4.1041493558102164
 31
0.0
  0
LINE
  5
A3
100
AcDbEntity
100
AcDbLine
  8
0
 62
256
370
-1
  6
ByLayer
 10
139.1838559390165244
 20
4.1041211619776181
 30
0.0
 11
139.1838559390165244
 21
6.527028650964402
 31
0.0
  0
LINE
  5
A4
100
AcDbEntity
100
AcDbLine
  8
0
 62
256
370
-1
  6
ByLayer
 10
139.1838559390165244
 20
6.527028650964402
 30
0.0
 11
146.3644726791046367
 21
6.527028650964402
 31
0.0
  0
LINE
  5
A5
100
AcDbEntity
100
AcDbLine
  8
0
 62
256
370
-1
  6
ByLayer
 10
133.5230629874746739
 20
4.1481740254137396
 30
0.0
 11
133.5010365557566274
 21
6.527028650964402
 31
0.0
  0
LINE
  5
A6
100
AcDbEntity
100
AcDbLine
  8
0
 62
256
370
-1
  6
ByLayer
 10
133.5010365557566274
 20
6.527028650964402
 30
0.0
 11
126.3864991108226974
 21
6.5490550826824627
 31
0.0
  0
ELLIPSE
  5
A7
100
AcDbEntity
100
AcDbEllipse
  8
0
 62
256
370
-1
  6
ByLayer
 10
136.3021791769020012
 20
16.4031299725503104
 30
0.0
 11
-9.9807268722466986
 21
0.0430203744493376
 31
0.0
 40
0.9913608917789132
 41
3.1547117290118596
 42
5.4361396588849606
  0
ELLIPSE
  5
A8
100
AcDbEntity
100
AcDbEllipse
  8
0
 62
256
370
-1
  6
ByLayer
 10
136.3021791769020012
 20
16.4891707214489927
 30
0.0
 11
-7.3134636563876665
 21
-0.0430203744493411
 31
0.0
 40
0.9646379018027058
 41
3.1416652461751298
 42
5.4205521102489271
  0
LINE
  5
A9
100
AcDbEntity
100
AcDbLine
  8
0
 62
256
370
-1
  6
ByLayer
 10
146.3689467980473751
 20
6.5084438492022922
 30
0.0
 11
146.3259264235980481
 21
16.5321910958983267
 31
0.0
  0
LINE
  5
AA
100
AcDbEntity
100
AcDbLine
  8
0
 62
256
370
-1
  6
ByLayer
 10
143.6586632077390107
 20
16.5752114703476678
 30
0.0
 11
143.6586632077390107
 21
11.7139091575723366
 31
0.0
  0
LINE
  5
AB
100
AcDbEntity
100
AcDbLine
  8
0
 62
256
370
-1
  6
ByLayer
 10
143.6586632077390107
 20
11.7139091575723366
 30
0.0
 11
126.3644726791046367
 21
11.7139091575723366
 31
0.0
  0
LINE
  5
AC
100
AcDbEntity
100
AcDbLine
  8
0
 62
256
370
-1
  6
ByLayer
 10
126.3644726791046367
 20
11.7139091575723366
 30
0.0
 11
126.4074930535539778
 21
6.5514642236516298
 31
0.0
  0
LINE
  5
AD
100
AcDbEntity
100
AcDbLine
  8
0
 62
256
370
-1
  6
ByLayer
 10
129.763082260602431
 20
23.845654752285995
 30
0.0
 11
131.526917613025347
 21
21.8667175276163874
 31
0.0
  0
LINE
  5
AE
100
AcDbEntity
100
AcDbLine
  8
0
 62
256
370
-1
  6
ByLayer
 10
129.3644726791046367
 20
4.1481493558102169
 30
0.0
 11
133.5230626791046404
 21
4.1481493558102169
 31
0.0
  0
LINE
  5
AF
100
AcDbEntity
100
AcDbLine
  8
0
 62
256
370
-1
  6
ByLayer
 10
143.3644726791046367
 20
4.1041493558102164
 30
0.0
 11
139.1838726791046383
 21
4.1041493558102164
 31
0.0
  0
LINE
  5
B0
100
AcDbEntity
100
AcDbLine
  8
0
 62
256
370
-1
  6
ByLayer
 10
133.8644726791046367
 20
0.4609493558102162
 30
0.0
 11
138.8644726791046367
 21
0.4609493558102162
 31
0.0
  0
LINE
  5
B1
100
AcDbEntity
100
AcDbLine
  8
0
 62
256
370
-1
  6
ByLayer
 10
129.3644726791046367
 20
4.1041493558102164
 30
0.0
 11
133.8644726791046367
 21
0.4609493558102162
 31
0.0
  0
LINE
  5
B2
100
AcDbEntity
100
AcDbLine
  8
0
 62
256
370
-1
  6
ByLayer
 10
138.8644726791046367
 20
0.4609493558102162
 30
0.0
 11
143.3644726791046367
 21
4.1041493558102164
 31
0.0
  0
LINE
  5
B3
100
AcDbEntity
100
AcDbLine
  8
0
 62
256
370
-1
  6
ByLayer
 10
160.1078432982189383
 20
4.1041211619776181
 30
0.0
 11
160.1078432982189383
 21
6.527028650964402
 31
0.0
  0
LINE
  5
B4
100
AcDbEntity
100
AcDbLine
  8
0
 62
256
370
-1
  6
ByLayer
 10
160.1078432982189383
 20
6.527028650964402
 30
0.0
 11
167.2884600383070222
 21
6.527028650964402
 31
0.0
  0
LINE
  5
B5
100
AcDbEntity
100
AcDbLine
  8
0
 62
256
370
-1
  6
ByLayer
 10
154.4470503466770879
 20
4.1481740254137396
 30
0.0
 11
154.4250239149590129
 21
6.527028650964402
 31
0.0
  0
LINE
  5
B6
100
AcDbEntity
100
AcDbLine
  8
0
 62
256
370
-1
  6
ByLayer
 10
154.4250239149590129
 20
6.527028650964402
 30
0.0
 11
147.3104864700250971
 21
6.5490550826824627
 31
0.0
  0
ELLIPSE
  5
B7
100
AcDbEntity
100
AcDbEllipse
  8
0
 62
256
370
-1
  6
ByLayer
 10
157.2261665361043868
 20
16.4031299725503104
 30
0.0
 11
-9.9807268722466986
 21
0.0430203744493376
 31
0.0
 40
0.9913608917789132
 41
3.1547117290118596
 42
5.4361396588849606
  0
ELLIPSE
  5
B8
100
AcDbEntity
100
AcDbEllipse
  8
0
 62
256
370
-1
  6
ByLayer
 10
157.2261665361043868
 20
16.4891707214489927
 30
0.0
 11
-7.3134636563876665
 21
-0.0430203744493411
 31
0.0
 40
0.9646379018027058
 41
3.1416652461751298
 42
5.4205521102489271
  0
LINE
  5
B9
100
AcDbEntity
100
AcDbLine
  8
0
 62
256
370
-1
  6
ByLayer
 10
167.2929341572497606
 20
6.5084438492022922
 30
0.0
 11
167.2499137828004336
 21
16.5321910958983267
 31
0.0
  0
LINE
  5
BA
100
AcDbEntity
100
AcDbLine
  8
0
 62
256
370
-1
  6
ByLayer
 10
164.5826505669413962
 20
16.5752114703476678
 30
0.0
 11
164.5826505669413962
 21
11.7139091575723366
 31
0.0
  0
LINE
  5
BB
100
AcDbEntity
100
AcDbLine
  8
0
 62
256
370
-1
  6
ByLayer
 10
164.5826505669413962
 20
11.7139091575723366
 30
0.0
 11
147.2884600383070222
 21
11.7139091575723366
 31
0.0
  0
LINE
  5
BC
100
AcDbEntity
100
AcDbLine
  8
0
 62
256
370
-1
  6
ByLayer
 10
147.2884600383070222
 20
11.7139091575723366
 30
0.0
 11
147.3314804127563775
 21
6.5514642236516298
 31
0.0
  0
LINE
  5
BD
100
AcDbEntity
100
AcDbLine
  8
0
 62
256
370
-1
  6
ByLayer
 10
150.6870696198048165
 20
23.845654752285995
 30
0.0
 11
152.4509049722277325
 21
21.8667175276163874
 31
0.0
  0
LINE
  5
BE
100
AcDbEntity
100
AcDbLine
  8
0
 62
256
370
-1
  6
ByLayer
 10
150.2884600383070222
 20
4.1481493558102169
 30
0.0
 11
154.4470500383070259
 21
4.1481493558102169
 31
0.0
  0
LINE
  5
BF
100
AcDbEntity
100
AcDbLine
  8
0
 62
256
370
-1
  6
ByLayer
 10
164.2884600383070222
 20
4.1041493558102164
 30
0.0
 11
160.1078600383070238
 21
4.1041493558102164
 31
0.0
  0
LINE
  5
C0
100
AcDbEntity
100
AcDbLine
  8
0
 62
256
370
-1
  6
ByLayer
 10
154.7884600383070222
 20
0.4609493558102162
 30
0.0
 11
159.7884600383070222
 21
0.4609493558102162
 31
0.0
  0
LINE
  5
C1
100
AcDbEntity
100
AcDbLine
  8
0
 62
256
370
-1
  6
ByLayer
 10
150.2884600383070222
 20
4.1041493558102164
 30
0.0
 11
154.7884600383070222
 21
0.4609493558102162
 31
0.0
  0
LINE
  5
C2
100
AcDbEntity
100
AcDbLine
  8
0
 62
256
370
-1
  6
ByLayer
 10
159.7884600383070222
 20
0.4609493558102162
 30
0.0
 11
164.2884600383070222
 21
4.1041493558102164
 31
0.0
  0
LINE
  5
C3
100
AcDbEntity
100
AcDbLine
  8
0
 62
256
370
-1
  6
ByLayer
 10
13.0245203908844758
 20
30.5668110574394696
 30
0.0
 11
13.0245203908844758
 21
32.9897185464262535
 31
0.0
  0
LINE
  5
C4
100
AcDbEntity
100
AcDbLine
  8
0
 62
256
370
-1
  6
ByLayer
 10
13.0245203908844758
 20
32.9897185464262535
 30
0.0
 11
20.2051371309725738
 21
32.9897185464262535
 31
0.0
  0
LINE
  5
C5
100
AcDbEntity
100
AcDbLine
  8
0
 62
256
370
-1
  6
ByLayer
 10
7.3637274393426253
 20
30.610863920875591
 30
0.0
 11
7.3417010076245646
 21
32.9897185464262535
 31
0.0
  0
LINE
  5
C6
100
AcDbEntity
100
AcDbLine
  8
0
 62
256
370
-1
  6
ByLayer
 10
7.3417010076245646
 20
32.9897185464262535
 30
0.0
 11
0.2271635626906345
 21
33.0117449781443142
 31
0.0
  0
ELLIPSE
  5
C7
100
AcDbEntity
100
AcDbEllipse
  8
0
 62
256
370
-1
  6
ByLayer
 10
10.1428436287699384
 20
42.8658198680121671
 30
0.0
 11
-9.9807268722466986
 21
0.0430203744493376
 31
0.0
 40
0.9913608917789132
 41
3.1547117290118596
 42
5.4361396588849606
  0
ELLIPSE
  5
C8
100
AcDbEntity
100
AcDbEllipse
  8
0
 62
256
370
-1
  6
ByLayer
 10
10.1428436287699384
 20
42.9518606169108423
 30
0.0
 11
-7.3134636563876665
 21
-0.0430203744493411
 31
0.0
 40
0.9646379018027058
 41
3.1416652461751298
 42
5.4205521102489271
  0
LINE
  5
C9
100
AcDbEntity
100
AcDbLine
  8
0
 62
256
370
-1
  6
ByLayer
 10
20.2096112499153122
 20
32.9711337446641437
 30
0.0
 11
20.1665908754659711
 21
42.9948809913601764
 31
0.0
  0
LINE
  5
CA
100
AcDbEntity
100
AcDbLine
  8
0
 62
256
370
-1
  6
ByLayer
 10
17.4993276596069336
 20
43.0379013658095175
 30
0.0
 11
17.4993276596069336
 21
38.1765990530341881
 31
0.0
  0
LINE
  5
CB
100
AcDbEntity
100
AcDbLine
  8
0
 62
256
370
-1
  6
ByLayer
 10
17.4993276596069336
 20
38.1765990530341881
 30
0.0
 11
0.2051371309725738
 21
38.1765990530341881
 31
0.0
  0
LINE
  5
CC
100
AcDbEntity
100
AcDbLine
  8
0
 62
256
370
-1
  6
ByLayer
 10
0.2051371309725738
 20
38.1765990530341881
 30
0.0
 11
0.2481575054219149
 21
33.0141541191134849
 31
0.0
  0
LINE
  5
CD
100
AcDbEntity
100
AcDbLine
  8
0
 62
256
370
-1
  6
ByLayer
 10
3.6037467124703682
 20
50.3083446477478446
 30
0.0
 11
5.3675820648932842
 21
48.3294074230782371
 31
0.0
  0
LINE
  5
CE
100
AcDbEntity
100
AcDbLine
  8
0
 62
256
370
-1
  6
ByLayer
 10
3.2051371309725738
 20
30.6108392512720684
 30
0.0
 11
7.3637271309725776
 21
30.6108392512720684
 31
0.0
  0
LINE
  5
CF
100
AcDbEntity
100
AcDbLine
  8
0
 62
256
370
-1
  6
ByLayer
 10
17.2051371309725738
 20
30.5668392512720679
 30
0.0
 11
13.0245371309725755
 21
30.5668392512720679
 31
0.0
  0
LINE
  5
D0
100
AcDbEntity
100
AcDbLine
  8
0
 62
256
370
-1
  6
ByLayer
 10
7.7051371309725738
 20
26.9236392512720677
 30
0.0
 11
12.7051371309725738
 21
26.9236392512720677
 31
0.0
  0
LINE
  5
D1
100
AcDbEntity
100
AcDbLine
  8
0
 62
256
370
-1
  6
ByLayer
 10
3.2051371309725738
 20
30.5668392512720679
 30
0.0
 11
7.7051371309725738
 21
26.9236392512720677
 31
0.0
  0
LINE
  5
D2
100
AcDbEntity
100
AcDbLine
  8
0
 62
256
370
-1
  6
ByLayer
 10
12.7051371309725738
 20
26.9236392512720677
 30
0.0
 11
17.2051371309725738
 21
30.5668392512720679
 31
0.0
  0
LINE
  5
D3
100
AcDbEntity
100
AcDbLine
  8
0
 62
256
370
-1
  6
ByLayer
 10
33.9485077500868613
 20
30.5668110574394696
 30
0.0
 11
33.9485077500868613
 21
32.9897185464262535
 31
0.0
  0
LINE
  5
D4
100
AcDbEntity
100
AcDbLine
  8
0
 62
256
370
-1
  6
ByLayer
 10
33.9485077500868613
 20
32.9897185464262535
 30
0.0
 11
41.1291244901749664
 21
32.9897185464262535
 31
0.0
  0
LINE
  5
D5
100
AcDbEntity
100
AcDbLine
  8
0
 62
256
370
-1
  6
ByLayer
 10
28.2877147985450108
 20
30.610863920875591
 30
0.0
 11
28.2656883668269501
 21
32.9897185464262535
 31
0.0
  0
LINE
  5
D6
100
AcDbEntity
100
AcDbLine
  8
0
 62
256
370
-1
  6
ByLayer
 10
28.2656883668269501
 20
32.9897185464262535
 30
0.0
 11
21.15115092189302
 21
33.0117449781443142
 31
0.0
  0
ELLIPSE
  5
D7
100
AcDbEntity
100
AcDbEllipse
  8
0
 62
256
370
-1
  6
ByLayer
 10
31.0668309879723239
 20
42.8658198680121671
 30
0.0
 11
-9.9807268722466986
 21
0.0430203744493376
 31
0.0
 40
0.9913608917789132
 41
3.1547117290118596
 42
5.4361396588849606
  0
ELLIPSE
  5
D8
100
AcDbEntity
100
AcDbEllipse
  8
0
 62
256
370
-1
  6
ByLayer
 10
31.0668309879723239
 20
42.9518606169108423
 30
0.0
 11
-7.3134636563876665
 21
-0.0430203744493411
 31
0.0
 40
0.9646379018027058
 41
3.1416652461751298
 42
5.4205521102489271
  0
LINE
  5
D9
100
AcDbEntity
100
AcDbLine
  8
0
 62
256
370
-1
  6
ByLayer
 10
41.1335986091176977
 20
32.9711337446641437
 30
0.0
 11
41.0905782346683637
 21
42.9948809913601764
 31
0.0
  0
LINE
  5
DA
100
AcDbEntity
100
AcDbLine
  8
0
 62
256
370
-1
  6
ByLayer
 10
38.4233150188093333
 20
43.0379013658095175
 30
0.0
 11
38.4233150188093333
 21
38.1765990530341881
 31
0.0
  0
LINE
  5
DB
100
AcDbEntity
100
AcDbLine
  8
0
 62
256
370
-1
  6
ByLayer
 10
38.4233150188093333
 20
38.1765990530341881
 30
0.0
 11
21.1291244901749735
 21
38.1765990530341881
 31
0.0
  0
LINE
  5
DC
100
AcDbEntity
100
AcDbLine
  8
0
 62
256
370
-1
  6
ByLayer
 10
21.1291244901749735
 20
38.1765990530341881
 30
0.0
 11
21.1721448646243005
 21
33.0141541191134849
 31
0.0
  0
LINE
  5
DD
100
AcDbEntity
100
AcDbLine
  8
0
 62
256
370
-1
  6
ByLayer
 10
24.5277340716727679
 20
50.3083446477478446
 30
0.0
 11
26.2915694240956697
 21
48.3294074230782371
 31
0.0
  0
LINE
  5
DE
100
AcDbEntity
100
AcDbLine
  8
0
 62
256
370
-1
  6
ByLayer
 10
24.1291244901749735
 20
30.6108392512720684
 30
0.0
 11
28.2877144901749631
 21
30.6108392512720684
 31
0.0
  0
LINE
  5
DF
100
AcDbEntity
100
AcDbLine
  8
0
 62
256
370
-1
  6
ByLayer
 10
38.1291244901749664
 20
30.5668392512720679
 30
0.0
 11
33.9485244901749681
 21
30.5668392512720679
 31
0.0
  0
LINE
  5
E0
100
AcDbEntity
100
AcDbLine
  8
0
 62
256
370
-1
  6
ByLayer
 10
28.6291244901749735
 20
26.9236392512720677
 30
0.0
 11
33.6291244901749664
 21
26.9236392512720677
 31
0.0
  0
LINE
  5
E1
100
AcDbEntity
100
AcDbLine
  8
0
 62
256
370
-1
  6
ByLayer
 10
24.1291244901749735
 20
30.5668392512720679
 30
0.0
 11
28.6291244901749735
 21
26.9236392512720677
 31
0.0
  0
LINE
  5
E2
100
AcDbEntity
100
AcDbLine
  8
0
 62
256
370
-1
  6
ByLayer
 10
33.6291244901749664
 20
26.9236392512720677
 30
0.0
 11
38.1291244901749664
 21
30.5668392512720679
 31
0.0
  0
LINE
  5
E3
100
AcDbEntity
100
AcDbLine
  8
0
 62
256
370
-1
  6
ByLayer
 10
55.2827693712343944
 20
30.5668110574394696
 30
0.0
 11
55.2827693712343944
 21
32.9897185464262535
 31
0.0
  0
LINE
  5
E4
100
AcDbEntity
100
AcDbLine
  8
0
 62
256
370
-1
  6
ByLayer
 10
55.2827693712343944
 20
32.9897185464262535
 30
0.0
 11
62.4633861113224995
 21
32.9897185464262535
 31
0.0
  0
LINE
  5
E5
100
AcDbEntity
100
AcDbLine
  8
0
 62
256
370
-1
  6
ByLayer
 10
49.6219764196925439
 20
30.610863920875591
 30
0.0
 11
49.5999499879744832
 21
32.9897185464262535
 31
0.0
  0
LINE
  5
E6
100
AcDbEntity
100
AcDbLine
  8
0
 62
256
370
-1
  6
ByLayer
 10
49.5999499879744832
 20
32.9897185464262535
 30
0.0
 11
42.4854125430405674
 21
33.0117449781443142
 31
0.0
  0
ELLIPSE
  5
E7
100
AcDbEntity
100
AcDbEllipse
  8
0
 62
256
370
-1
  6
ByLayer
 10
52.401092609119857
 20
42.8658198680121671
 30
0.0
 11
-9.9807268722466986
 21
0.0430203744493376
 31
0.0
 40
0.9913608917789132
 41
3.1547117290118596
 42
5.4361396588849606
  0
ELLIPSE
  5
E8
100
AcDbEntity
100
AcDbEllipse
  8
0
 62
256
370
-1
  6
ByLayer
 10
52.401092609119857
 20
42.9518606169108423
 30
0.0
 11
-7.3134636563876665
 21
-0.0430203744493411
 31
0.0
 40
0.9646379018027058
 41
3.1416652461751298
 42
5.4205521102489271
  0
LINE
  5
E9
100
AcDbEntity
100
AcDbLine
  8
0
 62
256
370
-1
  6
ByLayer
 10
62.4678602302652379
 20
32.9711337446641437
 30
0.0
 11
62.4248398558158968
 21
42.9948809913601764
 31
0.0
  0
LINE
  5
EA
100
AcDbEntity
100
AcDbLine
  8
0
 62
256
370
-1
  6
ByLayer
 10
59.7575766399568664
 20
43.0379013658095175
 30
0.0
 11
59.7575766399568664
 21
38.1765990530341881
 31
0.0
  0
LINE
  5
EB
100
AcDbEntity
100
AcDbLine
  8
0
 62
256
370
-1
  6
ByLayer
 10
59.7575766399568664
 20
38.1765990530341881
 30
0.0
 11
42.4633861113224995
 21
38.1765990530341881
 31
0.0
  0
LINE
  5
EC
100
AcDbEntity
100
AcDbLine
  8
0
 62
256
370
-1
  6
ByLayer
 10
42.4633861113224995
 20
38.1765990530341881
 30
0.0
 11
42.5064064857718407
 21
33.0141541191134849
 31
0.0
  0
LINE
  5
ED
100
AcDbEntity
100
AcDbLine
  8
0
 62
256
370
-1
  6
ByLayer
 10
45.861995692820301
 20
50.3083446477478446
 30
0.0
 11
47.6258310452432028
 21
48.3294074230782371
 31
0.0
  0
LINE
  5
EE
100
AcDbEntity
100
AcDbLine
  8
0
 62
256
370
-1
  6
ByLayer
 10
45.4633861113224995
 20
30.6108392512720684
 30
0.0
 11
49.6219761113225033
 21
30.6108392512720684
 31
0.0
  0
LINE
  5
EF
100
AcDbEntity
100
AcDbLine
  8
0
 62
256
370
-1
  6
ByLayer
 10
59.4633861113224995
 20
30.5668392512720679
 30
0.0
 11
55.2827861113225012
 21
30.5668392512720679
 31
0.0
  0
LINE
  5
F0
100
AcDbEntity
100
AcDbLine
  8
0
 62
256
370
-1
  6
ByLayer
 10
49.9633861113224995
 20
26.9236392512720677
 30
0.0
 11
54.9633861113224995
 21
26.9236392512720677
 31
0.0
  0
LINE
  5
F1
100
AcDbEntity
100
AcDbLine
  8
0
 62
256
370
-1
  6
ByLayer
 10
45.4633861113224995
 20
30.5668392512720679
 30
0.0
 11
49.9633861113224995
 21
26.9236392512720677
 31
0.0
  0
LINE
  5
F2
100
AcDbEntity
100
AcDbLine
  8
0
 62
256
370
-1
  6
ByLayer
 10
54.9633861113224995
 20
26.9236392512720677
 30
0.0
 11
59.4633861113224995
 21
30.5668392512720679
 31
0.0
  0
LINE
  5
F3
100
AcDbEntity
100
AcDbLine
  8
0
 62
256
370
-1
  6
ByLayer
 10
76.2067567304367799
 20
30.5668110574394696
 30
0.0
 11
76.2067567304367799
 21
32.9897185464262535
 31
0.0
  0
LINE
  5
F4
100
AcDbEntity
100
AcDbLine
  8
0
 62
256
370
-1
  6
ByLayer
 10
76.2067567304367799
 20
32.9897185464262535
 30
0.0
 11
83.3873734705248921
 21
32.9897185464262535
 31
0.0
  0
LINE
  5
F5
100
AcDbEntity
100
AcDbLine
  8
0
 62
256
370
-1
  6
ByLayer
 10
70.5459637788949294
 20
30.610863920875591
 30
0.0
 11
70.5239373471768829
 21
32.9897185464262535
 31
0.0
  0
LINE
  5
F6
100
AcDbEntity
100
AcDbLine
  8
0
 62
256
370
-1
  6
ByLayer
 10
70.5239373471768829
 20
32.9897185464262535
 30
0.0
 11
63.4093999022429529
 21
33.0117449781443142
 31
0.0
  0
ELLIPSE
  5
F7
100
AcDbEntity
100
AcDbEllipse
  8
0
 62
256
370
-1
  6
ByLayer
 10
73.3250799683222567
 20
42.8658198680121671
 30
0.0
 11
-9.9807268722466986
 21
0.0430203744493376
 31
0.0
 40
0.9913608917789132
 41
3.1547117290118596
 42
5.4361396588849606
  0
ELLIPSE
  5
F8
100
AcDbEntity
100
AcDbEllipse
  8
0
 62
256
370
-1
  6
ByLayer
 10
73.3250799683222567
 20
42.9518606169108423
 30
0.0
 11
-7.3134636563876665
 21
-0.0430203744493411
 31
0.0
 40
0.9646379018027058
 41
3.1416652461751298
 42
5.4205521102489271
  0
LINE
  5
F9
100
AcDbEntity
100
AcDbLine
  8
0
 62
256
370
-1
  6
ByLayer
 10
83.3918475894676305
 20
32.9711337446641437
 30
0.0
 11
83.3488272150182894
 21
42.9948809913601764
 31
0.0
  0
LINE
  5
FA
100
AcDbEntity
100
AcDbLine
  8
0
 62
256
370
-1
  6
ByLayer
 10
80.6815639991592661
 20
43.0379013658095175
 30
0.0
 11
80.6815639991592661
 21
38.1765990530341881
 31
0.0
  0
LINE
  5
FB
100
AcDbEntity
100
AcDbLine
  8
0
 62
256
370
-1
  6
ByLayer
 10
80.6815639991592661
 20
38.1765990530341881
 30
0.0
 11
63.3873734705248921
 21
38.1765990530341881
 31
0.0
  0
LINE
  5
FC
100
AcDbEntity
100
AcDbLine
  8
0
 62
256
370
-1
  6
ByLayer
 10
63.3873734705248921
 20
38.1765990530341881
 30
0.0
 11
63.4303938449742333
 21
33.0141541191134849
 31
0.0
  0
LINE
  5
FD
100
AcDbEntity
100
AcDbLine
  8
0
 62
256
370
-1
  6
ByLayer
 10
66.7859830520226865
 20
50.3083446477478446
 30
0.0
 11
68.5498184044456025
 21
48.3294074230782371
 31
0.0
  0
LINE
  5
FE
100
AcDbEntity
100
AcDbLine
  8
0
 62
256
370
-1
  6
ByLayer
 10
66.3873734705248921
 20
30.6108392512720684
 30
0.0
 11
70.5459634705248959
 21
30.6108392512720684
 31
0.0
  0
LINE
  5
FF
100
AcDbEntity
100
AcDbLine
  8
0
 62
256
370
-1
  6
ByLayer
 10
80.3873734705248921
 20
30.5668392512720679
 30
0.0
 11
76.2067734705248938
 21
30.5668392512720679
 31
0.0
  0
LINE
  5
100
100
AcDbEntity
100
AcDbLine
  8
0
 62
256
370
-1
  6
ByLayer
 10
70.8873734705248921
 20
26.9236392512720677
 30
0.0
 11
75.8873734705248921
 21
26.9236392512720677
 31
0.0
  0
LINE
  5
101
100
AcDbEntity
100
AcDbLine
  8
0
 62
256
370
-1
  6
ByLayer
 10
66.3873734705248921
 20
30.5668392512720679
 30
0.0
 11
70.8873734705248921
 21
26.9236392512720677
 31
0.0
  0
LINE
  5
102
100
AcDbEntity
100
AcDbLine
  8
0
 62
256
370
-1
  6
ByLayer
 10
75.8873734705248921
 20
26.9236392512720677
 30
0.0
 11
80.3873734705248921
 21
30.5668392512720679
 31
0.0
  0
LINE
  5
103
100
AcDbEntity
100
AcDbLine
  8
0
 62
256
370
-1
  6
ByLayer
 10
97.5410183515843272
 20
30.7719481884120398
 30
0.0
 11
97.5410183515843272
 21
33.1948556773988273
 31
0.0
  0
LINE
  5
104
100
AcDbEntity
100
AcDbLine
  8
0
 62
256
370
-1
  6
ByLayer
 10
97.5410183515843272
 20
33.1948556773988273
 30
0.0
 11
104.7216350916724252
 21
33.1948556773988273
 31
0.0
  0
LINE
  5
105
100
AcDbEntity
100
AcDbLine
  8
0
 62
256
370
-1
  6
ByLayer
 10
91.8802254000424767
 20
30.8160010518481613
 30
0.0
 11
91.858198968324416
 21
33.1948556773988273
 31
0.0
  0
LINE
  5
106
100
AcDbEntity
100
AcDbLine
  8
0
 62
256
370
-1
  6
ByLayer
 10
91.858198968324416
 20
33.1948556773988273
 30
0.0
 11
84.743661523390486
 21
33.216882109116888
 31
0.0
  0
ELLIPSE
  5
107
100
AcDbEntity
100
AcDbEllipse
  8
0
 62
256
370
-1
  6
ByLayer
 10
94.6593415894697898
 20
43.0709569989847338
 30
0.0
 11
-9.9807268722466986
 21
0.0430203744493376
 31
0.0
 40
0.9913608917789132
 41
3.1547117290118596
 42
5.4361396588849606
  0
ELLIPSE
  5
108
100
AcDbEntity
100
AcDbEllipse
  8
0
 62
256
370
-1
  6
ByLayer
 10
94.6593415894697898
 20
43.1569977478834161
 30
0.0
 11
-7.3134636563876665
 21
-0.0430203744493411
 31
0.0
 40
0.9646379018027058
 41
3.1416652461751298
 42
5.4205521102489271
  0
LINE
  5
109
100
AcDbEntity
100
AcDbLine
  8
0
 62
256
370
-1
  6
ByLayer
 10
104.7261092106151636
 20
33.1762708756367175
 30
0.0
 11
104.6830888361658225
 21
43.2000181223327502
 31
0.0
  0
LINE
  5
10A
100
AcDbEntity
100
AcDbLine
  8
0
 62
256
370
-1
  6
ByLayer
 10
102.0158256203067992
 20
43.2430384967820913
 30
0.0
 11
102.0158256203067992
 21
38.3817361840067619
 31
0.0
  0
LINE
  5
10B
100
AcDbEntity
100
AcDbLine
  8
0
 62
256
370
-1
  6
ByLayer
 10
102.0158256203067992
 20
38.3817361840067619
 30
0.0
 11
84.7216350916724252
 21
38.3817361840067619
 31
0.0
  0
LINE
  5
10C
100
AcDbEntity
100
AcDbLine
  8
0
 62
256
370
-1
  6
ByLayer
 10
84.7216350916724252
 20
38.3817361840067619
 30
0.0
 11
84.7646554661217664
 21
33.2192912500860515
 31
0.0
  0
LINE
  5
10D
100
AcDbEntity
100
AcDbLine
  8
0
 62
256
370
-1
  6
ByLayer
 10
88.1202446731702196
 20
50.5134817787204184
 30
0.0
 11
89.8840800255931356
 21
48.5345445540508109
 31
0.0
  0
LINE
  5
10E
100
AcDbEntity
100
AcDbLine
  8
0
 62
256
370
-1
  6
ByLayer
 10
87.7216350916724252
 20
30.8159763822446422
 30
0.0
 11
91.880225091672429
 21
30.8159763822446422
 31
0.0
  0
LINE
  5
10F
100
AcDbEntity
100
AcDbLine
  8
0
 62
256
370
-1
  6
ByLayer
 10
101.7216350916724252
 20
30.7719763822446382
 30
0.0
 11
97.5410350916724269
 21
30.7719763822446382
 31
0.0
  0
LINE
  5
110
100
AcDbEntity
100
AcDbLine
  8
0
 62
256
370
-1
  6
ByLayer
 10
92.2216350916724252
 20
27.1287763822446379
 30
0.0
 11
97.2216350916724252
 21
27.1287763822446379
 31
0.0
  0
LINE
  5
111
100
AcDbEntity
100
AcDbLine
  8
0
 62
256
370
-1
  6
ByLayer
 10
87.7216350916724252
 20
30.7719763822446382
 30
0.0
 11
92.2216350916724252
 21
27.1287763822446379
 31
0.0
  0
LINE
  5
112
100
AcDbEntity
100
AcDbLine
  8
0
 62
256
370
-1
  6
ByLayer
 10
97.2216350916724252
 20
27.1287763822446379
 30
0.0
 11
101.7216350916724252
 21
30.7719763822446382
 31
0.0
  0
LINE
  5
113
100
AcDbEntity
100
AcDbLine
  8
0
 62
256
370
-1
  6
ByLayer
 10
118.4650057107867127
 20
30.7719481884120398
 30
0.0
 11
118.4650057107867127
 21
33.1948556773988273
 31
0.0
  0
LINE
  5
114
100
AcDbEntity
100
AcDbLine
  8
0
 62
256
370
-1
  6
ByLayer
 10
118.4650057107867127
 20
33.1948556773988273
 30
0.0
 11
125.6456224508748107
 21
33.1948556773988273
 31
0.0
  0
LINE
  5
115
100
AcDbEntity
100
AcDbLine
  8
0
 62
256
370
-1
  6
ByLayer
 10
112.8042127592448622
 20
30.8160010518481613
 30
0.0
 11
112.7821863275268015
 21
33.1948556773988273
 31
0.0
  0
LINE
  5
116
100
AcDbEntity
100
AcDbLine
  8
0
 62
256
370
-1
  6
ByLayer
 10
112.7821863275268015
 20
33.1948556773988273
 30
0.0
 11
105.6676488825928857
 21
33.216882109116888
 31
0.0
  0
ELLIPSE
  5
117
100
AcDbEntity
100
AcDbEllipse
  8
0
 62
256
370
-1
  6
ByLayer
 10
115.5833289486721753
 20
43.0709569989847338
 30
0.0
 11
-9.9807268722466986
 21
0.0430203744493376
 31
0.0
 40
0.9913608917789132
 41
3.1547117290118596
 42
5.4361396588849606
  0
ELLIPSE
  5
118
100
AcDbEntity
100
AcDbEllipse
  8
0
 62
256
370
-1
  6
ByLayer
 10
115.5833289486721753
 20
43.1569977478834161
 30
0.0
 11
-7.3134636563876665
 21
-0.0430203744493411
 31
0.0
 40
0.9646379018027058
 41
3.1416652461751298
 42
5.4205521102489271
  0
LINE
  5
119
100
AcDbEntity
100
AcDbLine
  8
0
 62
256
370
-1
  6
ByLayer
 10
125.6500965698175492
 20
33.1762708756367175
 30
0.0
 11
125.6070761953682222
 21
43.2000181223327502
 31
0.0
  0
LINE
  5
11A
100
AcDbEntity
100
AcDbLine
  8
0
 62
256
370
-1
  6
ByLayer
 10
122.9398129795091847
 20
43.2430384967820913
 30
0.0
 11
122.9398129795091847
 21
38.3817361840067619
 31
0.0
  0
LINE
  5
11B
100
AcDbEntity
100
AcDbLine
  8
0
 62
256
370
-1
  6
ByLayer
 10
122.9398129795091847
 20
38.3817361840067619
 30
0.0
 11
105.6456224508748107
 21
38.3817361840067619
 31
0.0
  0
LINE
  5
11C
100
AcDbEntity
100
AcDbLine
  8
0
 62
256
370
-1
  6
ByLayer
 10
105.6456224508748107
 20
38.3817361840067619
 30
0.0
 11
105.6886428253241661
 21
33.2192912500860515
 31
0.0
  0
LINE
  5
11D
100
AcDbEntity
100
AcDbLine
  8
0
 62
256
370
-1
  6
ByLayer
 10
109.0442320323726193
 20
50.5134817787204184
 30
0.0
 11
110.8080673847955211
 21
48.5345445540508109
 31
0.0
  0
LINE
  5
11E
100
AcDbEntity
100
AcDbLine
  8
0
 62
256
370
-1
  6
ByLayer
 10
108.6456224508748107
 20
30.8159763822446422
 30
0.0
 11
112.8042124508748145
 21
30.8159763822446422
 31
0.0
  0
LINE
  5
11F
100
AcDbEntity
100
AcDbLine
  8
0
 62
256
370
-1
  6
ByLayer
 10
122.6456224508748107
 20
30.7719763822446382
 30
0.0
 11
118.4650224508748124
 21
30.7719763822446382
 31
0.0
  0
LINE
  5
120
100
AcDbEntity
100
AcDbLine
  8
0
 62
256
370
-1
  6
ByLayer
 10
113.1456224508748107
 20
27.1287763822446379
 30
0.0
 11
118.1456224508748107
 21
27.1287763822446379
 31
0.0
  0
LINE
  5
121
100
AcDbEntity
100
AcDbLine
  8
0
 62
256
370
-1
  6
ByLayer
 10
108.6456224508748107
 20
30.7719763822446382
 30
0.0
 11
113.1456224508748107
 21
27.1287763822446379
 31
0.0
  0
LINE
  5
122
100
AcDbEntity
100
AcDbLine
  8
0
 62
256
370
-1
  6
ByLayer
 10
118.1456224508748107
 20
27.1287763822446379
 30
0.0
 11
122.6456224508748107
 21
30.7719763822446382
 31
0.0
  0
LINE
  5
123
100
AcDbEntity
100
AcDbLine
  8
0
 62
256
370
-1
  6
ByLayer
 10
139.594130200961672
 20
30.7719481884120398
 30
0.0
 11
139.594130200961672
 21
33.1948556773988273
 31
0.0
  0
LINE
  5
124
100
AcDbEntity
100
AcDbLine
  8
0
 62
256
370
-1
  6
ByLayer
 10
139.594130200961672
 20
33.1948556773988273
 30
0.0
 11
146.7747469410497843
 21
33.1948556773988273
 31
0.0
  0
LINE
  5
125
100
AcDbEntity
100
AcDbLine
  8
0
 62
256
370
-1
  6
ByLayer
 10
133.9333372494198215
 20
30.8160010518481613
 30
0.0
 11
133.911310817701775
 21
33.1948556773988273
 31
0.0
  0
LINE
  5
126
100
AcDbEntity
100
AcDbLine
  8
0
 62
256
370
-1
  6
ByLayer
 10
133.911310817701775
 20
33.1948556773988273
 30
0.0
 11
126.796773372767845
 21
33.216882109116888
 31
0.0
  0
ELLIPSE
  5
127
100
AcDbEntity
100
AcDbEllipse
  8
0
 62
256
370
-1
  6
ByLayer
 10
136.7124534388471488
 20
43.0709569989847338
 30
0.0
 11
-9.9807268722466986
 21
0.0430203744493376
 31
0.0
 40
0.9913608917789132
 41
3.1547117290118596
 42
5.4361396588849606
  0
ELLIPSE
  5
128
100
AcDbEntity
100
AcDbEllipse
  8
0
 62
256
370
-1
  6
ByLayer
 10
136.7124534388471488
 20
43.1569977478834161
 30
0.0
 11
-7.3134636563876665
 21
-0.0430203744493411
 31
0.0
 40
0.9646379018027058
 41
3.1416652461751298
 42
5.4205521102489271
  0
LINE
  5
129
100
AcDbEntity
100
AcDbLine
  8
0
 62
256
370
-1
  6
ByLayer
 10
146.7792210599925227
 20
33.1762708756367175
 30
0.0
 11
146.7362006855431957
 21
43.2000181223327502
 31
0.0
  0
LINE
  5
12A
100
AcDbEntity
100
AcDbLine
  8
0
 62
256
370
-1
  6
ByLayer
 10
144.0689374696841583
 20
43.2430384967820913
 30
0.0
 11
144.0689374696841583
 21
38.3817361840067619
 31
0.0
  0
LINE
  5
12B
100
AcDbEntity
100
AcDbLine
  8
0
 62
256
370
-1
  6
ByLayer
 10
144.0689374696841583
 20
38.3817361840067619
 30
0.0
 11
126.7747469410497843
 21
38.3817361840067619
 31
0.0
  0
LINE
  5
12C
100
AcDbEntity
100
AcDbLine
  8
0
 62
256
370
-1
  6
ByLayer
 10
126.7747469410497843
 20
38.3817361840067619
 30
0.0
 11
126.8177673154991254
 21
33.2192912500860515
 31
0.0
  0
LINE
  5
12D
100
AcDbEntity
100
AcDbLine
  8
0
 62
256
370
-1
  6
ByLayer
 10
130.1733565225475786
 20
50.5134817787204184
 30
0.0
 11
131.9371918749704946
 21
48.5345445540508109
 31
0.0
  0
LINE
  5
12E
100
AcDbEntity
100
AcDbLine
  8
0
 62
256
370
-1
  6
ByLayer
 10
129.7747469410497843
 20
30.8159763822446422
 30
0.0
 11
133.933336941049788
 21
30.8159763822446422
 31
0.0
  0
LINE
  5
12F
100
AcDbEntity
100
AcDbLine
  8
0
 62
256
370
-1
  6
ByLayer
 10
143.7747469410497843
 20
30.7719763822446382
 30
0.0
 11
139.5941469410497859
 21
30.7719763822446382
 31
0.0
  0
LINE
  5
130
100
AcDbEntity
100
AcDbLine
  8
0
 62
256
370
-1
  6
ByLayer
 10
134.2747469410497843
 20
27.1287763822446379
 30
0.0
 11
139.2747469410497843
 21
27.1287763822446379
 31
0.0
  0
LINE
  5
131
100
AcDbEntity
100
AcDbLine
  8
0
 62
256
370
-1
  6
ByLayer
 10
129.7747469410497843
 20
30.7719763822446382
 30
0.0
 11
134.2747469410497843
 21
27.1287763822446379
 31
0.0
  0
LINE
  5
132
100
AcDbEntity
100
AcDbLine
  8
0
 62
256
370
-1
  6
ByLayer
 10
139.2747469410497843
 20
27.1287763822446379
 30
0.0
 11
143.7747469410497843
 21
30.7719763822446382
 31
0.0
  0
LINE
  5
133
100
AcDbEntity
100
AcDbLine
  8
0
 62
256
370
-1
  6
ByLayer
 10
160.5181175601640859
 20
30.7719481884120398
 30
0.0
 11
160.5181175601640859
 21
33.1948556773988273
 31
0.0
  0
LINE
  5
134
100
AcDbEntity
100
AcDbLine
  8
0
 62
256
370
-1
  6
ByLayer
 10
160.5181175601640859
 20
33.1948556773988273
 30
0.0
 11
167.6987343002521698
 21
33.1948556773988273
 31
0.0
  0
LINE
  5
135
100
AcDbEntity
100
AcDbLine
  8
0
 62
256
370
-1
  6
ByLayer
 10
154.8573246086222355
 20
30.8160010518481613
 30
0.0
 11
154.8352981769041605
 21
33.1948556773988273
 31
0.0
  0
LINE
  5
136
100
AcDbEntity
100
AcDbLine
  8
0
 62
256
370
-1
  6
ByLayer
 10
154.8352981769041605
 20
33.1948556773988273
 30
0.0
 11
147.7207607319702447
 21
33.216882109116888
 31
0.0
  0
ELLIPSE
  5
137
100
AcDbEntity
100
AcDbEllipse
  8
0
 62
256
370
-1
  6
ByLayer
 10
157.6364407980495344
 20
43.0709569989847338
 30
0.0
 11
-9.9807268722466986
 21
0.0430203744493376
 31
0.0
 40
0.9913608917789132
 41
3.1547117290118596
 42
5.4361396588849606
  0
ELLIPSE
  5
138
100
AcDbEntity
100
AcDbEllipse
  8
0
 62
256
370
-1
  6
ByLayer
 10
157.6364407980495344
 20
43.1569977478834161
 30
0.0
 11
-7.3134636563876665
 21
-0.0430203744493411
 31
0.0
 40
0.9646379018027058
 41
3.1416652461751298
 42
5.4205521102489271
  0
LINE
  5
139
100
AcDbEntity
100
AcDbLine
  8
0
 62
256
370
-1
  6
ByLayer
 10
167.7032084191949082
 20
33.1762708756367175
 30
0.0
 11
167.6601880447455812
 21
43.2000181223327502
 31
0.0
  0
LINE
  5
13A
100
AcDbEntity
100
AcDbLine
  8
0
 62
256
370
-1
  6
ByLayer
 10
164.9929248288865438
 20
43.2430384967820913
 30
0.0
 11
164.9929248288865438
 21
38.3817361840067619
 31
0.0
  0
LINE
  5
13B
100
AcDbEntity
100
AcDbLine
  8
0
 62
256
370
-1
  6
ByLayer
 10
164.9929248288865438
 20
38.3817361840067619
 30
0.0
 11
147.6987343002521698
 21
38.3817361840067619
 31
0.0
  0
LINE
  5
13C
100
AcDbEntity
100
AcDbLine
  8
0
 62
256
370
-1
  6
ByLayer
 10
147.6987343002521698
 20
38.3817361840067619
 30
0.0
 11
147.7417546747015251
 21
33.2192912500860515
 31
0.0
  0
LINE
  5
13D
100
AcDbEntity
100
AcDbLine
  8
0
 62
256
370
-1
  6
ByLayer
 10
151.0973438817499641
 20
50.5134817787204184
 30
0.0
 11
152.8611792341728801
 21
48.5345445540508109
 31
0.0
  0
LINE
  5
13E
100
AcDbEntity
100
AcDbLine
  8
0
 62
256
370
-1
  6
ByLayer
 10
150.6987343002521698
 20
30.8159763822446422
 30
0.0
 11
154.8573243002521735
 21
30.8159763822446422
 31
0.0
  0
LINE
  5
13F
100
AcDbEntity
100
AcDbLine
  8
0
 62
256
370
-1
  6
ByLayer
 10
164.6987343002521698
 20
30.7719763822446382
 30
0.0
 11
160.5181343002521714
 21
30.7719763822446382
 31
0.0
  0
LINE
  5
140
100
AcDbEntity
100
AcDbLine
  8
0
 62
256
370
-1
  6
ByLayer
 10
155.1987343002521698
 20
27.1287763822446379
 30
0.0
 11
160.1987343002521698
 21
27.1287763822446379
 31
0.0
  0
LINE
  5
141
100
AcDbEntity
100
AcDbLine
  8
0
 62
256
370
-1
  6
ByLayer
 10
150.6987343002521698
 20
30.7719763822446382
 30
0.0
 11
155.1987343002521698
 21
27.1287763822446379
 31
0.0
  0
LINE
  5
142
100
AcDbEntity
100
AcDbLine
  8
0
 62
256
370
-1
  6
ByLayer
 10
160.1987343002521698
 20
27.1287763822446379
 30
0.0
 11
164.6987343002521698
 21
30.7719763822446382
 31
0.0
  0
LINE
  5
143
100
AcDbEntity
100
AcDbLine
  8
0
 62
256
370
-1
  6
ByLayer
 10
13.0245203908844758
 20
57.8500494767916109
 30
0.0
 11
13.0245203908844758
 21
60.2729569657783912
 31
0.0
  0
LINE
  5
144
100
AcDbEntity
100
AcDbLine
  8
0
 62
256
370
-1
  6
ByLayer
 10
13.0245203908844758
 20
60.2729569657783912
 30
0.0
 11
20.2051371309725738
 21
60.2729569657783912
 31
0.0
  0
LINE
  5
145
100
AcDbEntity
100
AcDbLine
  8
0
 62
256
370
-1
  6
ByLayer
 10
7.3637274393426253
 20
57.8941023402277324
 30
0.0
 11
7.3417010076245646
 21
60.2729569657783912
 31
0.0
  0
LINE
  5
146
100
AcDbEntity
100
AcDbLine
  8
0
 62
256
370
-1
  6
ByLayer
 10
7.3417010076245646
 20
60.2729569657783912
 30
0.0
 11
0.2271635626906345
 21
60.294983397496452
 31
0.0
  0
ELLIPSE
  5
147
100
AcDbEntity
100
AcDbEllipse
  8
0
 62
256
370
-1
  6
ByLayer
 10
10.1428436287699384
 20
70.1490582873642978
 30
0.0
 11
-9.9807268722466986
 21
0.0430203744493376
 31
0.0
 40
0.9913608917789132
 41
3.1547117290118596
 42
5.4361396588849606
  0
ELLIPSE
  5
148
100
AcDbEntity
100
AcDbEllipse
  8
0
 62
256
370
-1
  6
ByLayer
 10
10.1428436287699384
 20
70.2350990362629801
 30
0.0
 11
-7.3134636563876665
 21
-0.0430203744493411
 31
0.0
 40
0.9646379018027058
 41
3.1416652461751298
 42
5.4205521102489271
  0
LINE
  5
149
100
AcDbEntity
100
AcDbLine
  8
0
 62
256
370
-1
  6
ByLayer
 10
20.2096112499153122
 20
60.2543721640162815
 30
0.0
 11
20.1665908754659711
 21
70.2781194107123213
 31
0.0
  0
LINE
  5
14A
100
AcDbEntity
100
AcDbLine
  8
0
 62
256
370
-1
  6
ByLayer
 10
17.4993276596069336
 20
70.3211397851616624
 30
0.0
 11
17.4993276596069336
 21
65.4598374723863259
 31
0.0
  0
LINE
  5
14B
100
AcDbEntity
100
AcDbLine
  8
0
 62
256
370
-1
  6
ByLayer
 10
17.4993276596069336
 20
65.4598374723863259
 30
0.0
 11
0.2051371309725738
 21
65.4598374723863259
 31
0.0
  0
LINE
  5
14C
100
AcDbEntity
100
AcDbLine
  8
0
 62
256
370
-1
  6
ByLayer
 10
0.2051371309725738
 20
65.4598374723863259
 30
0.0
 11
0.2481575054219149
 21
60.2973925384656155
 31
0.0
  0
LINE
  5
14D
100
AcDbEntity
100
AcDbLine
  8
0
 62
256
370
-1
  6
ByLayer
 10
3.6037467124703682
 20
77.5915830670999895
 30
0.0
 11
5.3675820648932842
 21
75.612645842430382
 31
0.0
  0
LINE
  5
14E
100
AcDbEntity
100
AcDbLine
  8
0
 62
256
370
-1
  6
ByLayer
 10
3.2051371309725738
 20
57.8940776706242062
 30
0.0
 11
7.3637271309725776
 21
57.8940776706242062
 31
0.0
  0
LINE
  5
14F
100
AcDbEntity
100
AcDbLine
  8
0
 62
256
370
-1
  6
ByLayer
 10
17.2051371309725738
 20
57.8500776706242021
 30
0.0
 11
13.0245371309725755
 21
57.8500776706242021
 31
0.0
  0
LINE
  5
150
100
AcDbEntity
100
AcDbLine
  8
0
 62
256
370
-1
  6
ByLayer
 10
7.7051371309725738
 20
54.206877670624209
 30
0.0
 11
12.7051371309725738
 21
54.206877670624209
 31
0.0
  0
LINE
  5
151
100
AcDbEntity
100
AcDbLine
  8
0
 62
256
370
-1
  6
ByLayer
 10
3.2051371309725738
 20
57.8500776706242021
 30
0.0
 11
7.7051371309725738
 21
54.206877670624209
 31
0.0
  0
LINE
  5
152
100
AcDbEntity
100
AcDbLine
  8
0
 62
256
370
-1
  6
ByLayer
 10
12.7051371309725738
 20
54.206877670624209
 30
0.0
 11
17.2051371309725738
 21
57.8500776706242021
 31
0.0
  0
LINE
  5
153
100
AcDbEntity
100
AcDbLine
  8
0
 62
256
370
-1
  6
ByLayer
 10
33.9485077500868613
 20
57.8500494767916109
 30
0.0
 11
33.9485077500868613
 21
60.2729569657783912
 31
0.0
  0
LINE
  5
154
100
AcDbEntity
100
AcDbLine
  8
0
 62
256
370
-1
  6
ByLayer
 10
33.9485077500868613
 20
60.2729569657783912
 30
0.0
 11
41.1291244901749664
 21
60.2729569657783912
 31
0.0
  0
LINE
  5
155
100
AcDbEntity
100
AcDbLine
  8
0
 62
256
370
-1
  6
ByLayer
 10
28.2877147985450108
 20
57.8941023402277324
 30
0.0
 11
28.2656883668269501
 21
60.2729569657783912
 31
0.0
  0
LINE
  5
156
100
AcDbEntity
100
AcDbLine
  8
0
 62
256
370
-1
  6
ByLayer
 10
28.2656883668269501
 20
60.2729569657783912
 30
0.0
 11
21.15115092189302
 21
60.294983397496452
 31
0.0
  0
ELLIPSE
  5
157
100
AcDbEntity
100
AcDbEllipse
  8
0
 62
256
370
-1
  6
ByLayer
 10
31.0668309879723239
 20
70.1490582873642978
 30
0.0
 11
-9.9807268722466986
 21
0.0430203744493376
 31
0.0
 40
0.9913608917789132
 41
3.1547117290118596
 42
5.4361396588849606
  0
ELLIPSE
  5
158
100
AcDbEntity
100
AcDbEllipse
  8
0
 62
256
370
-1
  6
ByLayer
 10
31.0668309879723239
 20
70.2350990362629801
 30
0.0
 11
-7.3134636563876665
 21
-0.0430203744493411
 31
0.0
 40
0.9646379018027058
 41
3.1416652461751298
 42
5.4205521102489271
  0
LINE
  5
159
100
AcDbEntity
100
AcDbLine
  8
0
 62
256
370
-1
  6
ByLayer
 10
41.1335986091176977
 20
60.2543721640162815
 30
0.0
 11
41.0905782346683637
 21
70.2781194107123213
 31
0.0
  0
LINE
  5
15A
100
AcDbEntity
100
AcDbLine
  8
0
 62
256
370
-1
  6
ByLayer
 10
38.4233150188093333
 20
70.3211397851616624
 30
0.0
 11
38.4233150188093333
 21
65.4598374723863259
 31
0.0
  0
LINE
  5
15B
100
AcDbEntity
100
AcDbLine
  8
0
 62
256
370
-1
  6
ByLayer
 10
38.4233150188093333
 20
65.4598374723863259
 30
0.0
 11
21.1291244901749735
 21
65.4598374723863259
 31
0.0
  0
LINE
  5
15C
100
AcDbEntity
100
AcDbLine
  8
0
 62
256
370
-1
  6
ByLayer
 10
21.1291244901749735
 20
65.4598374723863259
 30
0.0
 11
21.1721448646243005
 21
60.2973925384656155
 31
0.0
  0
LINE
  5
15D
100
AcDbEntity
100
AcDbLine
  8
0
 62
256
370
-1
  6
ByLayer
 10
24.5277340716727679
 20
77.5915830670999895
 30
0.0
 11
26.2915694240956697
 21
75.612645842430382
 31
0.0
  0
LINE
  5
15E
100
AcDbEntity
100
AcDbLine
  8
0
 62
256
370
-1
  6
ByLayer
 10
24.1291244901749735
 20
57.8940776706242062
 30
0.0
 11
28.2877144901749631
 21
57.8940776706242062
 31
0.0
  0
LINE
  5
15F
100
AcDbEntity
100
AcDbLine
  8
0
 62
256
370
-1
  6
ByLayer
 10
38.1291244901749664
 20
57.8500776706242021
 30
0.0
 11
33.9485244901749681
 21
57.8500776706242021
 31
0.0
  0
LINE
  5
160
100
AcDbEntity
100
AcDbLine
  8
0
 62
256
370
-1
  6
ByLayer
 10
28.6291244901749735
 20
54.206877670624209
 30
0.0
 11
33.6291244901749664
 21
54.206877670624209
 31
0.0
  0
LINE
  5
161
100
AcDbEntity
100
AcDbLine
  8
0
 62
256
370
-1
  6
ByLayer
 10
24.1291244901749735
 20
57.8500776706242021
 30
0.0
 11
28.6291244901749735
 21
54.206877670624209
 31
0.0
  0
LINE
  5
162
100
AcDbEntity
100
AcDbLine
  8
0
 62
256
370
-1
  6
ByLayer
 10
33.6291244901749664
 20
54.206877670624209
 30
0.0
 11
38.1291244901749664
 21
57.8500776706242021
 31
0.0
  0
LINE
  5
163
100
AcDbEntity
100
AcDbLine
  8
0
 62
256
370
-1
  6
ByLayer
 10
55.2827693712343944
 20
57.8500494767916109
 30
0.0
 11
55.2827693712343944
 21
60.2729569657783912
 31
0.0
  0
LINE
  5
164
100
AcDbEntity
100
AcDbLine
  8
0
 62
256
370
-1
  6
ByLayer
 10
55.2827693712343944
 20
60.2729569657783912
 30
0.0
 11
62.4633861113224995
 21
60.2729569657783912
 31
0.0
  0
LINE
  5
165
100
AcDbEntity
100
AcDbLine
  8
0
 62
256
370
-1
  6
ByLayer
 10
49.6219764196925439
 20
57.8941023402277324
 30
0.0
 11
49.5999499879744832
 21
60.2729569657783912
 31
0.0
  0
LINE
  5
166
100
AcDbEntity
100
AcDbLine
  8
0
 62
256
370
-1
  6
ByLayer
 10
49.5999499879744832
 20
60.2729569657783912
 30
0.0
 11
42.4854125430405674
 21
60.294983397496452
 31
0.0
  0
ELLIPSE
  5
167
100
AcDbEntity
100
AcDbEllipse
  8
0
 62
256
370
-1
  6
ByLayer
 10
52.401092609119857
 20
70.1490582873642978
 30
0.0
 11
-9.9807268722466986
 21
0.0430203744493376
 31
0.0
 40
0.9913608917789132
 41
3.1547117290118596
 42
5.4361396588849606
  0
ELLIPSE
  5
168
100
AcDbEntity
100
AcDbEllipse
  8
0
 62
256
370
-1
  6
ByLayer
 10
52.401092609119857
 20
70.2350990362629801
 30
0.0
 11
-7.3134636563876665
 21
-0.0430203744493411
 31
0.0
 40
0.9646379018027058
 41
3.1416652461751298
 42
5.4205521102489271
  0
LINE
  5
169
100
AcDbEntity
100
AcDbLine
  8
0
 62
256
370
-1
  6
ByLayer
 10
62.4678602302652379
 20
60.2543721640162815
 30
0.0
 11
62.4248398558158968
 21
70.2781194107123213
 31
0.0
  0
LINE
  5
16A
100
AcDbEntity
100
AcDbLine
  8
0
 62
256
370
-1
  6
ByLayer
 10
59.7575766399568664
 20
70.3211397851616624
 30
0.0
 11
59.7575766399568664
 21
65.4598374723863259
 31
0.0
  0
LINE
  5
16B
100
AcDbEntity
100
AcDbLine
  8
0
 62
256
370
-1
  6
ByLayer
 10
59.7575766399568664
 20
65.4598374723863259
 30
0.0
 11
42.4633861113224995
 21
65.4598374723863259
 31
0.0
  0
LINE
  5
16C
100
AcDbEntity
100
AcDbLine
  8
0
 62
256
370
-1
  6
ByLayer
 10
42.4633861113224995
 20
65.4598374723863259
 30
0.0
 11
42.5064064857718407
 21
60.2973925384656155
 31
0.0
  0
LINE
  5
16D
100
AcDbEntity
100
AcDbLine
  8
0
 62
256
370
-1
  6
ByLayer
 10
45.861995692820301
 20
77.5915830670999895
 30
0.0
 11
47.6258310452432028
 21
75.612645842430382
 31
0.0
  0
LINE
  5
16E
100
AcDbEntity
100
AcDbLine
  8
0
 62
256
370
-1
  6
ByLayer
 10
45.4633861113224995
 20
57.8940776706242062
 30
0.0
 11
49.6219761113225033
 21
57.8940776706242062
 31
0.0
  0
LINE
  5
16F
100
AcDbEntity
100
AcDbLine
  8
0
 62
256
370
-1
  6
ByLayer
 10
59.4633861113224995
 20
57.8500776706242021
 30
0.0
 11
55.2827861113225012
 21
57.8500776706242021
 31
0.0
  0
LINE
  5
170
100
AcDbEntity
100
AcDbLine
  8
0
 62
256
370
-1
  6
ByLayer
 10
49.9633861113224995
 20
54.206877670624209
 30
0.0
 11
54.9633861113224995
 21
54.206877670624209
 31
0.0
  0
LINE
  5
171
100
AcDbEntity
100
AcDbLine
  8
0
 62
256
370
-1
  6
ByLayer
 10
45.4633861113224995
 20
57.8500776706242021
 30
0.0
 11
49.9633861113224995
 21
54.206877670624209
 31
0.0
  0
LINE
  5
172
100
AcDbEntity
100
AcDbLine
  8
0
 62
256
370
-1
  6
ByLayer
 10
54.9633861113224995
 20
54.206877670624209
 30
0.0
 11
59.4633861113224995
 21
57.8500776706242021
 31
0.0
  0
LINE
  5
173
100
AcDbEntity
100
AcDbLine
  8
0
 62
256
370
-1
  6
ByLayer
 10
76.2067567304367799
 20
57.8500494767916109
 30
0.0
 11
76.2067567304367799
 21
60.2729569657783912
 31
0.0
  0
LINE
  5
174
100
AcDbEntity
100
AcDbLine
  8
0
 62
256
370
-1
  6
ByLayer
 10
76.2067567304367799
 20
60.2729569657783912
 30
0.0
 11
83.3873734705248921
 21
60.2729569657783912
 31
0.0
  0
LINE
  5
175
100
AcDbEntity
100
AcDbLine
  8
0
 62
256
370
-1
  6
ByLayer
 10
70.5459637788949294
 20
57.8941023402277324
 30
0.0
 11
70.5239373471768829
 21
60.2729569657783912
 31
0.0
  0
LINE
  5
176
100
AcDbEntity
100
AcDbLine
  8
0
 62
256
370
-1
  6
ByLayer
 10
70.5239373471768829
 20
60.2729569657783912
 30
0.0
 11
63.4093999022429529
 21
60.294983397496452
 31
0.0
  0
ELLIPSE
  5
177
100
AcDbEntity
100
AcDbEllipse
  8
0
 62
256
370
-1
  6
ByLayer
 10
73.3250799683222567
 20
70.1490582873642978
 30
0.0
 11
-9.9807268722466986
 21
0.0430203744493376
 31
0.0
 40
0.9913608917789132
 41
3.1547117290118596
 42
5.4361396588849606
  0
ELLIPSE
  5
178
100
AcDbEntity
100
AcDbEllipse
  8
0
 62
256
370
-1
  6
ByLayer
 10
73.3250799683222567
 20
70.2350990362629801
 30
0.0
 11
-7.3134636563876665
 21
-0.0430203744493411
 31
0.0
 40
0.9646379018027058
 41
3.1416652461751298
 42
5.4205521102489271
  0
LINE
  5
179
100
AcDbEntity
100
AcDbLine
  8
0
 62
256
370
-1
  6
ByLayer
 10
83.3918475894676305
 20
60.2543721640162815
 30
0.0
 11
83.3488272150182894
 21
70.2781194107123213
 31
0.0
  0
LINE
  5
17A
100
AcDbEntity
100
AcDbLine
  8
0
 62
256
370
-1
  6
ByLayer
 10
80.6815639991592661
 20
70.3211397851616624
 30
0.0
 11
80.6815639991592661
 21
65.4598374723863259
 31
0.0
  0
LINE
  5
17B
100
AcDbEntity
100
AcDbLine
  8
0
 62
256
370
-1
  6
ByLayer
 10
80.6815639991592661
 20
65.4598374723863259
 30
0.0
 11
63.3873734705248921
 21
65.4598374723863259
 31
0.0
  0
LINE
  5
17C
100
AcDbEntity
100
AcDbLine
  8
0
 62
256
370
-1
  6
ByLayer
 10
63.3873734705248921
 20
65.4598374723863259
 30
0.0
 11
63.4303938449742333
 21
60.2973925384656155
 31
0.0
  0
LINE
  5
17D
100
AcDbEntity
100
AcDbLine
  8
0
 62
256
370
-1
  6
ByLayer
 10
66.7859830520226865
 20
77.5915830670999895
 30
0.0
 11
68.5498184044456025
 21
75.612645842430382
 31
0.0
  0
LINE
  5
17E
100
AcDbEntity
100
AcDbLine
  8
0
 62
256
370
-1
  6
ByLayer
 10
66.3873734705248921
 20
57.8940776706242062
 30
0.0
 11
70.5459634705248959
 21
57.8940776706242062
 31
0.0
  0
LINE
  5
17F
100
AcDbEntity
100
AcDbLine
  8
0
 62
256
370
-1
  6
ByLayer
 10
80.3873734705248921
 20
57.8500776706242021
 30
0.0
 11
76.2067734705248938
 21
57.8500776706242021
 31
0.0
  0
LINE
  5
180
100
AcDbEntity
100
AcDbLine
  8
0
 62
256
370
-1
  6
ByLayer
 10
70.8873734705248921
 20
54.206877670624209
 30
0.0
 11
75.8873734705248921
 21
54.206877670624209
 31
0.0
  0
LINE
  5
181
100
AcDbEntity
100
AcDbLine
  8
0
 62
256
370
-1
  6
ByLayer
 10
66.3873734705248921
 20
57.8500776706242021
 30
0.0
 11
70.8873734705248921
 21
54.206877670624209
 31
0.0
  0
LINE
  5
182
100
AcDbEntity
100
AcDbLine
  8
0
 62
256
370
-1
  6
ByLayer
 10
75.8873734705248921
 20
54.206877670624209
 30
0.0
 11
80.3873734705248921
 21
57.8500776706242021
 31
0.0
  0
LINE
  5
183
100
AcDbEntity
100
AcDbLine
  8
0
 62
256
370
-1
  6
ByLayer
 10
97.5410183515843272
 20
58.0551866077641776
 30
0.0
 11
97.5410183515843272
 21
60.478094096750965
 31
0.0
  0
LINE
  5
184
100
AcDbEntity
100
AcDbLine
  8
0
 62
256
370
-1
  6
ByLayer
 10
97.5410183515843272
 20
60.478094096750965
 30
0.0
 11
104.7216350916724252
 21
60.478094096750965
 31
0.0
  0
LINE
  5
185
100
AcDbEntity
100
AcDbLine
  8
0
 62
256
370
-1
  6
ByLayer
 10
91.8802254000424767
 20
58.0992394712002991
 30
0.0
 11
91.858198968324416
 21
60.478094096750965
 31
0.0
  0
LINE
  5
186
100
AcDbEntity
100
AcDbLine
  8
0
 62
256
370
-1
  6
ByLayer
 10
91.858198968324416
 20
60.478094096750965
 30
0.0
 11
84.743661523390486
 21
60.5001205284690258
 31
0.0
  0
ELLIPSE
  5
187
100
AcDbEntity
100
AcDbEllipse
  8
0
 62
256
370
-1
  6
ByLayer
 10
94.6593415894697898
 20
70.3541954183368716
 30
0.0
 11
-9.9807268722466986
 21
0.0430203744493376
 31
0.0
 40
0.9913608917789132
 41
3.1547117290118596
 42
5.4361396588849606
  0
ELLIPSE
  5
188
100
AcDbEntity
100
AcDbEllipse
  8
0
 62
256
370
-1
  6
ByLayer
 10
94.6593415894697898
 20
70.4402361672355539
 30
0.0
 11
-7.3134636563876665
 21
-0.0430203744493411
 31
0.0
 40
0.9646379018027058
 41
3.1416652461751298
 42
5.4205521102489271
  0
LINE
  5
189
100
AcDbEntity
100
AcDbLine
  8
0
 62
256
370
-1
  6
ByLayer
 10
104.7261092106151636
 20
60.4595092949888553
 30
0.0
 11
104.6830888361658225
 21
70.4832565416848809
 31
0.0
  0
LINE
  5
18A
100
AcDbEntity
100
AcDbLine
  8
0
 62
256
370
-1
  6
ByLayer
 10
102.0158256203067992
 20
70.5262769161342362
 30
0.0
 11
102.0158256203067992
 21
65.6649746033588997
 31
0.0
  0
LINE
  5
18B
100
AcDbEntity
100
AcDbLine
  8
0
 62
256
370
-1
  6
ByLayer
 10
102.0158256203067992
 20
65.6649746033588997
 30
0.0
 11
84.7216350916724252
 21
65.6649746033588997
 31
0.0
  0
LINE
  5
18C
100
AcDbEntity
100
AcDbLine
  8
0
 62
256
370
-1
  6
ByLayer
 10
84.7216350916724252
 20
65.6649746033588997
 30
0.0
 11
84.7646554661217664
 21
60.5025296694381893
 31
0.0
  0
LINE
  5
18D
100
AcDbEntity
100
AcDbLine
  8
0
 62
256
370
-1
  6
ByLayer
 10
88.1202446731702196
 20
77.7967201980725633
 30
0.0
 11
89.8840800255931356
 21
75.8177829734029558
 31
0.0
  0
LINE
  5
18E
100
AcDbEntity
100
AcDbLine
  8
0
 62
256
370
-1
  6
ByLayer
 10
87.7216350916724252
 20
58.09921480159678
 30
0.0
 11
91.880225091672429
 21
58.09921480159678
 31
0.0
  0
LINE
  5
18F
100
AcDbEntity
100
AcDbLine
  8
0
 62
256
370
-1
  6
ByLayer
 10
101.7216350916724252
 20
58.0552148015967759
 30
0.0
 11
97.5410350916724269
 21
58.0552148015967759
 31
0.0
  0
LINE
  5
190
100
AcDbEntity
100
AcDbLine
  8
0
 62
256
370
-1
  6
ByLayer
 10
92.2216350916724252
 20
54.4120148015967757
 30
0.0
 11
97.2216350916724252
 21
54.4120148015967757
 31
0.0
  0
LINE
  5
191
100
AcDbEntity
100
AcDbLine
  8
0
 62
256
370
-1
  6
ByLayer
 10
87.7216350916724252
 20
58.0552148015967759
 30
0.0
 11
92.2216350916724252
 21
54.4120148015967757
 31
0.0
  0
LINE
  5
192
100
AcDbEntity
100
AcDbLine
  8
0
 62
256
370
-1
  6
ByLayer
 10
97.2216350916724252
 20
54.4120148015967757
 30
0.0
 11
101.7216350916724252
 21
58.0552148015967759
 31
0.0
  0
LINE
  5
193
100
AcDbEntity
100
AcDbLine
  8
0
 62
256
370
-1
  6
ByLayer
 10
118.4650057107867127
 20
58.0551866077641776
 30
0.0
 11
118.4650057107867127
 21
60.478094096750965
 31
0.0
  0
LINE
  5
194
100
AcDbEntity
100
AcDbLine
  8
0
 62
256
370
-1
  6
ByLayer
 10
118.4650057107867127
 20
60.478094096750965
 30
0.0
 11
125.6456224508748107
 21
60.478094096750965
 31
0.0
  0
LINE
  5
195
100
AcDbEntity
100
AcDbLine
  8
0
 62
256
370
-1
  6
ByLayer
 10
112.8042127592448622
 20
58.0992394712002991
 30
0.0
 11
112.7821863275268015
 21
60.478094096750965
 31
0.0
  0
LINE
  5
196
100
AcDbEntity
100
AcDbLine
  8
0
 62
256
370
-1
  6
ByLayer
 10
112.7821863275268015
 20
60.478094096750965
 30
0.0
 11
105.6676488825928857
 21
60.5001205284690258
 31
0.0
  0
ELLIPSE
  5
197
100
AcDbEntity
100
AcDbEllipse
  8
0
 62
256
370
-1
  6
ByLayer
 10
115.5833289486721753
 20
70.3541954183368716
 30
0.0
 11
-9.9807268722466986
 21
0.0430203744493376
 31
0.0
 40
0.9913608917789132
 41
3.1547117290118596
 42
5.4361396588849606
  0
ELLIPSE
  5
198
100
AcDbEntity
100
AcDbEllipse
  8
0
 62
256
370
-1
  6
ByLayer
 10
115.5833289486721753
 20
70.4402361672355539
 30
0.0
 11
-7.3134636563876665
 21
-0.0430203744493411
 31
0.0
 40
0.9646379018027058
 41
3.1416652461751298
 42
5.4205521102489271
  0
LINE
  5
199
100
AcDbEntity
100
AcDbLine
  8
0
 62
256
370
-1
  6
ByLayer
 10
125.6500965698175492
 20
60.4595092949888553
 30
0.0
 11
125.6070761953682222
 21
70.4832565416848809
 31
0.0
  0
LINE
  5
19A
100
AcDbEntity
100
AcDbLine
  8
0
 62
256
370
-1
  6
ByLayer
 10
122.9398129795091847
 20
70.5262769161342362
 30
0.0
 11
122.9398129795091847
 21
65.6649746033588997
 31
0.0
  0
LINE
  5
19B
100
AcDbEntity
100
AcDbLine
  8
0
 62
256
370
-1
  6
ByLayer
 10
122.9398129795091847
 20
65.6649746033588997
 30
0.0
 11
105.6456224508748107
 21
65.6649746033588997
 31
0.0
  0
LINE
  5
19C
100
AcDbEntity
100
AcDbLine
  8
0
 62
256
370
-1
  6
ByLayer
 10
105.6456224508748107
 20
65.6649746033588997
 30
0.0
 11
105.6886428253241661
 21
60.5025296694381893
 31
0.0
  0
LINE
  5
19D
100
AcDbEntity
100
AcDbLine
  8
0
 62
256
370
-1
  6
ByLayer
 10
109.0442320323726193
 20
77.7967201980725633
 30
0.0
 11
110.8080673847955211
 21
75.8177829734029558
 31
0.0
  0
LINE
  5
19E
100
AcDbEntity
100
AcDbLine
  8
0
 62
256
370
-1
  6
ByLayer
 10
108.6456224508748107
 20
58.09921480159678
 30
0.0
 11
112.8042124508748145
 21
58.09921480159678
 31
0.0
  0
LINE
  5
19F
100
AcDbEntity
100
AcDbLine
  8
0
 62
256
370
-1
  6
ByLayer
 10
122.6456224508748107
 20
58.0552148015967759
 30
0.0
 11
118.4650224508748124
 21
58.0552148015967759
 31
0.0
  0
LINE
  5
1A0
100
AcDbEntity
100
AcDbLine
  8
0
 62
256
370
-1
  6
ByLayer
 10
113.1456224508748107
 20
54.4120148015967757
 30
0.0
 11
118.1456224508748107
 21
54.4120148015967757
 31
0.0
  0
LINE
  5
1A1
100
AcDbEntity
100
AcDbLine
  8
0
 62
256
370
-1
  6
ByLayer
 10
108.6456224508748107
 20
58.0552148015967759
 30
0.0
 11
113.1456224508748107
 21
54.4120148015967757
 31
0.0
  0
LINE
  5
1A2
100
AcDbEntity
100
AcDbLine
  8
0
 62
256
370
-1
  6
ByLayer
 10
118.1456224508748107
 20
54.4120148015967757
 30
0.0
 11
122.6456224508748107
 21
58.0552148015967759
 31
0.0
  0
LINE
  5
1A3
100
AcDbEntity
100
AcDbLine
  8
0
 62
256
370
-1
  6
ByLayer
 10
139.594130200961672
 20
58.0551866077641776
 30
0.0
 11
139.594130200961672
 21
60.478094096750965
 31
0.0
  0
LINE
  5
1A4
100
AcDbEntity
100
AcDbLine
  8
0
 62
256
370
-1
  6
ByLayer
 10
139.594130200961672
 20
60.478094096750965
 30
0.0
 11
146.7747469410497843
 21
60.478094096750965
 31
0.0
  0
LINE
  5
1A5
100
AcDbEntity
100
AcDbLine
  8
0
 62
256
370
-1
  6
ByLayer
 10
133.9333372494198215
 20
58.0992394712002991
 30
0.0
 11
133.911310817701775
 21
60.478094096750965
 31
0.0
  0
LINE
  5
1A6
100
AcDbEntity
100
AcDbLine
  8
0
 62
256
370
-1
  6
ByLayer
 10
133.911310817701775
 20
60.478094096750965
 30
0.0
 11
126.796773372767845
 21
60.5001205284690258
 31
0.0
  0
ELLIPSE
  5
1A7
100
AcDbEntity
100
AcDbEllipse
  8
0
 62
256
370
-1
  6
ByLayer
 10
136.7124534388471488
 20
70.3541954183368716
 30
0.0
 11
-9.9807268722466986
 21
0.0430203744493376
 31
0.0
 40
0.9913608917789132
 41
3.1547117290118596
 42
5.4361396588849606
  0
ELLIPSE
  5
1A8
100
AcDbEntity
100
AcDbEllipse
  8
0
 62
256
370
-1
  6
ByLayer
 10
136.7124534388471488
 20
70.4402361672355539
 30
0.0
 11
-7.3134636563876665
 21
-0.0430203744493411
 31
0.0
 40
0.9646379018027058
 41
3.1416652461751298
 42
5.4205521102489271
  0
LINE
  5
1A9
100
AcDbEntity
100
AcDbLine
  8
0
 62
256
370
-1
  6
ByLayer
 10
146.7792210599925227
 20
60.4595092949888553
 30
0.0
 11
146.7362006855431957
 21
70.4832565416848809
 31
0.0
  0
LINE
  5
1AA
100
AcDbEntity
100
AcDbLine
  8
0
 62
256
370
-1
  6
ByLayer
 10
144.0689374696841583
 20
70.5262769161342362
 30
0.0
 11
144.0689374696841583
 21
65.6649746033588997
 31
0.0
  0
LINE
  5
1AB
100
AcDbEntity
100
AcDbLine
  8
0
 62
256
370
-1
  6
ByLayer
 10
144.0689374696841583
 20
65.6649746033588997
 30
0.0
 11
126.7747469410497843
 21
65.6649746033588997
 31
0.0
  0
LINE
  5
1AC
100
AcDbEntity
100
AcDbLine
  8
0
 62
256
370
-1
  6
ByLayer
 10
126.7747469410497843
 20
65.6649746033588997
 30
0.0
 11
126.8177673154991254
 21
60.5025296694381893
 31
0.0
  0
LINE
  5
1AD
100
AcDbEntity
100
AcDbLine
  8
0
 62
256
370
-1
  6
ByLayer
 10
130.1733565225475786
 20
77.7967201980725633
 30
0.0
 11
131.9371918749704946
 21
75.8177829734029558
 31
0.0
  0
LINE
  5
1AE
100
AcDbEntity
100
AcDbLine
  8
0
 62
256
370
-1
  6
ByLayer
 10
129.7747469410497843
 20
58.09921480159678
 30
0.0
 11
133.933336941049788
 21
58.09921480159678
 31
0.0
  0
LINE
  5
1AF
100
AcDbEntity
100
AcDbLine
  8
0
 62
256
370
-1
  6
ByLayer
 10
143.7747469410497843
 20
58.0552148015967759
 30
0.0
 11
139.5941469410497859
 21
58.0552148015967759
 31
0.0
  0
LINE
  5
1B0
100
AcDbEntity
100
AcDbLine
  8
0
 62
256
370
-1
  6
ByLayer
 10
134.2747469410497843
 20
54.4120148015967757
 30
0.0
 11
139.2747469410497843
 21
54.4120148015967757
 31
0.0
  0
LINE
  5
1B1
100
AcDbEntity
100
AcDbLine
  8
0
 62
256
370
-1
  6
ByLayer
 10
129.7747469410497843
 20
58.0552148015967759
 30
0.0
 11
134.2747469410497843
 21
54.4120148015967757
 31
0.0
  0
LINE
  5
1B2
100
AcDbEntity
100
AcDbLine
  8
0
 62
256
370
-1
  6
ByLayer
 10
139.2747469410497843
 20
54.4120148015967757
 30
0.0
 11
143.7747469410497843
 21
58.0552148015967759
 31
0.0
  0
LINE
  5
1B3
100
AcDbEntity
100
AcDbLine
  8
0
 62
256
370
-1
  6
ByLayer
 10
160.5181175601640859
 20
58.0551866077641776
 30
0.0
 11
160.5181175601640859
 21
60.478094096750965
 31
0.0
  0
LINE
  5
1B4
100
AcDbEntity
100
AcDbLine
  8
0
 62
256
370
-1
  6
ByLayer
 10
160.5181175601640859
 20
60.478094096750965
 30
0.0
 11
167.6987343002521698
 21
60.478094096750965
 31
0.0
  0
LINE
  5
1B5
100
AcDbEntity
100
AcDbLine
  8
0
 62
256
370
-1
  6
ByLayer
 10
154.8573246086222355
 20
58.0992394712002991
 30
0.0
 11
154.8352981769041605
 21
60.478094096750965
 31
0.0
  0
LINE
  5
1B6
100
AcDbEntity
100
AcDbLine
  8
0
 62
256
370
-1
  6
ByLayer
 10
154.8352981769041605
 20
60.478094096750965
 30
0.0
 11
147.7207607319702447
 21
60.5001205284690258
 31
0.0
  0
ELLIPSE
  5
1B7
100
AcDbEntity
100
AcDbEllipse
  8
0
 62
256
370
-1
  6
ByLayer
 10
157.6364407980495344
 20
70.3541954183368716
 30
0.0
 11
-9.9807268722466986
 21
0.0430203744493376
 31
0.0
 40
0.9913608917789132
 41
3.1547117290118596
 42
5.4361396588849606
  0
ELLIPSE
  5
1B8
100
AcDbEntity
100
AcDbEllipse
  8
0
 62
256
370
-1
  6
ByLayer
 10
157.6364407980495344
 20
70.4402361672355539
 30
0.0
 11
-7.3134636563876665
 21
-0.0430203744493411
 31
0.0
 40
0.9646379018027058
 41
3.1416652461751298
 42
5.4205521102489271
  0
LINE
  5
1B9
100
AcDbEntity
100
AcDbLine
  8
0
 62
256
370
-1
  6
ByLayer
 10
167.7032084191949082
 20
60.4595092949888553
 30
0.0
 11
167.6601880447455812
 21
70.4832565416848809
 31
0.0
  0
LINE
  5
1BA
100
AcDbEntity
100
AcDbLine
  8
0
 62
256
370
-1
  6
ByLayer
 10
164.9929248288865438
 20
70.5262769161342362
 30
0.0
 11
164.9929248288865438
 21
65.6649746033588997
 31
0.0
  0
LINE
  5
1BB
100
AcDbEntity
100
AcDbLine
  8
0
 62
256
370
-1
  6
ByLayer
 10
164.9929248288865438
 20
65.6649746033588997
 30
0.0
 11
147.6987343002521698
 21
65.6649746033588997
 31
0.0
  0
LINE
  5
1BC
100
AcDbEntity
100
AcDbLine
  8
0
 62
256
370
-1
  6
ByLayer
 10
147.6987343002521698
 20
65.6649746033588997
 30
0.0
 11
147.7417546747015251
 21
60.5025296694381893
 31
0.0
  0
LINE
  5
1BD
100
AcDbEntity
100
AcDbLine
  8
0
 62
256
370
-1
  6
ByLayer
 10
151.0973438817499641
 20
77.7967201980725633
 30
0.0
 11
152.8611792341728801
 21
75.8177829734029558
 31
0.0
  0
LINE
  5
1BE
100
AcDbEntity
100
AcDbLine
  8
0
 62
256
370
-1
  6
ByLayer
 10
150.6987343002521698
 20
58.09921480159678
 30
0.0
 11
154.8573243002521735
 21
58.09921480159678
 31
0.0
  0
LINE
  5
1BF
100
AcDbEntity
100
AcDbLine
  8
0
 62
256
370
-1
  6
ByLayer
 10
164.6987343002521698
 20
58.0552148015967759
 30
0.0
 11
160.5181343002521714
 21
58.0552148015967759
 31
0.0
  0
LINE
  5
1C0
100
AcDbEntity
100
AcDbLine
  8
0
 62
256
370
-1
  6
ByLayer
 10
155.1987343002521698
 20
54.4120148015967757
 30
0.0
 11
160.1987343002521698
 21
54.4120148015967757
 31
0.0
  0
LINE
  5
1C1
100
AcDbEntity
100
AcDbLine
  8
0
 62
256
370
-1
  6
ByLayer
 10
150.6987343002521698
 20
58.0552148015967759
 30
0.0
 11
155.1987343002521698
 21
54.4120148015967757
 31
0.0
  0
LINE
  5
1C2
100
AcDbEntity
100
AcDbLine
  8
0
 62
256
370
-1
  6
ByLayer
 10
160.1987343002521698
 20
54.4120148015967757
 30
0.0
 11
164.6987343002521698
 21
58.0552148015967759
 31
0.0
  0
LINE
  5
1C3
100
AcDbEntity
100
AcDbLine
  8
0
 62
256
370
-1
  6
ByLayer
 10
13.0245203908844758
 20
84.9281507651711678
 30
0.0
 11
13.0245203908844758
 21
87.3510582541579481
 31
0.0
  0
LINE
  5
1C4
100
AcDbEntity
100
AcDbLine
  8
0
 62
256
370
-1
  6
ByLayer
 10
13.0245203908844758
 20
87.3510582541579481
 30
0.0
 11
20.2051371309725738
 21
87.3510582541579481
 31
0.0
  0
LINE
  5
1C5
100
AcDbEntity
100
AcDbLine
  8
0
 62
256
370
-1
  6
ByLayer
 10
7.3637274393426253
 20
84.9722036286072893
 30
0.0
 11
7.3417010076245646
 21
87.3510582541579481
 31
0.0
  0
LINE
  5
1C6
100
AcDbEntity
100
AcDbLine
  8
0
 62
256
370
-1
  6
ByLayer
 10
7.3417010076245646
 20
87.3510582541579481
 30
0.0
 11
0.2271635626906345
 21
87.3730846858760088
 31
0.0
  0
ELLIPSE
  5
1C7
100
AcDbEntity
100
AcDbEllipse
  8
0
 62
256
370
-1
  6
ByLayer
 10
10.1428436287699384
 20
97.2271595757438547
 30
0.0
 11
-9.9807268722466986
 21
0.0430203744493376
 31
0.0
 40
0.9913608917789132
 41
3.1547117290118596
 42
5.4361396588849606
  0
ELLIPSE
  5
1C8
100
AcDbEntity
100
AcDbEllipse
  8
0
 62
256
370
-1
  6
ByLayer
 10
10.1428436287699384
 20
97.313200324642537
 30
0.0
 11
-7.3134636563876665
 21
-0.0430203744493411
 31
0.0
 40
0.9646379018027058
 41
3.1416652461751298
 42
5.4205521102489271
  0
LINE
  5
1C9
100
AcDbEntity
100
AcDbLine
  8
0
 62
256
370
-1
  6
ByLayer
 10
20.2096112499153122
 20
87.3324734523958455
 30
0.0
 11
20.1665908754659711
 21
97.3562206990918781
 31
0.0
  0
LINE
  5
1CA
100
AcDbEntity
100
AcDbLine
  8
0
 62
256
370
-1
  6
ByLayer
 10
17.4993276596069336
 20
97.3992410735412193
 30
0.0
 11
17.4993276596069336
 21
92.5379387607658828
 31
0.0
  0
LINE
  5
1CB
100
AcDbEntity
100
AcDbLine
  8
0
 62
256
370
-1
  6
ByLayer
 10
17.4993276596069336
 20
92.5379387607658828
 30
0.0
 11
0.2051371309725738
 21
92.5379387607658828
 31
0.0
  0
LINE
  5
1CC
100
AcDbEntity
100
AcDbLine
  8
0
 62
256
370
-1
  6
ByLayer
 10
0.2051371309725738
 20
92.5379387607658828
 30
0.0
 11
0.2481575054219149
 21
87.3754938268451724
 31
0.0
  0
LINE
  5
1CD
100
AcDbEntity
100
AcDbLine
  8
0
 62
256
370
-1
  6
ByLayer
 10
3.6037467124703682
 20
104.6696843554795464
 30
0.0
 11
5.3675820648932842
 21
102.6907471308099389
 31
0.0
  0
LINE
  5
1CE
100
AcDbEntity
100
AcDbLine
  8
0
 62
256
370
-1
  6
ByLayer
 10
3.2051371309725738
 20
84.9721789590037702
 30
0.0
 11
7.3637271309725776
 21
84.9721789590037702
 31
0.0
  0
LINE
  5
1CF
100
AcDbEntity
100
AcDbLine
  8
0
 62
256
370
-1
  6
ByLayer
 10
17.2051371309725738
 20
84.928178959003759
 30
0.0
 11
13.0245371309725755
 21
84.928178959003759
 31
0.0
  0
LINE
  5
1D0
100
AcDbEntity
100
AcDbLine
  8
0
 62
256
370
-1
  6
ByLayer
 10
7.7051371309725738
 20
81.2849789590037659
 30
0.0
 11
12.7051371309725738
 21
81.2849789590037659
 31
0.0
  0
LINE
  5
1D1
100
AcDbEntity
100
AcDbLine
  8
0
 62
256
370
-1
  6
ByLayer
 10
3.2051371309725738
 20
84.928178959003759
 30
0.0
 11
7.7051371309725738
 21
81.2849789590037659
 31
0.0
  0
LINE
  5
1D2
100
AcDbEntity
100
AcDbLine
  8
0
 62
256
370
-1
  6
ByLayer
 10
12.7051371309725738
 20
81.2849789590037659
 30
0.0
 11
17.2051371309725738
 21
84.928178959003759
 31
0.0
  0
LINE
  5
1D3
100
AcDbEntity
100
AcDbLine
  8
0
 62
256
370
-1
  6
ByLayer
 10
33.9485077500868613
 20
84.9281507651711678
 30
0.0
 11
33.9485077500868613
 21
87.3510582541579481
 31
0.0
  0
LINE
  5
1D4
100
AcDbEntity
100
AcDbLine
  8
0
 62
256
370
-1
  6
ByLayer
 10
33.9485077500868613
 20
87.3510582541579481
 30
0.0
 11
41.1291244901749664
 21
87.3510582541579481
 31
0.0
  0
LINE
  5
1D5
100
AcDbEntity
100
AcDbLine
  8
0
 62
256
370
-1
  6
ByLayer
 10
28.2877147985450108
 20
84.9722036286072893
 30
0.0
 11
28.2656883668269501
 21
87.3510582541579481
 31
0.0
  0
LINE
  5
1D6
100
AcDbEntity
100
AcDbLine
  8
0
 62
256
370
-1
  6
ByLayer
 10
28.2656883668269501
 20
87.3510582541579481
 30
0.0
 11
21.15115092189302
 21
87.3730846858760088
 31
0.0
  0
ELLIPSE
  5
1D7
100
AcDbEntity
100
AcDbEllipse
  8
0
 62
256
370
-1
  6
ByLayer
 10
31.0668309879723239
 20
97.2271595757438547
 30
0.0
 11
-9.9807268722466986
 21
0.0430203744493376
 31
0.0
 40
0.9913608917789132
 41
3.1547117290118596
 42
5.4361396588849606
  0
ELLIPSE
  5
1D8
100
AcDbEntity
100
AcDbEllipse
  8
0
 62
256
370
-1
  6
ByLayer
 10
31.0668309879723239
 20
97.313200324642537
 30
0.0
 11
-7.3134636563876665
 21
-0.0430203744493411
 31
0.0
 40
0.9646379018027058
 41
3.1416652461751298
 42
5.4205521102489271
  0
LINE
  5
1D9
100
AcDbEntity
100
AcDbLine
  8
0
 62
256
370
-1
  6
ByLayer
 10
41.1335986091176977
 20
87.3324734523958455
 30
0.0
 11
41.0905782346683637
 21
97.3562206990918781
 31
0.0
  0
LINE
  5
1DA
100
AcDbEntity
100
AcDbLine
  8
0
 62
256
370
-1
  6
ByLayer
 10
38.4233150188093333
 20
97.3992410735412193
 30
0.0
 11
38.4233150188093333
 21
92.5379387607658828
 31
0.0
  0
LINE
  5
1DB
100
AcDbEntity
100
AcDbLine
  8
0
 62
256
370
-1
  6
ByLayer
 10
38.4233150188093333
 20
92.5379387607658828
 30
0.0
 11
21.1291244901749735
 21
92.5379387607658828
 31
0.0
  0
LINE
  5
1DC
100
AcDbEntity
100
AcDbLine
  8
0
 62
256
370
-1
  6
ByLayer
 10
21.1291244901749735
 20
92.5379387607658828
 30
0.0
 11
21.1721448646243005
 21
87.3754938268451724
 31
0.0
  0
LINE
  5
1DD
100
AcDbEntity
100
AcDbLine
  8
0
 62
256
370
-1
  6
ByLayer
 10
24.5277340716727679
 20
104.6696843554795464
 30
0.0
 11
26.2915694240956697
 21
102.6907471308099389
 31
0.0
  0
LINE
  5
1DE
100
AcDbEntity
100
AcDbLine
  8
0
 62
256
370
-1
  6
ByLayer
 10
24.1291244901749735
 20
84.9721789590037702
 30
0.0
 11
28.2877144901749631
 21
84.9721789590037702
 31
0.0
  0
LINE
  5
1DF
100
AcDbEntity
100
AcDbLine
  8
0
 62
256
370
-1
  6
ByLayer
 10
38.1291244901749664
 20
84.928178959003759
 30
0.0
 11
33.9485244901749681
 21
84.928178959003759
 31
0.0
  0
LINE
  5
1E0
100
AcDbEntity
100
AcDbLine
  8
0
 62
256
370
-1
  6
ByLayer
 10
28.6291244901749735
 20
81.2849789590037659
 30
0.0
 11
33.6291244901749664
 21
81.2849789590037659
 31
0.0
  0
LINE
  5
1E1
100
AcDbEntity
100
AcDbLine
  8
0
 62
256
370
-1
  6
ByLayer
 10
24.1291244901749735
 20
84.928178959003759
 30
0.0
 11
28.6291244901749735
 21
81.2849789590037659
 31
0.0
  0
LINE
  5
1E2
100
AcDbEntity
100
AcDbLine
  8
0
 62
256
370
-1
  6
ByLayer
 10
33.6291244901749664
 20
81.2849789590037659
 30
0.0
 11
38.1291244901749664
 21
84.928178959003759
 31
0.0
  0
LINE
  5
1E3
100
AcDbEntity
100
AcDbLine
  8
0
 62
256
370
-1
  6
ByLayer
 10
55.2827693712343944
 20
84.9281507651711678
 30
0.0
 11
55.2827693712343944
 21
87.3510582541579481
 31
0.0
  0
LINE
  5
1E4
100
AcDbEntity
100
AcDbLine
  8
0
 62
256
370
-1
  6
ByLayer
 10
55.2827693712343944
 20
87.3510582541579481
 30
0.0
 11
62.4633861113224995
 21
87.3510582541579481
 31
0.0
  0
LINE
  5
1E5
100
AcDbEntity
100
AcDbLine
  8
0
 62
256
370
-1
  6
ByLayer
 10
49.6219764196925439
 20
84.9722036286072893
 30
0.0
 11
49.5999499879744832
 21
87.3510582541579481
 31
0.0
  0
LINE
  5
1E6
100
AcDbEntity
100
AcDbLine
  8
0
 62
256
370
-1
  6
ByLayer
 10
49.5999499879744832
 20
87.3510582541579481
 30
0.0
 11
42.4854125430405674
 21
87.3730846858760088
 31
0.0
  0
ELLIPSE
  5
1E7
100
AcDbEntity
100
AcDbEllipse
  8
0
 62
256
370
-1
  6
ByLayer
 10
52.401092609119857
 20
97.2271595757438547
 30
0.0
 11
-9.9807268722466986
 21
0.0430203744493376
 31
0.0
 40
0.9913608917789132
 41
3.1547117290118596
 42
5.4361396588849606
  0
ELLIPSE
  5
1E8
100
AcDbEntity
100
AcDbEllipse
  8
0
 62
256
370
-1
  6
ByLayer
 10
52.401092609119857
 20
97.313200324642537
 30
0.0
 11
-7.3134636563876665
 21
-0.0430203744493411
 31
0.0
 40
0.9646379018027058
 41
3.1416652461751298
 42
5.4205521102489271
  0
LINE
  5
1E9
100
AcDbEntity
100
AcDbLine
  8
0
 62
256
370
-1
  6
ByLayer
 10
62.4678602302652379
 20
87.3324734523958455
 30
0.0
 11
62.4248398558158968
 21
97.3562206990918781
 31
0.0
  0
LINE
  5
1EA
100
AcDbEntity
100
AcDbLine
  8
0
 62
256
370
-1
  6
ByLayer
 10
59.7575766399568664
 20
97.3992410735412193
 30
0.0
 11
59.7575766399568664
 21
92.5379387607658828
 31
0.0
  0
LINE
  5
1EB
100
AcDbEntity
100
AcDbLine
  8
0
 62
256
370
-1
  6
ByLayer
 10
59.7575766399568664
 20
92.5379387607658828
 30
0.0
 11
42.4633861113224995
 21
92.5379387607658828
 31
0.0
  0
LINE
  5
1EC
100
AcDbEntity
100
AcDbLine
  8
0
 62
256
370
-1
  6
ByLayer
 10
42.4633861113224995
 20
92.5379387607658828
 30
0.0
 11
42.5064064857718407
 21
87.3754938268451724
 31
0.0
  0
LINE
  5
1ED
100
AcDbEntity
100
AcDbLine
  8
0
 62
256
370
-1
  6
ByLayer
 10
45.861995692820301
 20
104.6696843554795464
 30
0.0
 11
47.6258310452432028
 21
102.6907471308099389
 31
0.0
  0
LINE
  5
1EE
100
AcDbEntity
100
AcDbLine
  8
0
 62
256
370
-1
  6
ByLayer
 10
45.4633861113224995
 20
84.9721789590037702
 30
0.0
 11
49.6219761113225033
 21
84.9721789590037702
 31
0.0
  0
LINE
  5
1EF
100
AcDbEntity
100
AcDbLine
  8
0
 62
256
370
-1
  6
ByLayer
 10
59.4633861113224995
 20
84.928178959003759
 30
0.0
 11
55.2827861113225012
 21
84.928178959003759
 31
0.0
  0
LINE
  5
1F0
100
AcDbEntity
100
AcDbLine
  8
0
 62
256
370
-1
  6
ByLayer
 10
49.9633861113224995
 20
81.2849789590037659
 30
0.0
 11
54.9633861113224995
 21
81.2849789590037659
 31
0.0
  0
LINE
  5
1F1
100
AcDbEntity
100
AcDbLine
  8
0
 62
256
370
-1
  6
ByLayer
 10
45.4633861113224995
 20
84.928178959003759
 30
0.0
 11
49.9633861113224995
 21
81.2849789590037659
 31
0.0
  0
LINE
  5
1F2
100
AcDbEntity
100
AcDbLine
  8
0
 62
256
370
-1
  6
ByLayer
 10
54.9633861113224995
 20
81.2849789590037659
 30
0.0
 11
59.4633861113224995
 21
84.928178959003759
 31
0.0
  0
LINE
  5
1F3
100
AcDbEntity
100
AcDbLine
  8
0
 62
256
370
-1
  6
ByLayer
 10
76.2067567304367799
 20
84.9281507651711678
 30
0.0
 11
76.2067567304367799
 21
87.3510582541579481
 31
0.0
  0
LINE
  5
1F4
100
AcDbEntity
100
AcDbLine
  8
0
 62
256
370
-1
  6
ByLayer
 10
76.2067567304367799
 20
87.3510582541579481
 30
0.0
 11
83.3873734705248921
 21
87.3510582541579481
 31
0.0
  0
LINE
  5
1F5
100
AcDbEntity
100
AcDbLine
  8
0
 62
256
370
-1
  6
ByLayer
 10
70.5459637788949294
 20
84.9722036286072893
 30
0.0
 11
70.5239373471768829
 21
87.3510582541579481
 31
0.0
  0
LINE
  5
1F6
100
AcDbEntity
100
AcDbLine
  8
0
 62
256
370
-1
  6
ByLayer
 10
70.5239373471768829
 20
87.3510582541579481
 30
0.0
 11
63.4093999022429529
 21
87.3730846858760088
 31
0.0
  0
ELLIPSE
  5
1F7
100
AcDbEntity
100
AcDbEllipse
  8
0
 62
256
370
-1
  6
ByLayer
 10
73.3250799683222567
 20
97.2271595757438547
 30
0.0
 11
-9.9807268722466986
 21
0.0430203744493376
 31
0.0
 40
0.9913608917789132
 41
3.1547117290118596
 42
5.4361396588849606
  0
ELLIPSE
  5
1F8
100
AcDbEntity
100
AcDbEllipse
  8
0
 62
256
370
-1
  6
ByLayer
 10
73.3250799683222567
 20
97.313200324642537
 30
0.0
 11
-7.3134636563876665
 21
-0.0430203744493411
 31
0.0
 40
0.9646379018027058
 41
3.1416652461751298
 42
5.4205521102489271
  0
LINE
  5
1F9
100
AcDbEntity
100
AcDbLine
  8
0
 62
256
370
-1
  6
ByLayer
 10
83.3918475894676305
 20
87.3324734523958455
 30
0.0
 11
83.3488272150182894
 21
97.3562206990918781
 31
0.0
  0
LINE
  5
1FA
100
AcDbEntity
100
AcDbLine
  8
0
 62
256
370
-1
  6
ByLayer
 10
80.6815639991592661
 20
97.3992410735412193
 30
0.0
 11
80.6815639991592661
 21
92.5379387607658828
 31
0.0
  0
LINE
  5
1FB
100
AcDbEntity
100
AcDbLine
  8
0
 62
256
370
-1
  6
ByLayer
 10
80.6815639991592661
 20
92.5379387607658828
 30
0.0
 11
63.3873734705248921
 21
92.5379387607658828
 31
0.0
  0
LINE
  5
1FC
100
AcDbEntity
100
AcDbLine
  8
0
 62
256
370
-1
  6
ByLayer
 10
63.3873734705248921
 20
92.5379387607658828
 30
0.0
 11
63.4303938449742333
 21
87.3754938268451724
 31
0.0
  0
LINE
  5
1FD
100
AcDbEntity
100
AcDbLine
  8
0
 62
256
370
-1
  6
ByLayer
 10
66.7859830520226865
 20
104.6696843554795464
 30
0.0
 11
68.5498184044456025
 21
102.6907471308099389
 31
0.0
  0
LINE
  5
1FE
100
AcDbEntity
100
AcDbLine
  8
0
 62
256
370
-1
  6
ByLayer
 10
66.3873734705248921
 20
84.9721789590037702
 30
0.0
 11
70.5459634705248959
 21
84.9721789590037702
 31
0.0
  0
LINE
  5
1FF
100
AcDbEntity
100
AcDbLine
  8
0
 62
256
370
-1
  6
ByLayer
 10
80.3873734705248921
 20
84.928178959003759
 30
0.0
 11
76.2067734705248938
 21
84.928178959003759
 31
0.0
  0
LINE
  5
200
100
AcDbEntity
100
AcDbLine
  8
0
 62
256
370
-1
  6
ByLayer
 10
70.8873734705248921
 20
81.2849789590037659
 30
0.0
 11
75.8873734705248921
 21
81.2849789590037659
 31
0.0
  0
LINE
  5
201
100
AcDbEntity
100
AcDbLine
  8
0
 62
256
370
-1
  6
ByLayer
 10
66.3873734705248921
 20
84.928178959003759
 30
0.0
 11
70.8873734705248921
 21
81.2849789590037659
 31
0.0
  0
LINE
  5
202
100
AcDbEntity
100
AcDbLine
  8
0
 62
256
370
-1
  6
ByLayer
 10
75.8873734705248921
 20
81.2849789590037659
 30
0.0
 11
80.3873734705248921
 21
84.928178959003759
 31
0.0
  0
LINE
  5
203
100
AcDbEntity
100
AcDbLine
  8
0
 62
256
370
-1
  6
ByLayer
 10
97.5410183515843272
 20
85.1332878961437416
 30
0.0
 11
97.5410183515843272
 21
87.5561953851305219
 31
0.0
  0
LINE
  5
204
100
AcDbEntity
100
AcDbLine
  8
0
 62
256
370
-1
  6
ByLayer
 10
97.5410183515843272
 20
87.5561953851305219
 30
0.0
 11
104.7216350916724252
 21
87.5561953851305219
 31
0.0
  0
LINE
  5
205
100
AcDbEntity
100
AcDbLine
  8
0
 62
256
370
-1
  6
ByLayer
 10
91.8802254000424767
 20
85.1773407595798631
 30
0.0
 11
91.858198968324416
 21
87.5561953851305219
 31
0.0
  0
LINE
  5
206
100
AcDbEntity
100
AcDbLine
  8
0
 62
256
370
-1
  6
ByLayer
 10
91.858198968324416
 20
87.5561953851305219
 30
0.0
 11
84.743661523390486
 21
87.5782218168485826
 31
0.0
  0
ELLIPSE
  5
207
100
AcDbEntity
100
AcDbEllipse
  8
0
 62
256
370
-1
  6
ByLayer
 10
94.6593415894697898
 20
97.4322967067164285
 30
0.0
 11
-9.9807268722466986
 21
0.0430203744493376
 31
0.0
 40
0.9913608917789132
 41
3.1547117290118596
 42
5.4361396588849606
  0
ELLIPSE
  5
208
100
AcDbEntity
100
AcDbEllipse
  8
0
 62
256
370
-1
  6
ByLayer
 10
94.6593415894697898
 20
97.5183374556151108
 30
0.0
 11
-7.3134636563876665
 21
-0.0430203744493411
 31
0.0
 40
0.9646379018027058
 41
3.1416652461751298
 42
5.4205521102489271
  0
LINE
  5
209
100
AcDbEntity
100
AcDbLine
  8
0
 62
256
370
-1
  6
ByLayer
 10
104.7261092106151636
 20
87.5376105833684051
 30
0.0
 11
104.6830888361658225
 21
97.5613578300644519
 31
0.0
  0
LINE
  5
20A
100
AcDbEntity
100
AcDbLine
  8
0
 62
256
370
-1
  6
ByLayer
 10
102.0158256203067992
 20
97.6043782045137789
 30
0.0
 11
102.0158256203067992
 21
92.7430758917384566
 31
0.0
  0
LINE
  5
20B
100
AcDbEntity
100
AcDbLine
  8
0
 62
256
370
-1
  6
ByLayer
 10
102.0158256203067992
 20
92.7430758917384566
 30
0.0
 11
84.7216350916724252
 21
92.7430758917384566
 31
0.0
  0
LINE
  5
20C
100
AcDbEntity
100
AcDbLine
  8
0
 62
256
370
-1
  6
ByLayer
 10
84.7216350916724252
 20
92.7430758917384566
 30
0.0
 11
84.7646554661217664
 21
87.5806309578177462
 31
0.0
  0
LINE
  5
20D
100
AcDbEntity
100
AcDbLine
  8
0
 62
256
370
-1
  6
ByLayer
 10
88.1202446731702196
 20
104.874821486452106
 30
0.0
 11
89.8840800255931356
 21
102.8958842617824985
 31
0.0
  0
LINE
  5
20E
100
AcDbEntity
100
AcDbLine
  8
0
 62
256
370
-1
  6
ByLayer
 10
87.7216350916724252
 20
85.1773160899763297
 30
0.0
 11
91.880225091672429
 21
85.1773160899763297
 31
0.0
  0
LINE
  5
20F
100
AcDbEntity
100
AcDbLine
  8
0
 62
256
370
-1
  6
ByLayer
 10
101.7216350916724252
 20
85.1333160899763328
 30
0.0
 11
97.5410350916724269
 21
85.1333160899763328
 31
0.0
  0
LINE
  5
210
100
AcDbEntity
100
AcDbLine
  8
0
 62
256
370
-1
  6
ByLayer
 10
92.2216350916724252
 20
81.4901160899763397
 30
0.0
 11
97.2216350916724252
 21
81.4901160899763397
 31
0.0
  0
LINE
  5
211
100
AcDbEntity
100
AcDbLine
  8
0
 62
256
370
-1
  6
ByLayer
 10
87.7216350916724252
 20
85.1333160899763328
 30
0.0
 11
92.2216350916724252
 21
81.4901160899763397
 31
0.0
  0
LINE
  5
212
100
AcDbEntity
100
AcDbLine
  8
0
 62
256
370
-1
  6
ByLayer
 10
97.2216350916724252
 20
81.4901160899763397
 30
0.0
 11
101.7216350916724252
 21
85.1333160899763328
 31
0.0
  0
LINE
  5
213
100
AcDbEntity
100
AcDbLine
  8
0
 62
256
370
-1
  6
ByLayer
 10
118.4650057107867127
 20
85.1332878961437416
 30
0.0
 11
118.4650057107867127
 21
87.5561953851305219
 31
0.0
  0
LINE
  5
214
100
AcDbEntity
100
AcDbLine
  8
0
 62
256
370
-1
  6
ByLayer
 10
118.4650057107867127
 20
87.5561953851305219
 30
0.0
 11
125.6456224508748107
 21
87.5561953851305219
 31
0.0
  0
LINE
  5
215
100
AcDbEntity
100
AcDbLine
  8
0
 62
256
370
-1
  6
ByLayer
 10
112.8042127592448622
 20
85.1773407595798631
 30
0.0
 11
112.7821863275268015
 21
87.5561953851305219
 31
0.0
  0
LINE
  5
216
100
AcDbEntity
100
AcDbLine
  8
0
 62
256
370
-1
  6
ByLayer
 10
112.7821863275268015
 20
87.5561953851305219
 30
0.0
 11
105.6676488825928857
 21
87.5782218168485826
 31
0.0
  0
ELLIPSE
  5
217
100
AcDbEntity
100
AcDbEllipse
  8
0
 62
256
370
-1
  6
ByLayer
 10
115.5833289486721753
 20
97.4322967067164285
 30
0.0
 11
-9.9807268722466986
 21
0.0430203744493376
 31
0.0
 40
0.9913608917789132
 41
3.1547117290118596
 42
5.4361396588849606
  0
ELLIPSE
  5
218
100
AcDbEntity
100
AcDbEllipse
  8
0
 62
256
370
-1
  6
ByLayer
 10
115.5833289486721753
 20
97.5183374556151108
 30
0.0
 11
-7.3134636563876665
 21
-0.0430203744493411
 31
0.0
 40
0.9646379018027058
 41
3.1416652461751298
 42
5.4205521102489271
  0
LINE
  5
219
100
AcDbEntity
100
AcDbLine
  8
0
 62
256
370
-1
  6
ByLayer
 10
125.6500965698175492
 20
87.5376105833684051
 30
0.0
 11
125.6070761953682222
 21
97.5613578300644519
 31
0.0
  0
LINE
  5
21A
100
AcDbEntity
100
AcDbLine
  8
0
 62
256
370
-1
  6
ByLayer
 10
122.9398129795091847
 20
97.6043782045137789
 30
0.0
 11
122.9398129795091847
 21
92.7430758917384566
 31
0.0
  0
LINE
  5
21B
100
AcDbEntity
100
AcDbLine
  8
0
 62
256
370
-1
  6
ByLayer
 10
122.9398129795091847
 20
92.7430758917384566
 30
0.0
 11
105.6456224508748107
 21
92.7430758917384566
 31
0.0
  0
LINE
  5
21C
100
AcDbEntity
100
AcDbLine
  8
0
 62
256
370
-1
  6
ByLayer
 10
105.6456224508748107
 20
92.7430758917384566
 30
0.0
 11
105.6886428253241661
 21
87.5806309578177462
 31
0.0
  0
LINE
  5
21D
100
AcDbEntity
100
AcDbLine
  8
0
 62
256
370
-1
  6
ByLayer
 10
109.0442320323726193
 20
104.874821486452106
 30
0.0
 11
110.8080673847955211
 21
102.8958842617824985
 31
0.0
  0
LINE
  5
21E
100
AcDbEntity
100
AcDbLine
  8
0
 62
256
370
-1
  6
ByLayer
 10
108.6456224508748107
 20
85.1773160899763297
 30
0.0
 11
112.8042124508748145
 21
85.1773160899763297
 31
0.0
  0
LINE
  5
21F
100
AcDbEntity
100
AcDbLine
  8
0
 62
256
370
-1
  6
ByLayer
 10
122.6456224508748107
 20
85.1333160899763328
 30
0.0
 11
118.4650224508748124
 21
85.1333160899763328
 31
0.0
  0
LINE
  5
220
100
AcDbEntity
100
AcDbLine
  8
0
 62
256
370
-1
  6
ByLayer
 10
113.1456224508748107
 20
81.4901160899763397
 30
0.0
 11
118.1456224508748107
 21
81.4901160899763397
 31
0.0
  0
LINE
  5
221
100
AcDbEntity
100
AcDbLine
  8
0
 62
256
370
-1
  6
ByLayer
 10
108.6456224508748107
 20
85.1333160899763328
 30
0.0
 11
113.1456224508748107
 21
81.4901160899763397
 31
0.0
  0
LINE
  5
222
100
AcDbEntity
100
AcDbLine
  8
0
 62
256
370
-1
  6
ByLayer
 10
118.1456224508748107
 20
81.4901160899763397
 30
0.0
 11
122.6456224508748107
 21
85.1333160899763328
 31
0.0
  0
LINE
  5
223
100
AcDbEntity
100
AcDbLine
  8
0
 62
256
370
-1
  6
ByLayer
 10
139.594130200961672
 20
85.1332878961437416
 30
0.0
 11
139.594130200961672
 21
87.5561953851305219
 31
0.0
  0
LINE
  5
224
100
AcDbEntity
100
AcDbLine
  8
0
 62
256
370
-1
  6
ByLayer
 10
139.594130200961672
 20
87.5561953851305219
 30
0.0
 11
146.7747469410497843
 21
87.5561953851305219
 31
0.0
  0
LINE
  5
225
100
AcDbEntity
100
AcDbLine
  8
0
 62
256
370
-1
  6
ByLayer
 10
133.9333372494198215
 20
85.1773407595798631
 30
0.0
 11
133.911310817701775
 21
87.5561953851305219
 31
0.0
  0
LINE
  5
226
100
AcDbEntity
100
AcDbLine
  8
0
 62
256
370
-1
  6
ByLayer
 10
133.911310817701775
 20
87.5561953851305219
 30
0.0
 11
126.796773372767845
 21
87.5782218168485826
 31
0.0
  0
ELLIPSE
  5
227
100
AcDbEntity
100
AcDbEllipse
  8
0
 62
256
370
-1
  6
ByLayer
 10
136.7124534388471488
 20
97.4322967067164285
 30
0.0
 11
-9.9807268722466986
 21
0.0430203744493376
 31
0.0
 40
0.9913608917789132
 41
3.1547117290118596
 42
5.4361396588849606
  0
ELLIPSE
  5
228
100
AcDbEntity
100
AcDbEllipse
  8
0
 62
256
370
-1
  6
ByLayer
 10
136.7124534388471488
 20
97.5183374556151108
 30
0.0
 11
-7.3134636563876665
 21
-0.0430203744493411
 31
0.0
 40
0.9646379018027058
 41
3.1416652461751298
 42
5.4205521102489271
  0
LINE
  5
229
100
AcDbEntity
100
AcDbLine
  8
0
 62
256
370
-1
  6
ByLayer
 10
146.7792210599925227
 20
87.5376105833684051
 30
0.0
 11
146.7362006855431957
 21
97.5613578300644519
 31
0.0
  0
LINE
  5
22A
100
AcDbEntity
100
AcDbLine
  8
0
 62
256
370
-1
  6
ByLayer
 10
144.0689374696841583
 20
97.6043782045137789
 30
0.0
 11
144.0689374696841583
 21
92.7430758917384566
 31
0.0
  0
LINE
  5
22B
100
AcDbEntity
100
AcDbLine
  8
0
 62
256
370
-1
  6
ByLayer
 10
144.0689374696841583
 20
92.7430758917384566
 30
0.0
 11
126.7747469410497843
 21
92.7430758917384566
 31
0.0
  0
LINE
  5
22C
100
AcDbEntity
100
AcDbLine
  8
0
 62
256
370
-1
  6
ByLayer
 10
126.7747469410497843
 20
92.7430758917384566
 30
0.0
 11
126.8177673154991254
 21
87.5806309578177462
 31
0.0
  0
LINE
  5
22D
100
AcDbEntity
100
AcDbLine
  8
0
 62
256
370
-1
  6
ByLayer
 10
130.1733565225475786
 20
104.874821486452106
 30
0.0
 11
131.9371918749704946
 21
102.8958842617824985
 31
0.0
  0
LINE
  5
22E
100
AcDbEntity
100
AcDbLine
  8
0
 62
256
370
-1
  6
ByLayer
 10
129.7747469410497843
 20
85.1773160899763297
 30
0.0
 11
133.933336941049788
 21
85.1773160899763297
 31
0.0
  0
LINE
  5
22F
100
AcDbEntity
100
AcDbLine
  8
0
 62
256
370
-1
  6
ByLayer
 10
143.7747469410497843
 20
85.1333160899763328
 30
0.0
 11
139.5941469410497859
 21
85.1333160899763328
 31
0.0
  0
LINE
  5
230
100
AcDbEntity
100
AcDbLine
  8
0
 62
256
370
-1
  6
ByLayer
 10
134.2747469410497843
 20
81.4901160899763397
 30
0.0
 11
139.2747469410497843
 21
81.4901160899763397
 31
0.0
  0
LINE
  5
231
100
AcDbEntity
100
AcDbLine
  8
0
 62
256
370
-1
  6
ByLayer
 10
129.7747469410497843
 20
85.1333160899763328
 30
0.0
 11
134.2747469410497843
 21
81.4901160899763397
 31
0.0
  0
LINE
  5
232
100
AcDbEntity
100
AcDbLine
  8
0
 62
256
370
-1
  6
ByLayer
 10
139.2747469410497843
 20
81.4901160899763397
 30
0.0
 11
143.7747469410497843
 21
85.1333160899763328
 31
0.0
  0
LINE
  5
233
100
AcDbEntity
100
AcDbLine
  8
0
 62
256
370
-1
  6
ByLayer
 10
160.5181175601640859
 20
85.1332878961437416
 30
0.0
 11
160.5181175601640859
 21
87.5561953851305219
 31
0.0
  0
LINE
  5
234
100
AcDbEntity
100
AcDbLine
  8
0
 62
256
370
-1
  6
ByLayer
 10
160.5181175601640859
 20
87.5561953851305219
 30
0.0
 11
167.6987343002521698
 21
87.5561953851305219
 31
0.0
  0
LINE
  5
235
100
AcDbEntity
100
AcDbLine
  8
0
 62
256
370
-1
  6
ByLayer
 10
154.8573246086222355
 20
85.1773407595798631
 30
0.0
 11
154.8352981769041605
 21
87.5561953851305219
 31
0.0
  0
LINE
  5
236
100
AcDbEntity
100
AcDbLine
  8
0
 62
256
370
-1
  6
ByLayer
 10
154.8352981769041605
 20
87.5561953851305219
 30
0.0
 11
147.7207607319702447
 21
87.5782218168485826
 31
0.0
  0
ELLIPSE
  5
237
100
AcDbEntity
100
AcDbEllipse
  8
0
 62
256
370
-1
  6
ByLayer
 10
157.6364407980495344
 20
97.4322967067164285
 30
0.0
 11
-9.9807268722466986
 21
0.0430203744493376
 31
0.0
 40
0.9913608917789132
 41
3.1547117290118596
 42
5.4361396588849606
  0
ELLIPSE
  5
238
100
AcDbEntity
100
AcDbEllipse
  8
0
 62
256
370
-1
  6
ByLayer
 10
157.6364407980495344
 20
97.5183374556151108
 30
0.0
 11
-7.3134636563876665
 21
-0.0430203744493411
 31
0.0
 40
0.9646379018027058
 41
3.1416652461751298
 42
5.4205521102489271
  0
LINE
  5
239
100
AcDbEntity
100
AcDbLine
  8
0
 62
256
370
-1
  6
ByLayer
 10
167.7032084191949082
 20
87.5376105833684051
 30
0.0
 11
167.6601880447455812
 21
97.5613578300644519
 31
0.0
  0
LINE
  5
23A
100
AcDbEntity
100
AcDbLine
  8
0
 62
256
370
-1
  6
ByLayer
 10
164.9929248288865438
 20
97.6043782045137789
 30
0.0
 11
164.9929248288865438
 21
92.7430758917384566
 31
0.0
  0
LINE
  5
23B
100
AcDbEntity
100
AcDbLine
  8
0
 62
256
370
-1
  6
ByLayer
 10
164.9929248288865438
 20
92.7430758917384566
 30
0.0
 11
147.6987343002521698
 21
92.7430758917384566
 31
0.0
  0
LINE
  5
23C
100
AcDbEntity
100
AcDbLine
  8
0
 62
256
370
-1
  6
ByLayer
 10
147.6987343002521698
 20
92.7430758917384566
 30
0.0
 11
147.7417546747015251
 21
87.5806309578177462
 31
0.0
  0
LINE
  5
23D
100
AcDbEntity
100
AcDbLine
  8
0
 62
256
370
-1
  6
ByLayer
 10
151.0973438817499641
 20
104.874821486452106
 30
0.0
 11
152.8611792341728801
 21
102.8958842617824985
 31
0.0
  0
LINE
  5
23E
100
AcDbEntity
100
AcDbLine
  8
0
 62
256
370
-1
  6
ByLayer
 10
150.6987343002521698
 20
85.1773160899763297
 30
0.0
 11
154.8573243002521735
 21
85.1773160899763297
 31
0.0
  0
LINE
  5
23F
100
AcDbEntity
100
AcDbLine
  8
0
 62
256
370
-1
  6
ByLayer
 10
164.6987343002521698
 20
85.1333160899763328
 30
0.0
 11
160.5181343002521714
 21
85.1333160899763328
 31
0.0
  0
LINE
  5
240
100
AcDbEntity
100
AcDbLine
  8
0
 62
256
370
-1
  6
ByLayer
 10
155.1987343002521698
 20
81.4901160899763397
 30
0.0
 11
160.1987343002521698
 21
81.4901160899763397
 31
0.0
  0
LINE
  5
241
100
AcDbEntity
100
AcDbLine
  8
0
 62
256
370
-1
  6
ByLayer
 10
150.6987343002521698
 20
85.1333160899763328
 30
0.0
 11
155.1987343002521698
 21
81.4901160899763397
 31
0.0
  0
LINE
  5
242
100
AcDbEntity
100
AcDbLine
  8
0
 62
256
370
-1
  6
ByLayer
 10
160.1987343002521698
 20
81.4901160899763397
 30
0.0
 11
164.6987343002521698
 21
85.1333160899763328
 31
0.0
  0
ENDSEC
  0
SECTION
  2
OBJECTS
  0
DICTIONARY
  5
C
100
AcDbDictionary
280
0
281
1
  3
ACAD_GROUP
350
D
  3
ACAD_LAYOUT
350
1A
  3
ACAD_MLINESTYLE
350
17
  3
ACAD_PLOTSETTINGS
350
19
  3
ACAD_PLOTSTYLENAME
350
E
  3
AcDbVariableDictionary
350
243
  0
DICTIONARY
  5
D
100
AcDbDictionary
280
0
281
1
  0
ACDBDICTIONARYWDFLT
  5
E
100
AcDbDictionary
281
1
  3
Normal
350
F
100
AcDbDictionaryWithDefault
340
F
  0
ACDBPLACEHOLDER
  5
F
  0
DICTIONARY
  5
17
100
AcDbDictionary
280
0
281
1
  3
Standard
350
18
  0
MLINESTYLE
  5
18
100
AcDbMlineStyle
  2
STANDARD
 70
0
  3

 62
256
 51
90.0
 52
90.0
 71
2
 49
0.5
 62
256
  6
BYLAYER
 49
-0.5
 62
256
  6
BYLAYER
  0
DICTIONARY
  5
19
100
AcDbDictionary
280
0
281
1
  0
DICTIONARY
  5
1A
100
AcDbDictionary
281
1
  3
Layout1
350
1E
  3
Layout2
350
26
  3
Model
350
22
  0
LAYOUT
  5
1E
100
AcDbPlotSettings
  1

  2
C:\Program Files\AutoCAD 2002\plotters\DWF ePlot (optimized for plotting).pc3
  4

  6

 40
0.0
 41
0.0
 42
0.0
 43
0.0
 44
0.0
 45
0.0
 46
0.0
 47
0.0
 48
0.0
 49
0.0
140
0.0
141
0.0
142
1.0
143
1.0
 70
688
 72
0
 73
0
 74
5
  7

 75
16
147
1.0
148
0.0
149
0.0
100
AcDbLayout
  1
Layout1
 70
1
 71
1
 10
0.0
 20
0.0
 11
420.0
 21
297.0
 12
0.0
 22
0.0
 32
0.0
 14
100000000000000000000.0
 24
100000000000000000000.0
 34
100000000000000000000.0
 15
-100000000000000000000.0
 25
-100000000000000000000.0
 35
-100000000000000000000.0
146
0.0
 13
0.0
 23
0.0
 33
0.0
 16
1.0
 26
0.0
 36
0.0
 17
0.0
 27
1.0
 37
0.0
 76
0
330
1B
  0
LAYOUT
  5
22
100
AcDbPlotSettings
  1

  2
C:\Program Files\AutoCAD 2002\plotters\DWF ePlot (optimized for plotting).pc3
  4

  6

 40
0.0
 41
0.0
 42
0.0
 43
0.0
 44
0.0
 45
0.0
 46
0.0
 47
0.0
 48
0.0
 49
0.0
140
0.0
141
0.0
142
1.0
143
1.0
 70
1712
 72
0
 73
0
 74
0
  7

 75
0
147
1.0
148
0.0
149
0.0
100
AcDbLayout
  1
Model
 70
1
 71
0
 10
0.0
 20
0.0
 11
12.0
 21
9.0
 12
0.0
 22
0.0
 32
0.0
 14
0.0
 24
0.0
 34
0.0
 15
0.0
 25
0.0
 35
0.0
146
0.0
 13
0.0
 23
0.0
 33
0.0
 16
1.0
 26
0.0
 36
0.0
 17
0.0
 27
1.0
 37
0.0
 76
0
330
1F
  0
LAYOUT
  5
26
100
AcDbPlotSettings
  1

  2
C:\Program Files\AutoCAD 2002\plotters\DWF ePlot (optimized for plotting).pc3
  4

  6

 40
0.0
 41
0.0
 42
0.0
 43
0.0
 44
0.0
 45
0.0
 46
0.0
 47
0.0
 48
0.0
 49
0.0
140
0.0
141
0.0
142
1.0
143
1.0
 70
688
 72
0
 73
0
 74
5
  7

 75
16
147
1.0
148
0.0
149
0.0
100
AcDbLayout
  1
Layout2
 70
1
 71
2
 10
0.0
 20
0.0
 11
12.0
 21
9.0
 12
0.0
 22
0.0
 32
0.0
 14
0.0
 24
0.0
 34
0.0
 15
0.0
 25
0.0
 35
0.0
146
0.0
 13
0.0
 23
0.0
 33
0.0
 16
1.0
 26
0.0
 36
0.0
 17
0.0
 27
1.0
 37
0.0
 76
0
330
23
  0
DICTIONARY
  5
243
100
AcDbDictionary
281
1
  3
DIMASSOC
350
245
  3
HIDETEXT
350
244
  0
DICTIONARYVAR
  5
244
100
DictionaryVariables
280
0
  1
2
  0
DICTIONARYVAR
  5
245
100
DictionaryVariables
280
0
  1
1
  0
ENDSEC
  0
EOF
