  0
SECTION
  2
BLOCKS
  0
ENDSEC
  0
SECTION
  2
ENTITIES
  0
LINE
  8
0
 10
0
 11
0
 20
0
 21
938
  0
LINE
  8
0
 10
0
 11
1793
 20
938
 21
938
  0
LINE
  8
0
 10
1793
 11
1793
 20
938
 21
0
  0
LINE
  8
0
 10
1793
 11
0
 20
0
 21
0
  0
LINE
  8
0
 10
0
 11
0
 20
963.4
 21
1273.4
  0
LINE
  8
0
 10
0
 11
18
 20
1273.4
 21
1273.4
  0
LINE
  8
0
 10
18
 11
18
 20
1273.4
 21
1253.4
  0
LINE
  8
0
 10
18
 11
1545
 20
1253.4
 21
1253.4
  0
LINE
  8
0
 10
1545
 11
1545
 20
1253.4
 21
1273.4
  0
LINE
  8
0
 10
1545
 11
1793
 20
1273.4
 21
1273.4
  0
LINE
  8
0
 10
1793
 11
1793
 20
1273.4
 21
963.4
  0
LINE
  8
0
 10
1793
 11
0
 20
963.4
 21
963.4
  0
LINE
  8
0
 10
0
 11
0
 20
1298.8
 21
1608.8
  0
LINE
  8
0
 10
0
 11
1793
 20
1608.8
 21
1608.8
  0
LINE
  8
0
 10
1793
 11
1793
 20
1608.8
 21
1298.8
  0
LINE
  8
0
 10
1793
 11
332
 20
1298.8
 21
1298.8
  0
LINE
  8
0
 10
332
 11
332
 20
1298.8
 21
1298.81
  0
LINE
  8
0
 10
332
 11
331.817
 20
1298.81
 21
1298.8
  0
LINE
  8
0
 10
331.817
 11
331.092
 20
1298.8
 21
1298.88
  0
LINE
  8
0
 10
331.092
 11
330.386
 20
1298.88
 21
1299.07
  0
LINE
  8
0
 10
330.386
 11
329.714
 20
1299.07
 21
1299.35
  0
LINE
  8
0
 10
329.714
 11
329.091
 20
1299.35
 21
1299.73
  0
LINE
  8
0
 10
329.091
 11
328.53
 20
1299.73
 21
1300.2
  0
LINE
  8
0
 10
328.53
 11
328.043
 20
1300.2
 21
1300.74
  0
LINE
  8
0
 10
328.043
 11
327.64
 20
1300.74
 21
1301.35
  0
LINE
  8
0
 10
327.64
 11
327.33
 20
1301.35
 21
1302.01
  0
LINE
  8
0
 10
327.33
 11
327.12
 20
1302.01
 21
1302.71
  0
LINE
  8
0
 10
327.12
 11
327.013
 20
1302.71
 21
1303.43
  0
LINE
  8
0
 10
327.013
 11
327.013
 20
1303.43
 21
1303.8
  0
LINE
  8
0
 10
327.013
 11
327
 20
1303.8
 21
1303.8
  0
LINE
  8
0
 10
327
 11
327
 20
1303.8
 21
1320.68
  0
LINE
  8
0
 10
327
 11
327.013
 20
1320.68
 21
1320.68
  0
LINE
  8
0
 10
327.013
 11
327.013
 20
1320.68
 21
1321.04
  0
LINE
  8
0
 10
327.013
 11
327.12
 20
1321.04
 21
1321.76
  0
LINE
  8
0
 10
327.12
 11
327.33
 20
1321.76
 21
1322.46
  0
LINE
  8
0
 10
327.33
 11
327.64
 20
1322.46
 21
1323.12
  0
LINE
  8
0
 10
327.64
 11
327.843
 20
1323.12
 21
1323.43
  0
LINE
  8
0
 10
327.843
 11
328.249
 20
1323.43
 21
1324.04
  0
LINE
  8
0
 10
328.249
 11
328.8
 20
1324.04
 21
1325.15
  0
LINE
  8
0
 10
328.8
 11
329.2
 20
1325.15
 21
1326.34
  0
LINE
  8
0
 10
329.2
 11
329.444
 20
1326.34
 21
1327.56
  0
LINE
  8
0
 10
329.444
 11
329.525
 20
1327.56
 21
1328.8
  0
LINE
  8
0
 10
329.525
 11
329.444
 20
1328.8
 21
1330.04
  0
LINE
  8
0
 10
329.444
 11
329.2
 20
1330.04
 21
1331.27
  0
LINE
  8
0
 10
329.2
 11
328.8
 20
1331.27
 21
1332.44
  0
LINE
  8
0
 10
328.8
 11
328.249
 20
1332.44
 21
1333.56
  0
LINE
  8
0
 10
328.249
 11
327.557
 20
1333.56
 21
1334.6
  0
LINE
  8
0
 10
327.557
 11
326.735
 20
1334.6
 21
1335.54
  0
LINE
  8
0
 10
326.735
 11
325.798
 20
1335.54
 21
1336.36
  0
LINE
  8
0
 10
325.798
 11
324.763
 20
1336.36
 21
1337.05
  0
LINE
  8
0
 10
324.763
 11
323.645
 20
1337.05
 21
1337.6
  0
LINE
  8
0
 10
323.645
 11
322.465
 20
1337.6
 21
1338
  0
LINE
  8
0
 10
322.465
 11
321.243
 20
1338
 21
1338.24
  0
LINE
  8
0
 10
321.243
 11
320
 20
1338.24
 21
1338.33
  0
LINE
  8
0
 10
320
 11
318.757
 20
1338.33
 21
1338.24
  0
LINE
  8
0
 10
318.757
 11
317.535
 20
1338.24
 21
1338
  0
LINE
  8
0
 10
317.535
 11
316.355
 20
1338
 21
1337.6
  0
LINE
  8
0
 10
316.355
 11
315.237
 20
1337.6
 21
1337.05
  0
LINE
  8
0
 10
315.237
 11
314.202
 20
1337.05
 21
1336.36
  0
LINE
  8
0
 10
314.202
 11
313.265
 20
1336.36
 21
1335.54
  0
LINE
  8
0
 10
313.265
 11
312.443
 20
1335.54
 21
1334.6
  0
LINE
  8
0
 10
312.443
 11
311.751
 20
1334.6
 21
1333.56
  0
LINE
  8
0
 10
311.751
 11
311.2
 20
1333.56
 21
1332.44
  0
LINE
  8
0
 10
311.2
 11
310.8
 20
1332.44
 21
1331.27
  0
LINE
  8
0
 10
310.8
 11
310.556
 20
1331.27
 21
1330.04
  0
LINE
  8
0
 10
310.556
 11
310.475
 20
1330.04
 21
1328.8
  0
LINE
  8
0
 10
310.475
 11
310.556
 20
1328.8
 21
1327.56
  0
LINE
  8
0
 10
310.556
 11
310.8
 20
1327.56
 21
1326.34
  0
LINE
  8
0
 10
310.8
 11
311.2
 20
1326.34
 21
1325.15
  0
LINE
  8
0
 10
311.2
 11
311.751
 20
1325.15
 21
1324.04
  0
LINE
  8
0
 10
311.751
 11
312.256
 20
1324.04
 21
1323.28
  0
LINE
  8
0
 10
312.256
 11
312.527
 20
1323.28
 21
1322.8
  0
LINE
  8
0
 10
312.527
 11
312.788
 20
1322.8
 21
1322.12
  0
LINE
  8
0
 10
312.788
 11
312.947
 20
1322.12
 21
1321.4
  0
LINE
  8
0
 10
312.947
 11
313
 20
1321.4
 21
1320.68
  0
LINE
  8
0
 10
313
 11
313
 20
1320.68
 21
1303.8
  0
LINE
  8
0
 10
313
 11
312.947
 20
1303.8
 21
1303.07
  0
LINE
  8
0
 10
312.947
 11
312.788
 20
1303.07
 21
1302.36
  0
LINE
  8
0
 10
312.788
 11
312.527
 20
1302.36
 21
1301.68
  0
LINE
  8
0
 10
312.527
 11
312.17
 20
1301.68
 21
1301.04
  0
LINE
  8
0
 10
312.17
 11
311.724
 20
1301.04
 21
1300.46
  0
LINE
  8
0
 10
311.724
 11
311.198
 20
1300.46
 21
1299.96
  0
LINE
  8
0
 10
311.198
 11
310.605
 20
1299.96
 21
1299.53
  0
LINE
  8
0
 10
310.605
 11
309.956
 20
1299.53
 21
1299.2
  0
LINE
  8
0
 10
309.956
 11
309.265
 20
1299.2
 21
1298.96
  0
LINE
  8
0
 10
309.265
 11
308.547
 20
1298.96
 21
1298.83
  0
LINE
  8
0
 10
308.547
 11
308
 20
1298.83
 21
1298.81
  0
LINE
  8
0
 10
308
 11
308
 20
1298.81
 21
1298.8
  0
LINE
  8
0
 10
308
 11
302
 20
1298.8
 21
1298.8
  0
LINE
  8
0
 10
302
 11
302
 20
1298.8
 21
1298.81
  0
LINE
  8
0
 10
302
 11
301.817
 20
1298.81
 21
1298.8
  0
LINE
  8
0
 10
301.817
 11
301.092
 20
1298.8
 21
1298.88
  0
LINE
  8
0
 10
301.092
 11
300.386
 20
1298.88
 21
1299.07
  0
LINE
  8
0
 10
300.386
 11
299.714
 20
1299.07
 21
1299.35
  0
LINE
  8
0
 10
299.714
 11
299.091
 20
1299.35
 21
1299.73
  0
LINE
  8
0
 10
299.091
 11
298.53
 20
1299.73
 21
1300.2
  0
LINE
  8
0
 10
298.53
 11
298.043
 20
1300.2
 21
1300.74
  0
LINE
  8
0
 10
298.043
 11
297.64
 20
1300.74
 21
1301.35
  0
LINE
  8
0
 10
297.64
 11
297.33
 20
1301.35
 21
1302.01
  0
LINE
  8
0
 10
297.33
 11
297.12
 20
1302.01
 21
1302.71
  0
LINE
  8
0
 10
297.12
 11
297.013
 20
1302.71
 21
1303.43
  0
LINE
  8
0
 10
297.013
 11
297.013
 20
1303.43
 21
1303.8
  0
LINE
  8
0
 10
297.013
 11
297
 20
1303.8
 21
1303.8
  0
LINE
  8
0
 10
297
 11
297
 20
1303.8
 21
1320.68
  0
LINE
  8
0
 10
297
 11
297.013
 20
1320.68
 21
1320.68
  0
LINE
  8
0
 10
297.013
 11
297.013
 20
1320.68
 21
1321.04
  0
LINE
  8
0
 10
297.013
 11
297.12
 20
1321.04
 21
1321.76
  0
LINE
  8
0
 10
297.12
 11
297.33
 20
1321.76
 21
1322.46
  0
LINE
  8
0
 10
297.33
 11
297.64
 20
1322.46
 21
1323.12
  0
LINE
  8
0
 10
297.64
 11
297.843
 20
1323.12
 21
1323.43
  0
LINE
  8
0
 10
297.843
 11
298.249
 20
1323.43
 21
1324.04
  0
LINE
  8
0
 10
298.249
 11
298.8
 20
1324.04
 21
1325.15
  0
LINE
  8
0
 10
298.8
 11
299.2
 20
1325.15
 21
1326.34
  0
LINE
  8
0
 10
299.2
 11
299.444
 20
1326.34
 21
1327.56
  0
LINE
  8
0
 10
299.444
 11
299.525
 20
1327.56
 21
1328.8
  0
LINE
  8
0
 10
299.525
 11
299.444
 20
1328.8
 21
1330.04
  0
LINE
  8
0
 10
299.444
 11
299.2
 20
1330.04
 21
1331.27
  0
LINE
  8
0
 10
299.2
 11
298.8
 20
1331.27
 21
1332.44
  0
LINE
  8
0
 10
298.8
 11
298.249
 20
1332.44
 21
1333.56
  0
LINE
  8
0
 10
298.249
 11
297.557
 20
1333.56
 21
1334.6
  0
LINE
  8
0
 10
297.557
 11
296.735
 20
1334.6
 21
1335.54
  0
LINE
  8
0
 10
296.735
 11
295.798
 20
1335.54
 21
1336.36
  0
LINE
  8
0
 10
295.798
 11
294.763
 20
1336.36
 21
1337.05
  0
LINE
  8
0
 10
294.763
 11
293.645
 20
1337.05
 21
1337.6
  0
LINE
  8
0
 10
293.645
 11
292.465
 20
1337.6
 21
1338
  0
LINE
  8
0
 10
292.465
 11
291.243
 20
1338
 21
1338.24
  0
LINE
  8
0
 10
291.243
 11
290
 20
1338.24
 21
1338.33
  0
LINE
  8
0
 10
290
 11
288.757
 20
1338.33
 21
1338.24
  0
LINE
  8
0
 10
288.757
 11
287.535
 20
1338.24
 21
1338
  0
LINE
  8
0
 10
287.535
 11
286.355
 20
1338
 21
1337.6
  0
LINE
  8
0
 10
286.355
 11
285.237
 20
1337.6
 21
1337.05
  0
LINE
  8
0
 10
285.237
 11
284.202
 20
1337.05
 21
1336.36
  0
LINE
  8
0
 10
284.202
 11
283.265
 20
1336.36
 21
1335.54
  0
LINE
  8
0
 10
283.265
 11
282.443
 20
1335.54
 21
1334.6
  0
LINE
  8
0
 10
282.443
 11
281.751
 20
1334.6
 21
1333.56
  0
LINE
  8
0
 10
281.751
 11
281.2
 20
1333.56
 21
1332.44
  0
LINE
  8
0
 10
281.2
 11
280.8
 20
1332.44
 21
1331.27
  0
LINE
  8
0
 10
280.8
 11
280.556
 20
1331.27
 21
1330.04
  0
LINE
  8
0
 10
280.556
 11
280.475
 20
1330.04
 21
1328.8
  0
LINE
  8
0
 10
280.475
 11
280.556
 20
1328.8
 21
1327.56
  0
LINE
  8
0
 10
280.556
 11
280.8
 20
1327.56
 21
1326.34
  0
LINE
  8
0
 10
280.8
 11
281.2
 20
1326.34
 21
1325.15
  0
LINE
  8
0
 10
281.2
 11
281.751
 20
1325.15
 21
1324.04
  0
LINE
  8
0
 10
281.751
 11
282.256
 20
1324.04
 21
1323.28
  0
LINE
  8
0
 10
282.256
 11
282.527
 20
1323.28
 21
1322.8
  0
LINE
  8
0
 10
282.527
 11
282.788
 20
1322.8
 21
1322.12
  0
LINE
  8
0
 10
282.788
 11
282.947
 20
1322.12
 21
1321.4
  0
LINE
  8
0
 10
282.947
 11
283
 20
1321.4
 21
1320.68
  0
LINE
  8
0
 10
283
 11
283
 20
1320.68
 21
1303.8
  0
LINE
  8
0
 10
283
 11
282.947
 20
1303.8
 21
1303.07
  0
LINE
  8
0
 10
282.947
 11
282.788
 20
1303.07
 21
1302.36
  0
LINE
  8
0
 10
282.788
 11
282.527
 20
1302.36
 21
1301.68
  0
LINE
  8
0
 10
282.527
 11
282.17
 20
1301.68
 21
1301.04
  0
LINE
  8
0
 10
282.17
 11
281.724
 20
1301.04
 21
1300.46
  0
LINE
  8
0
 10
281.724
 11
281.198
 20
1300.46
 21
1299.96
  0
LINE
  8
0
 10
281.198
 11
280.605
 20
1299.96
 21
1299.53
  0
LINE
  8
0
 10
280.605
 11
279.956
 20
1299.53
 21
1299.2
  0
LINE
  8
0
 10
279.956
 11
279.265
 20
1299.2
 21
1298.96
  0
LINE
  8
0
 10
279.265
 11
278.547
 20
1298.96
 21
1298.83
  0
LINE
  8
0
 10
278.547
 11
278
 20
1298.83
 21
1298.81
  0
LINE
  8
0
 10
278
 11
278
 20
1298.81
 21
1298.8
  0
LINE
  8
0
 10
278
 11
272
 20
1298.8
 21
1298.8
  0
LINE
  8
0
 10
272
 11
272
 20
1298.8
 21
1298.81
  0
LINE
  8
0
 10
272
 11
271.817
 20
1298.81
 21
1298.8
  0
LINE
  8
0
 10
271.817
 11
271.092
 20
1298.8
 21
1298.88
  0
LINE
  8
0
 10
271.092
 11
270.386
 20
1298.88
 21
1299.07
  0
LINE
  8
0
 10
270.386
 11
269.714
 20
1299.07
 21
1299.35
  0
LINE
  8
0
 10
269.714
 11
269.091
 20
1299.35
 21
1299.73
  0
LINE
  8
0
 10
269.091
 11
268.53
 20
1299.73
 21
1300.2
  0
LINE
  8
0
 10
268.53
 11
268.043
 20
1300.2
 21
1300.74
  0
LINE
  8
0
 10
268.043
 11
267.64
 20
1300.74
 21
1301.35
  0
LINE
  8
0
 10
267.64
 11
267.33
 20
1301.35
 21
1302.01
  0
LINE
  8
0
 10
267.33
 11
267.12
 20
1302.01
 21
1302.71
  0
LINE
  8
0
 10
267.12
 11
267.013
 20
1302.71
 21
1303.43
  0
LINE
  8
0
 10
267.013
 11
267.013
 20
1303.43
 21
1303.8
  0
LINE
  8
0
 10
267.013
 11
267
 20
1303.8
 21
1303.8
  0
LINE
  8
0
 10
267
 11
267
 20
1303.8
 21
1320.68
  0
LINE
  8
0
 10
267
 11
267.013
 20
1320.68
 21
1320.68
  0
LINE
  8
0
 10
267.013
 11
267.013
 20
1320.68
 21
1321.04
  0
LINE
  8
0
 10
267.013
 11
267.12
 20
1321.04
 21
1321.76
  0
LINE
  8
0
 10
267.12
 11
267.33
 20
1321.76
 21
1322.46
  0
LINE
  8
0
 10
267.33
 11
267.64
 20
1322.46
 21
1323.12
  0
LINE
  8
0
 10
267.64
 11
267.843
 20
1323.12
 21
1323.43
  0
LINE
  8
0
 10
267.843
 11
268.249
 20
1323.43
 21
1324.04
  0
LINE
  8
0
 10
268.249
 11
268.8
 20
1324.04
 21
1325.15
  0
LINE
  8
0
 10
268.8
 11
269.2
 20
1325.15
 21
1326.34
  0
LINE
  8
0
 10
269.2
 11
269.444
 20
1326.34
 21
1327.56
  0
LINE
  8
0
 10
269.444
 11
269.525
 20
1327.56
 21
1328.8
  0
LINE
  8
0
 10
269.525
 11
269.444
 20
1328.8
 21
1330.04
  0
LINE
  8
0
 10
269.444
 11
269.2
 20
1330.04
 21
1331.27
  0
LINE
  8
0
 10
269.2
 11
268.8
 20
1331.27
 21
1332.44
  0
LINE
  8
0
 10
268.8
 11
268.249
 20
1332.44
 21
1333.56
  0
LINE
  8
0
 10
268.249
 11
267.557
 20
1333.56
 21
1334.6
  0
LINE
  8
0
 10
267.557
 11
266.735
 20
1334.6
 21
1335.54
  0
LINE
  8
0
 10
266.735
 11
265.798
 20
1335.54
 21
1336.36
  0
LINE
  8
0
 10
265.798
 11
264.763
 20
1336.36
 21
1337.05
  0
LINE
  8
0
 10
264.763
 11
263.645
 20
1337.05
 21
1337.6
  0
LINE
  8
0
 10
263.645
 11
262.465
 20
1337.6
 21
1338
  0
LINE
  8
0
 10
262.465
 11
261.243
 20
1338
 21
1338.24
  0
LINE
  8
0
 10
261.243
 11
260
 20
1338.24
 21
1338.33
  0
LINE
  8
0
 10
260
 11
258.757
 20
1338.33
 21
1338.24
  0
LINE
  8
0
 10
258.757
 11
257.535
 20
1338.24
 21
1338
  0
LINE
  8
0
 10
257.535
 11
256.355
 20
1338
 21
1337.6
  0
LINE
  8
0
 10
256.355
 11
255.237
 20
1337.6
 21
1337.05
  0
LINE
  8
0
 10
255.237
 11
254.202
 20
1337.05
 21
1336.36
  0
LINE
  8
0
 10
254.202
 11
253.265
 20
1336.36
 21
1335.54
  0
LINE
  8
0
 10
253.265
 11
252.443
 20
1335.54
 21
1334.6
  0
LINE
  8
0
 10
252.443
 11
251.751
 20
1334.6
 21
1333.56
  0
LINE
  8
0
 10
251.751
 11
251.2
 20
1333.56
 21
1332.44
  0
LINE
  8
0
 10
251.2
 11
250.8
 20
1332.44
 21
1331.27
  0
LINE
  8
0
 10
250.8
 11
250.556
 20
1331.27
 21
1330.04
  0
LINE
  8
0
 10
250.556
 11
250.475
 20
1330.04
 21
1328.8
  0
LINE
  8
0
 10
250.475
 11
250.556
 20
1328.8
 21
1327.56
  0
LINE
  8
0
 10
250.556
 11
250.8
 20
1327.56
 21
1326.34
  0
LINE
  8
0
 10
250.8
 11
251.2
 20
1326.34
 21
1325.15
  0
LINE
  8
0
 10
251.2
 11
251.751
 20
1325.15
 21
1324.04
  0
LINE
  8
0
 10
251.751
 11
252.256
 20
1324.04
 21
1323.28
  0
LINE
  8
0
 10
252.256
 11
252.527
 20
1323.28
 21
1322.8
  0
LINE
  8
0
 10
252.527
 11
252.788
 20
1322.8
 21
1322.12
  0
LINE
  8
0
 10
252.788
 11
252.947
 20
1322.12
 21
1321.4
  0
LINE
  8
0
 10
252.947
 11
253
 20
1321.4
 21
1320.68
  0
LINE
  8
0
 10
253
 11
253
 20
1320.68
 21
1303.8
  0
LINE
  8
0
 10
253
 11
252.947
 20
1303.8
 21
1303.07
  0
LINE
  8
0
 10
252.947
 11
252.788
 20
1303.07
 21
1302.36
  0
LINE
  8
0
 10
252.788
 11
252.527
 20
1302.36
 21
1301.68
  0
LINE
  8
0
 10
252.527
 11
252.17
 20
1301.68
 21
1301.04
  0
LINE
  8
0
 10
252.17
 11
251.724
 20
1301.04
 21
1300.46
  0
LINE
  8
0
 10
251.724
 11
251.198
 20
1300.46
 21
1299.96
  0
LINE
  8
0
 10
251.198
 11
250.605
 20
1299.96
 21
1299.53
  0
LINE
  8
0
 10
250.605
 11
249.956
 20
1299.53
 21
1299.2
  0
LINE
  8
0
 10
249.956
 11
249.265
 20
1299.2
 21
1298.96
  0
LINE
  8
0
 10
249.265
 11
248.547
 20
1298.96
 21
1298.83
  0
LINE
  8
0
 10
248.547
 11
248
 20
1298.83
 21
1298.81
  0
LINE
  8
0
 10
248
 11
248
 20
1298.81
 21
1298.8
  0
LINE
  8
0
 10
248
 11
0
 20
1298.8
 21
1298.8
  0
LINE
  8
0
 10
0
 11
0
 20
1634.2
 21
1944.2
  0
LINE
  8
0
 10
0
 11
938
 20
1944.2
 21
1944.2
  0
LINE
  8
0
 10
938
 11
938
 20
1944.2
 21
1634.2
  0
LINE
  8
0
 10
938
 11
0
 20
1634.2
 21
1634.2
  0
LINE
  8
0
 10
0
 11
0
 20
1969.6
 21
2279.6
  0
LINE
  8
0
 10
0
 11
938
 20
2279.6
 21
2279.6
  0
LINE
  8
0
 10
938
 11
938
 20
2279.6
 21
1969.6
  0
LINE
  8
0
 10
938
 11
0
 20
1969.6
 21
1969.6
  0
LINE
  8
0
 10
0
 11
0
 20
2305
 21
2423
  0
LINE
  8
0
 10
0
 11
1546
 20
2423
 21
2423
  0
LINE
  8
0
 10
1546
 11
1546
 20
2423
 21
2305
  0
LINE
  8
0
 10
1546
 11
1259.2
 20
2305
 21
2305
  0
LINE
  8
0
 10
1259.2
 11
1259.2
 20
2305
 21
2314
  0
LINE
  8
0
 10
1259.2
 11
1259.05
 20
2314
 21
2314.93
  0
LINE
  8
0
 10
1259.05
 11
1258.63
 20
2314.93
 21
2315.76
  0
LINE
  8
0
 10
1258.63
 11
1257.96
 20
2315.76
 21
2316.43
  0
LINE
  8
0
 10
1257.96
 11
1257.13
 20
2316.43
 21
2316.85
  0
LINE
  8
0
 10
1257.13
 11
1256.2
 20
2316.85
 21
2317
  0
LINE
  8
0
 10
1256.2
 11
1255.27
 20
2317
 21
2316.85
  0
LINE
  8
0
 10
1255.27
 11
1254.44
 20
2316.85
 21
2316.43
  0
LINE
  8
0
 10
1254.44
 11
1253.77
 20
2316.43
 21
2315.76
  0
LINE
  8
0
 10
1253.77
 11
1253.35
 20
2315.76
 21
2314.93
  0
LINE
  8
0
 10
1253.35
 11
1253.2
 20
2314.93
 21
2314
  0
LINE
  8
0
 10
1253.2
 11
1253.2
 20
2314
 21
2305
  0
LINE
  8
0
 10
1253.2
 11
1234.2
 20
2305
 21
2305
  0
LINE
  8
0
 10
1234.2
 11
1234.2
 20
2305
 21
2314
  0
LINE
  8
0
 10
1234.2
 11
1234.05
 20
2314
 21
2314.93
  0
LINE
  8
0
 10
1234.05
 11
1233.63
 20
2314.93
 21
2315.76
  0
LINE
  8
0
 10
1233.63
 11
1232.96
 20
2315.76
 21
2316.43
  0
LINE
  8
0
 10
1232.96
 11
1232.13
 20
2316.43
 21
2316.85
  0
LINE
  8
0
 10
1232.13
 11
1231.2
 20
2316.85
 21
2317
  0
LINE
  8
0
 10
1231.2
 11
1230.27
 20
2317
 21
2316.85
  0
LINE
  8
0
 10
1230.27
 11
1229.44
 20
2316.85
 21
2316.43
  0
LINE
  8
0
 10
1229.44
 11
1228.77
 20
2316.43
 21
2315.76
  0
LINE
  8
0
 10
1228.77
 11
1228.35
 20
2315.76
 21
2314.93
  0
LINE
  8
0
 10
1228.35
 11
1228.2
 20
2314.93
 21
2314
  0
LINE
  8
0
 10
1228.2
 11
1228.2
 20
2314
 21
2305
  0
LINE
  8
0
 10
1228.2
 11
336.8
 20
2305
 21
2305
  0
LINE
  8
0
 10
336.8
 11
336.8
 20
2305
 21
2314
  0
LINE
  8
0
 10
336.8
 11
336.653
 20
2314
 21
2314.93
  0
LINE
  8
0
 10
336.653
 11
336.227
 20
2314.93
 21
2315.76
  0
LINE
  8
0
 10
336.227
 11
335.563
 20
2315.76
 21
2316.43
  0
LINE
  8
0
 10
335.563
 11
334.727
 20
2316.43
 21
2316.85
  0
LINE
  8
0
 10
334.727
 11
333.8
 20
2316.85
 21
2317
  0
LINE
  8
0
 10
333.8
 11
332.873
 20
2317
 21
2316.85
  0
LINE
  8
0
 10
332.873
 11
332.037
 20
2316.85
 21
2316.43
  0
LINE
  8
0
 10
332.037
 11
331.373
 20
2316.43
 21
2315.76
  0
LINE
  8
0
 10
331.373
 11
330.947
 20
2315.76
 21
2314.93
  0
LINE
  8
0
 10
330.947
 11
330.8
 20
2314.93
 21
2314
  0
LINE
  8
0
 10
330.8
 11
330.8
 20
2314
 21
2305
  0
LINE
  8
0
 10
330.8
 11
311.8
 20
2305
 21
2305
  0
LINE
  8
0
 10
311.8
 11
311.8
 20
2305
 21
2314
  0
LINE
  8
0
 10
311.8
 11
311.653
 20
2314
 21
2314.93
  0
LINE
  8
0
 10
311.653
 11
311.227
 20
2314.93
 21
2315.76
  0
LINE
  8
0
 10
311.227
 11
310.563
 20
2315.76
 21
2316.43
  0
LINE
  8
0
 10
310.563
 11
309.727
 20
2316.43
 21
2316.85
  0
LINE
  8
0
 10
309.727
 11
308.8
 20
2316.85
 21
2317
  0
LINE
  8
0
 10
308.8
 11
307.873
 20
2317
 21
2316.85
  0
LINE
  8
0
 10
307.873
 11
307.037
 20
2316.85
 21
2316.43
  0
LINE
  8
0
 10
307.037
 11
306.373
 20
2316.43
 21
2315.76
  0
LINE
  8
0
 10
306.373
 11
305.947
 20
2315.76
 21
2314.93
  0
LINE
  8
0
 10
305.947
 11
305.8
 20
2314.93
 21
2314
  0
LINE
  8
0
 10
305.8
 11
305.8
 20
2314
 21
2305
  0
LINE
  8
0
 10
305.8
 11
0
 20
2305
 21
2305
  0
LINE
  8
0
 10
0
 11
0
 20
2640.4
 21
2888.4
  0
LINE
  8
0
 10
0
 11
938
 20
2888.4
 21
2888.4
  0
LINE
  8
0
 10
938
 11
938
 20
2888.4
 21
2640.4
  0
LINE
  8
0
 10
938
 11
0
 20
2640.4
 21
2640.4
  0
LINE
  8
0
 10
0
 11
0
 20
2975.8
 21
2993.8
  0
LINE
  8
0
 10
0
 11
819
 20
2993.8
 21
2993.8
  0
LINE
  8
0
 10
819
 11
819
 20
2993.8
 21
2975.8
  0
LINE
  8
0
 10
819
 11
0
 20
2975.8
 21
2975.8
  0
LINE
  8
0
 10
5
 11
5.125
 20
80
 21
80.788
  0
LINE
  8
0
 10
5.125
 11
5.487
 20
80.788
 21
81.499
  0
LINE
  8
0
 10
5.487
 11
6.051
 20
81.499
 21
82.063
  0
LINE
  8
0
 10
6.051
 11
6.762
 20
82.063
 21
82.425
  0
LINE
  8
0
 10
6.762
 11
7.55
 20
82.425
 21
82.55
  0
LINE
  8
0
 10
7.55
 11
10.45
 20
82.55
 21
82.55
  0
LINE
  8
0
 10
10.45
 11
11.238
 20
82.55
 21
82.425
  0
LINE
  8
0
 10
11.238
 11
11.949
 20
82.425
 21
82.063
  0
LINE
  8
0
 10
11.949
 11
12.513
 20
82.063
 21
81.499
  0
LINE
  8
0
 10
12.513
 11
12.875
 20
81.499
 21
80.788
  0
LINE
  8
0
 10
12.875
 11
13
 20
80.788
 21
80
  0
LINE
  8
0
 10
13
 11
12.875
 20
80
 21
79.212
  0
LINE
  8
0
 10
12.875
 11
12.513
 20
79.212
 21
78.501
  0
LINE
  8
0
 10
12.513
 11
11.949
 20
78.501
 21
77.937
  0
LINE
  8
0
 10
11.949
 11
11.238
 20
77.937
 21
77.575
  0
LINE
  8
0
 10
11.238
 11
10.45
 20
77.575
 21
77.45
  0
LINE
  8
0
 10
10.45
 11
7.55
 20
77.45
 21
77.45
  0
LINE
  8
0
 10
7.55
 11
6.762
 20
77.45
 21
77.575
  0
LINE
  8
0
 10
6.762
 11
6.051
 20
77.575
 21
77.937
  0
LINE
  8
0
 10
6.051
 11
5.487
 20
77.937
 21
78.501
  0
LINE
  8
0
 10
5.487
 11
5.125
 20
78.501
 21
79.212
  0
LINE
  8
0
 10
5.125
 11
5
 20
79.212
 21
80
  0
LINE
  8
0
 10
5
 11
5.125
 20
469
 21
469.788
  0
LINE
  8
0
 10
5.125
 11
5.487
 20
469.788
 21
470.499
  0
LINE
  8
0
 10
5.487
 11
6.051
 20
470.499
 21
471.063
  0
LINE
  8
0
 10
6.051
 11
6.762
 20
471.063
 21
471.425
  0
LINE
  8
0
 10
6.762
 11
7.55
 20
471.425
 21
471.55
  0
LINE
  8
0
 10
7.55
 11
10.45
 20
471.55
 21
471.55
  0
LINE
  8
0
 10
10.45
 11
11.238
 20
471.55
 21
471.425
  0
LINE
  8
0
 10
11.238
 11
11.949
 20
471.425
 21
471.063
  0
LINE
  8
0
 10
11.949
 11
12.513
 20
471.063
 21
470.499
  0
LINE
  8
0
 10
12.513
 11
12.875
 20
470.499
 21
469.788
  0
LINE
  8
0
 10
12.875
 11
13
 20
469.788
 21
469
  0
LINE
  8
0
 10
13
 11
12.875
 20
469
 21
468.212
  0
LINE
  8
0
 10
12.875
 11
12.513
 20
468.212
 21
467.501
  0
LINE
  8
0
 10
12.513
 11
11.949
 20
467.501
 21
466.937
  0
LINE
  8
0
 10
11.949
 11
11.238
 20
466.937
 21
466.575
  0
LINE
  8
0
 10
11.238
 11
10.45
 20
466.575
 21
466.45
  0
LINE
  8
0
 10
10.45
 11
7.55
 20
466.45
 21
466.45
  0
LINE
  8
0
 10
7.55
 11
6.762
 20
466.45
 21
466.575
  0
LINE
  8
0
 10
6.762
 11
6.051
 20
466.575
 21
466.937
  0
LINE
  8
0
 10
6.051
 11
5.487
 20
466.937
 21
467.501
  0
LINE
  8
0
 10
5.487
 11
5.125
 20
467.501
 21
468.212
  0
LINE
  8
0
 10
5.125
 11
5
 20
468.212
 21
469
  0
LINE
  8
0
 10
5
 11
5.125
 20
858
 21
858.788
  0
LINE
  8
0
 10
5.125
 11
5.487
 20
858.788
 21
859.499
  0
LINE
  8
0
 10
5.487
 11
6.051
 20
859.499
 21
860.063
  0
LINE
  8
0
 10
6.051
 11
6.762
 20
860.063
 21
860.425
  0
LINE
  8
0
 10
6.762
 11
7.55
 20
860.425
 21
860.55
  0
LINE
  8
0
 10
7.55
 11
10.45
 20
860.55
 21
860.55
  0
LINE
  8
0
 10
10.45
 11
11.238
 20
860.55
 21
860.425
  0
LINE
  8
0
 10
11.238
 11
11.949
 20
860.425
 21
860.063
  0
LINE
  8
0
 10
11.949
 11
12.513
 20
860.063
 21
859.499
  0
LINE
  8
0
 10
12.513
 11
12.875
 20
859.499
 21
858.788
  0
LINE
  8
0
 10
12.875
 11
13
 20
858.788
 21
858
  0
LINE
  8
0
 10
13
 11
12.875
 20
858
 21
857.212
  0
LINE
  8
0
 10
12.875
 11
12.513
 20
857.212
 21
856.501
  0
LINE
  8
0
 10
12.513
 11
11.949
 20
856.501
 21
855.937
  0
LINE
  8
0
 10
11.949
 11
11.238
 20
855.937
 21
855.575
  0
LINE
  8
0
 10
11.238
 11
10.45
 20
855.575
 21
855.45
  0
LINE
  8
0
 10
10.45
 11
7.55
 20
855.45
 21
855.45
  0
LINE
  8
0
 10
7.55
 11
6.762
 20
855.45
 21
855.575
  0
LINE
  8
0
 10
6.762
 11
6.051
 20
855.575
 21
855.937
  0
LINE
  8
0
 10
6.051
 11
5.487
 20
855.937
 21
856.501
  0
LINE
  8
0
 10
5.487
 11
5.125
 20
856.501
 21
857.212
  0
LINE
  8
0
 10
5.125
 11
5
 20
857.212
 21
858
  0
LINE
  8
0
 10
5
 11
5.123
 20
1453.8
 21
1454.58
  0
LINE
  8
0
 10
5.123
 11
5.481
 20
1454.58
 21
1455.28
  0
LINE
  8
0
 10
5.481
 11
6.039
 20
1455.28
 21
1455.84
  0
LINE
  8
0
 10
6.039
 11
6.741
 20
1455.84
 21
1456.2
  0
LINE
  8
0
 10
6.741
 11
7.52
 20
1456.2
 21
1456.32
  0
LINE
  8
0
 10
7.52
 11
10.48
 20
1456.32
 21
1456.32
  0
LINE
  8
0
 10
10.48
 11
11.259
 20
1456.32
 21
1456.2
  0
LINE
  8
0
 10
11.259
 11
11.961
 20
1456.2
 21
1455.84
  0
LINE
  8
0
 10
11.961
 11
12.519
 20
1455.84
 21
1455.28
  0
LINE
  8
0
 10
12.519
 11
12.877
 20
1455.28
 21
1454.58
  0
LINE
  8
0
 10
12.877
 11
13
 20
1454.58
 21
1453.8
  0
LINE
  8
0
 10
13
 11
12.877
 20
1453.8
 21
1453.02
  0
LINE
  8
0
 10
12.877
 11
12.519
 20
1453.02
 21
1452.32
  0
LINE
  8
0
 10
12.519
 11
11.961
 20
1452.32
 21
1451.76
  0
LINE
  8
0
 10
11.961
 11
11.259
 20
1451.76
 21
1451.4
  0
LINE
  8
0
 10
11.259
 11
10.48
 20
1451.4
 21
1451.28
  0
LINE
  8
0
 10
10.48
 11
7.52
 20
1451.28
 21
1451.28
  0
LINE
  8
0
 10
7.52
 11
6.741
 20
1451.28
 21
1451.4
  0
LINE
  8
0
 10
6.741
 11
6.039
 20
1451.4
 21
1451.76
  0
LINE
  8
0
 10
6.039
 11
5.481
 20
1451.76
 21
1452.32
  0
LINE
  8
0
 10
5.481
 11
5.123
 20
1452.32
 21
1453.02
  0
LINE
  8
0
 10
5.123
 11
5
 20
1453.02
 21
1453.8
  0
LINE
  8
0
 10
5
 11
5.123
 20
1789.2
 21
1789.97
  0
LINE
  8
0
 10
5.123
 11
5.478
 20
1789.97
 21
1790.67
  0
LINE
  8
0
 10
5.478
 11
6.033
 20
1790.67
 21
1791.23
  0
LINE
  8
0
 10
6.033
 11
6.731
 20
1791.23
 21
1791.58
  0
LINE
  8
0
 10
6.731
 11
7.505
 20
1791.58
 21
1791.7
  0
LINE
  8
0
 10
7.505
 11
10.495
 20
1791.7
 21
1791.7
  0
LINE
  8
0
 10
10.495
 11
11.269
 20
1791.7
 21
1791.58
  0
LINE
  8
0
 10
11.269
 11
11.967
 20
1791.58
 21
1791.23
  0
LINE
  8
0
 10
11.967
 11
12.522
 20
1791.23
 21
1790.67
  0
LINE
  8
0
 10
12.522
 11
12.877
 20
1790.67
 21
1789.97
  0
LINE
  8
0
 10
12.877
 11
13
 20
1789.97
 21
1789.2
  0
LINE
  8
0
 10
13
 11
12.877
 20
1789.2
 21
1788.43
  0
LINE
  8
0
 10
12.877
 11
12.522
 20
1788.43
 21
1787.73
  0
LINE
  8
0
 10
12.522
 11
11.967
 20
1787.73
 21
1787.17
  0
LINE
  8
0
 10
11.967
 11
11.269
 20
1787.17
 21
1786.82
  0
LINE
  8
0
 10
11.269
 11
10.495
 20
1786.82
 21
1786.69
  0
LINE
  8
0
 10
10.495
 11
7.505
 20
1786.69
 21
1786.69
  0
LINE
  8
0
 10
7.505
 11
6.731
 20
1786.69
 21
1786.82
  0
LINE
  8
0
 10
6.731
 11
6.033
 20
1786.82
 21
1787.17
  0
LINE
  8
0
 10
6.033
 11
5.478
 20
1787.17
 21
1787.73
  0
LINE
  8
0
 10
5.478
 11
5.123
 20
1787.73
 21
1788.43
  0
LINE
  8
0
 10
5.123
 11
5
 20
1788.43
 21
1789.2
  0
LINE
  8
0
 10
5
 11
5.123
 20
2124.6
 21
2125.37
  0
LINE
  8
0
 10
5.123
 11
5.478
 20
2125.37
 21
2126.07
  0
LINE
  8
0
 10
5.478
 11
6.033
 20
2126.07
 21
2126.63
  0
LINE
  8
0
 10
6.033
 11
6.731
 20
2126.63
 21
2126.98
  0
LINE
  8
0
 10
6.731
 11
7.505
 20
2126.98
 21
2127.11
  0
LINE
  8
0
 10
7.505
 11
10.495
 20
2127.11
 21
2127.11
  0
LINE
  8
0
 10
10.495
 11
11.269
 20
2127.11
 21
2126.98
  0
LINE
  8
0
 10
11.269
 11
11.967
 20
2126.98
 21
2126.63
  0
LINE
  8
0
 10
11.967
 11
12.522
 20
2126.63
 21
2126.07
  0
LINE
  8
0
 10
12.522
 11
12.877
 20
2126.07
 21
2125.37
  0
LINE
  8
0
 10
12.877
 11
13
 20
2125.37
 21
2124.6
  0
LINE
  8
0
 10
13
 11
12.877
 20
2124.6
 21
2123.83
  0
LINE
  8
0
 10
12.877
 11
12.522
 20
2123.83
 21
2123.13
  0
LINE
  8
0
 10
12.522
 11
11.967
 20
2123.13
 21
2122.57
  0
LINE
  8
0
 10
11.967
 11
11.269
 20
2122.57
 21
2122.22
  0
LINE
  8
0
 10
11.269
 11
10.495
 20
2122.22
 21
2122.1
  0
LINE
  8
0
 10
10.495
 11
7.505
 20
2122.1
 21
2122.1
  0
LINE
  8
0
 10
7.505
 11
6.731
 20
2122.1
 21
2122.22
  0
LINE
  8
0
 10
6.731
 11
6.033
 20
2122.22
 21
2122.57
  0
LINE
  8
0
 10
6.033
 11
5.478
 20
2122.57
 21
2123.13
  0
LINE
  8
0
 10
5.478
 11
5.123
 20
2123.13
 21
2123.83
  0
LINE
  8
0
 10
5.123
 11
5
 20
2123.83
 21
2124.6
  0
LINE
  8
0
 10
5.5
 11
5.506
 20
9
 21
9.2
  0
LINE
  8
0
 10
5.506
 11
5.523
 20
9.2
 21
9.399
  0
LINE
  8
0
 10
5.523
 11
5.551
 20
9.399
 21
9.597
  0
LINE
  8
0
 10
5.551
 11
5.591
 20
9.597
 21
9.793
  0
LINE
  8
0
 10
5.591
 11
5.642
 20
9.793
 21
9.986
  0
LINE
  8
0
 10
5.642
 11
5.704
 20
9.986
 21
10.176
  0
LINE
  8
0
 10
5.704
 11
5.776
 20
10.176
 21
10.362
  0
LINE
  8
0
 10
5.776
 11
5.859
 20
10.362
 21
10.544
  0
LINE
  8
0
 10
5.859
 11
5.952
 20
10.544
 21
10.721
  0
LINE
  8
0
 10
5.952
 11
6.056
 20
10.721
 21
10.892
  0
LINE
  8
0
 10
6.056
 11
6.168
 20
10.892
 21
11.057
  0
LINE
  8
0
 10
6.168
 11
6.291
 20
11.057
 21
11.216
  0
LINE
  8
0
 10
6.291
 11
6.421
 20
11.216
 21
11.367
  0
LINE
  8
0
 10
6.421
 11
6.561
 20
11.367
 21
11.51
  0
LINE
  8
0
 10
6.561
 11
6.708
 20
11.51
 21
11.645
  0
LINE
  8
0
 10
6.708
 11
6.863
 20
11.645
 21
11.772
  0
LINE
  8
0
 10
6.863
 11
7.024
 20
11.772
 21
11.889
  0
LINE
  8
0
 10
7.024
 11
7.193
 20
11.889
 21
11.997
  0
LINE
  8
0
 10
7.193
 11
7.367
 20
11.997
 21
12.096
  0
LINE
  8
0
 10
7.367
 11
7.546
 20
12.096
 21
12.184
  0
LINE
  8
0
 10
7.546
 11
7.73
 20
12.184
 21
12.262
  0
LINE
  8
0
 10
7.73
 11
7.918
 20
12.262
 21
12.329
  0
LINE
  8
0
 10
7.918
 11
8.11
 20
12.329
 21
12.385
  0
LINE
  8
0
 10
8.11
 11
8.305
 20
12.385
 21
12.43
  0
LINE
  8
0
 10
8.305
 11
8.502
 20
12.43
 21
12.464
  0
LINE
  8
0
 10
8.502
 11
8.7
 20
12.464
 21
12.487
  0
LINE
  8
0
 10
8.7
 11
8.9
 20
12.487
 21
12.499
  0
LINE
  8
0
 10
8.9
 11
9.1
 20
12.499
 21
12.499
  0
LINE
  8
0
 10
9.1
 11
9.3
 20
12.499
 21
12.487
  0
LINE
  8
0
 10
9.3
 11
9.498
 20
12.487
 21
12.464
  0
LINE
  8
0
 10
9.498
 11
9.695
 20
12.464
 21
12.43
  0
LINE
  8
0
 10
9.695
 11
9.89
 20
12.43
 21
12.385
  0
LINE
  8
0
 10
9.89
 11
10.082
 20
12.385
 21
12.329
  0
LINE
  8
0
 10
10.082
 11
10.27
 20
12.329
 21
12.262
  0
LINE
  8
0
 10
10.27
 11
10.454
 20
12.262
 21
12.184
  0
LINE
  8
0
 10
10.454
 11
10.633
 20
12.184
 21
12.096
  0
LINE
  8
0
 10
10.633
 11
10.807
 20
12.096
 21
11.997
  0
LINE
  8
0
 10
10.807
 11
10.976
 20
11.997
 21
11.889
  0
LINE
  8
0
 10
10.976
 11
11.137
 20
11.889
 21
11.772
  0
LINE
  8
0
 10
11.137
 11
11.292
 20
11.772
 21
11.645
  0
LINE
  8
0
 10
11.292
 11
11.439
 20
11.645
 21
11.51
  0
LINE
  8
0
 10
11.439
 11
11.579
 20
11.51
 21
11.367
  0
LINE
  8
0
 10
11.579
 11
11.709
 20
11.367
 21
11.216
  0
LINE
  8
0
 10
11.709
 11
11.832
 20
11.216
 21
11.057
  0
LINE
  8
0
 10
11.832
 11
11.944
 20
11.057
 21
10.892
  0
LINE
  8
0
 10
11.944
 11
12.048
 20
10.892
 21
10.721
  0
LINE
  8
0
 10
12.048
 11
12.141
 20
10.721
 21
10.544
  0
LINE
  8
0
 10
12.141
 11
12.224
 20
10.544
 21
10.362
  0
LINE
  8
0
 10
12.224
 11
12.296
 20
10.362
 21
10.176
  0
LINE
  8
0
 10
12.296
 11
12.358
 20
10.176
 21
9.986
  0
LINE
  8
0
 10
12.358
 11
12.409
 20
9.986
 21
9.793
  0
LINE
  8
0
 10
12.409
 11
12.449
 20
9.793
 21
9.597
  0
LINE
  8
0
 10
12.449
 11
12.477
 20
9.597
 21
9.399
  0
LINE
  8
0
 10
12.477
 11
12.494
 20
9.399
 21
9.2
  0
LINE
  8
0
 10
12.494
 11
12.5
 20
9.2
 21
9
  0
LINE
  8
0
 10
12.5
 11
12.494
 20
9
 21
8.8
  0
LINE
  8
0
 10
12.494
 11
12.477
 20
8.8
 21
8.601
  0
LINE
  8
0
 10
12.477
 11
12.449
 20
8.601
 21
8.403
  0
LINE
  8
0
 10
12.449
 11
12.409
 20
8.403
 21
8.207
  0
LINE
  8
0
 10
12.409
 11
12.358
 20
8.207
 21
8.014
  0
LINE
  8
0
 10
12.358
 11
12.296
 20
8.014
 21
7.824
  0
LINE
  8
0
 10
12.296
 11
12.224
 20
7.824
 21
7.638
  0
LINE
  8
0
 10
12.224
 11
12.141
 20
7.638
 21
7.456
  0
LINE
  8
0
 10
12.141
 11
12.048
 20
7.456
 21
7.279
  0
LINE
  8
0
 10
12.048
 11
11.944
 20
7.279
 21
7.108
  0
LINE
  8
0
 10
11.944
 11
11.832
 20
7.108
 21
6.943
  0
LINE
  8
0
 10
11.832
 11
11.709
 20
6.943
 21
6.784
  0
LINE
  8
0
 10
11.709
 11
11.579
 20
6.784
 21
6.633
  0
LINE
  8
0
 10
11.579
 11
11.439
 20
6.633
 21
6.49
  0
LINE
  8
0
 10
11.439
 11
11.292
 20
6.49
 21
6.355
  0
LINE
  8
0
 10
11.292
 11
11.137
 20
6.355
 21
6.228
  0
LINE
  8
0
 10
11.137
 11
10.976
 20
6.228
 21
6.111
  0
LINE
  8
0
 10
10.976
 11
10.807
 20
6.111
 21
6.003
  0
LINE
  8
0
 10
10.807
 11
10.633
 20
6.003
 21
5.904
  0
LINE
  8
0
 10
10.633
 11
10.454
 20
5.904
 21
5.816
  0
LINE
  8
0
 10
10.454
 11
10.27
 20
5.816
 21
5.738
  0
LINE
  8
0
 10
10.27
 11
10.082
 20
5.738
 21
5.671
  0
LINE
  8
0
 10
10.082
 11
9.89
 20
5.671
 21
5.615
  0
LINE
  8
0
 10
9.89
 11
9.695
 20
5.615
 21
5.57
  0
LINE
  8
0
 10
9.695
 11
9.498
 20
5.57
 21
5.536
  0
LINE
  8
0
 10
9.498
 11
9.3
 20
5.536
 21
5.513
  0
LINE
  8
0
 10
9.3
 11
9.1
 20
5.513
 21
5.501
  0
LINE
  8
0
 10
9.1
 11
8.9
 20
5.501
 21
5.501
  0
LINE
  8
0
 10
8.9
 11
8.7
 20
5.501
 21
5.513
  0
LINE
  8
0
 10
8.7
 11
8.502
 20
5.513
 21
5.536
  0
LINE
  8
0
 10
8.502
 11
8.305
 20
5.536
 21
5.57
  0
LINE
  8
0
 10
8.305
 11
8.11
 20
5.57
 21
5.615
  0
LINE
  8
0
 10
8.11
 11
7.918
 20
5.615
 21
5.671
  0
LINE
  8
0
 10
7.918
 11
7.73
 20
5.671
 21
5.738
  0
LINE
  8
0
 10
7.73
 11
7.546
 20
5.738
 21
5.816
  0
LINE
  8
0
 10
7.546
 11
7.367
 20
5.816
 21
5.904
  0
LINE
  8
0
 10
7.367
 11
7.193
 20
5.904
 21
6.003
  0
LINE
  8
0
 10
7.193
 11
7.024
 20
6.003
 21
6.111
  0
LINE
  8
0
 10
7.024
 11
6.863
 20
6.111
 21
6.228
  0
LINE
  8
0
 10
6.863
 11
6.708
 20
6.228
 21
6.355
  0
LINE
  8
0
 10
6.708
 11
6.561
 20
6.355
 21
6.49
  0
LINE
  8
0
 10
6.561
 11
6.421
 20
6.49
 21
6.633
  0
LINE
  8
0
 10
6.421
 11
6.291
 20
6.633
 21
6.784
  0
LINE
  8
0
 10
6.291
 11
6.168
 20
6.784
 21
6.943
  0
LINE
  8
0
 10
6.168
 11
6.056
 20
6.943
 21
7.108
  0
LINE
  8
0
 10
6.056
 11
5.952
 20
7.108
 21
7.279
  0
LINE
  8
0
 10
5.952
 11
5.859
 20
7.279
 21
7.456
  0
LINE
  8
0
 10
5.859
 11
5.776
 20
7.456
 21
7.638
  0
LINE
  8
0
 10
5.776
 11
5.704
 20
7.638
 21
7.824
  0
LINE
  8
0
 10
5.704
 11
5.642
 20
7.824
 21
8.014
  0
LINE
  8
0
 10
5.642
 11
5.591
 20
8.014
 21
8.207
  0
LINE
  8
0
 10
5.591
 11
5.551
 20
8.207
 21
8.403
  0
LINE
  8
0
 10
5.551
 11
5.523
 20
8.403
 21
8.601
  0
LINE
  8
0
 10
5.523
 11
5.506
 20
8.601
 21
8.8
  0
LINE
  8
0
 10
5.506
 11
5.5
 20
8.8
 21
9
  0
LINE
  8
0
 10
5.5
 11
5.506
 20
929
 21
929.2
  0
LINE
  8
0
 10
5.506
 11
5.523
 20
929.2
 21
929.399
  0
LINE
  8
0
 10
5.523
 11
5.551
 20
929.399
 21
929.597
  0
LINE
  8
0
 10
5.551
 11
5.591
 20
929.597
 21
929.793
  0
LINE
  8
0
 10
5.591
 11
5.642
 20
929.793
 21
929.986
  0
LINE
  8
0
 10
5.642
 11
5.704
 20
929.986
 21
930.176
  0
LINE
  8
0
 10
5.704
 11
5.776
 20
930.176
 21
930.362
  0
LINE
  8
0
 10
5.776
 11
5.859
 20
930.362
 21
930.544
  0
LINE
  8
0
 10
5.859
 11
5.952
 20
930.544
 21
930.721
  0
LINE
  8
0
 10
5.952
 11
6.056
 20
930.721
 21
930.892
  0
LINE
  8
0
 10
6.056
 11
6.168
 20
930.892
 21
931.057
  0
LINE
  8
0
 10
6.168
 11
6.291
 20
931.057
 21
931.216
  0
LINE
  8
0
 10
6.291
 11
6.421
 20
931.216
 21
931.367
  0
LINE
  8
0
 10
6.421
 11
6.561
 20
931.367
 21
931.51
  0
LINE
  8
0
 10
6.561
 11
6.708
 20
931.51
 21
931.645
  0
LINE
  8
0
 10
6.708
 11
6.863
 20
931.645
 21
931.772
  0
LINE
  8
0
 10
6.863
 11
7.024
 20
931.772
 21
931.889
  0
LINE
  8
0
 10
7.024
 11
7.193
 20
931.889
 21
931.997
  0
LINE
  8
0
 10
7.193
 11
7.367
 20
931.997
 21
932.096
  0
LINE
  8
0
 10
7.367
 11
7.546
 20
932.096
 21
932.184
  0
LINE
  8
0
 10
7.546
 11
7.73
 20
932.184
 21
932.262
  0
LINE
  8
0
 10
7.73
 11
7.918
 20
932.262
 21
932.329
  0
LINE
  8
0
 10
7.918
 11
8.11
 20
932.329
 21
932.385
  0
LINE
  8
0
 10
8.11
 11
8.305
 20
932.385
 21
932.43
  0
LINE
  8
0
 10
8.305
 11
8.502
 20
932.43
 21
932.464
  0
LINE
  8
0
 10
8.502
 11
8.7
 20
932.464
 21
932.487
  0
LINE
  8
0
 10
8.7
 11
8.9
 20
932.487
 21
932.499
  0
LINE
  8
0
 10
8.9
 11
9.1
 20
932.499
 21
932.499
  0
LINE
  8
0
 10
9.1
 11
9.3
 20
932.499
 21
932.487
  0
LINE
  8
0
 10
9.3
 11
9.498
 20
932.487
 21
932.464
  0
LINE
  8
0
 10
9.498
 11
9.695
 20
932.464
 21
932.43
  0
LINE
  8
0
 10
9.695
 11
9.89
 20
932.43
 21
932.385
  0
LINE
  8
0
 10
9.89
 11
10.082
 20
932.385
 21
932.329
  0
LINE
  8
0
 10
10.082
 11
10.27
 20
932.329
 21
932.262
  0
LINE
  8
0
 10
10.27
 11
10.454
 20
932.262
 21
932.184
  0
LINE
  8
0
 10
10.454
 11
10.633
 20
932.184
 21
932.096
  0
LINE
  8
0
 10
10.633
 11
10.807
 20
932.096
 21
931.997
  0
LINE
  8
0
 10
10.807
 11
10.976
 20
931.997
 21
931.889
  0
LINE
  8
0
 10
10.976
 11
11.137
 20
931.889
 21
931.772
  0
LINE
  8
0
 10
11.137
 11
11.292
 20
931.772
 21
931.645
  0
LINE
  8
0
 10
11.292
 11
11.439
 20
931.645
 21
931.51
  0
LINE
  8
0
 10
11.439
 11
11.579
 20
931.51
 21
931.367
  0
LINE
  8
0
 10
11.579
 11
11.709
 20
931.367
 21
931.216
  0
LINE
  8
0
 10
11.709
 11
11.832
 20
931.216
 21
931.057
  0
LINE
  8
0
 10
11.832
 11
11.944
 20
931.057
 21
930.892
  0
LINE
  8
0
 10
11.944
 11
12.048
 20
930.892
 21
930.721
  0
LINE
  8
0
 10
12.048
 11
12.141
 20
930.721
 21
930.544
  0
LINE
  8
0
 10
12.141
 11
12.224
 20
930.544
 21
930.362
  0
LINE
  8
0
 10
12.224
 11
12.296
 20
930.362
 21
930.176
  0
LINE
  8
0
 10
12.296
 11
12.358
 20
930.176
 21
929.986
  0
LINE
  8
0
 10
12.358
 11
12.409
 20
929.986
 21
929.793
  0
LINE
  8
0
 10
12.409
 11
12.449
 20
929.793
 21
929.597
  0
LINE
  8
0
 10
12.449
 11
12.477
 20
929.597
 21
929.399
  0
LINE
  8
0
 10
12.477
 11
12.494
 20
929.399
 21
929.2
  0
LINE
  8
0
 10
12.494
 11
12.5
 20
929.2
 21
929
  0
LINE
  8
0
 10
12.5
 11
12.494
 20
929
 21
928.8
  0
LINE
  8
0
 10
12.494
 11
12.477
 20
928.8
 21
928.601
  0
LINE
  8
0
 10
12.477
 11
12.449
 20
928.601
 21
928.403
  0
LINE
  8
0
 10
12.449
 11
12.409
 20
928.403
 21
928.207
  0
LINE
  8
0
 10
12.409
 11
12.358
 20
928.207
 21
928.014
  0
LINE
  8
0
 10
12.358
 11
12.296
 20
928.014
 21
927.824
  0
LINE
  8
0
 10
12.296
 11
12.224
 20
927.824
 21
927.638
  0
LINE
  8
0
 10
12.224
 11
12.141
 20
927.638
 21
927.456
  0
LINE
  8
0
 10
12.141
 11
12.048
 20
927.456
 21
927.279
  0
LINE
  8
0
 10
12.048
 11
11.944
 20
927.279
 21
927.108
  0
LINE
  8
0
 10
11.944
 11
11.832
 20
927.108
 21
926.943
  0
LINE
  8
0
 10
11.832
 11
11.709
 20
926.943
 21
926.784
  0
LINE
  8
0
 10
11.709
 11
11.579
 20
926.784
 21
926.633
  0
LINE
  8
0
 10
11.579
 11
11.439
 20
926.633
 21
926.49
  0
LINE
  8
0
 10
11.439
 11
11.292
 20
926.49
 21
926.355
  0
LINE
  8
0
 10
11.292
 11
11.137
 20
926.355
 21
926.228
  0
LINE
  8
0
 10
11.137
 11
10.976
 20
926.228
 21
926.111
  0
LINE
  8
0
 10
10.976
 11
10.807
 20
926.111
 21
926.003
  0
LINE
  8
0
 10
10.807
 11
10.633
 20
926.003
 21
925.904
  0
LINE
  8
0
 10
10.633
 11
10.454
 20
925.904
 21
925.816
  0
LINE
  8
0
 10
10.454
 11
10.27
 20
925.816
 21
925.738
  0
LINE
  8
0
 10
10.27
 11
10.082
 20
925.738
 21
925.671
  0
LINE
  8
0
 10
10.082
 11
9.89
 20
925.671
 21
925.615
  0
LINE
  8
0
 10
9.89
 11
9.695
 20
925.615
 21
925.57
  0
LINE
  8
0
 10
9.695
 11
9.498
 20
925.57
 21
925.536
  0
LINE
  8
0
 10
9.498
 11
9.3
 20
925.536
 21
925.513
  0
LINE
  8
0
 10
9.3
 11
9.1
 20
925.513
 21
925.501
  0
LINE
  8
0
 10
9.1
 11
8.9
 20
925.501
 21
925.501
  0
LINE
  8
0
 10
8.9
 11
8.7
 20
925.501
 21
925.513
  0
LINE
  8
0
 10
8.7
 11
8.502
 20
925.513
 21
925.536
  0
LINE
  8
0
 10
8.502
 11
8.305
 20
925.536
 21
925.57
  0
LINE
  8
0
 10
8.305
 11
8.11
 20
925.57
 21
925.615
  0
LINE
  8
0
 10
8.11
 11
7.918
 20
925.615
 21
925.671
  0
LINE
  8
0
 10
7.918
 11
7.73
 20
925.671
 21
925.738
  0
LINE
  8
0
 10
7.73
 11
7.546
 20
925.738
 21
925.816
  0
LINE
  8
0
 10
7.546
 11
7.367
 20
925.816
 21
925.904
  0
LINE
  8
0
 10
7.367
 11
7.193
 20
925.904
 21
926.003
  0
LINE
  8
0
 10
7.193
 11
7.024
 20
926.003
 21
926.111
  0
LINE
  8
0
 10
7.024
 11
6.863
 20
926.111
 21
926.228
  0
LINE
  8
0
 10
6.863
 11
6.708
 20
926.228
 21
926.355
  0
LINE
  8
0
 10
6.708
 11
6.561
 20
926.355
 21
926.49
  0
LINE
  8
0
 10
6.561
 11
6.421
 20
926.49
 21
926.633
  0
LINE
  8
0
 10
6.421
 11
6.291
 20
926.633
 21
926.784
  0
LINE
  8
0
 10
6.291
 11
6.168
 20
926.784
 21
926.943
  0
LINE
  8
0
 10
6.168
 11
6.056
 20
926.943
 21
927.108
  0
LINE
  8
0
 10
6.056
 11
5.952
 20
927.108
 21
927.279
  0
LINE
  8
0
 10
5.952
 11
5.859
 20
927.279
 21
927.456
  0
LINE
  8
0
 10
5.859
 11
5.776
 20
927.456
 21
927.638
  0
LINE
  8
0
 10
5.776
 11
5.704
 20
927.638
 21
927.824
  0
LINE
  8
0
 10
5.704
 11
5.642
 20
927.824
 21
928.014
  0
LINE
  8
0
 10
5.642
 11
5.591
 20
928.014
 21
928.207
  0
LINE
  8
0
 10
5.591
 11
5.551
 20
928.207
 21
928.403
  0
LINE
  8
0
 10
5.551
 11
5.523
 20
928.403
 21
928.601
  0
LINE
  8
0
 10
5.523
 11
5.506
 20
928.601
 21
928.8
  0
LINE
  8
0
 10
5.506
 11
5.5
 20
928.8
 21
929
  0
LINE
  8
0
 10
6.502
 11
6.502
 20
1118.3
 21
1118.5
  0
LINE
  8
0
 10
6.502
 11
6.518
 20
1118.5
 21
1118.7
  0
LINE
  8
0
 10
6.518
 11
6.549
 20
1118.7
 21
1118.89
  0
LINE
  8
0
 10
6.549
 11
6.596
 20
1118.89
 21
1119.09
  0
LINE
  8
0
 10
6.596
 11
6.658
 20
1119.09
 21
1119.28
  0
LINE
  8
0
 10
6.658
 11
6.735
 20
1119.28
 21
1119.46
  0
LINE
  8
0
 10
6.735
 11
6.827
 20
1119.46
 21
1119.64
  0
LINE
  8
0
 10
6.827
 11
6.932
 20
1119.64
 21
1119.8
  0
LINE
  8
0
 10
6.932
 11
7.05
 20
1119.8
 21
1119.96
  0
LINE
  8
0
 10
7.05
 11
7.18
 20
1119.96
 21
1120.11
  0
LINE
  8
0
 10
7.18
 11
7.322
 20
1120.11
 21
1120.25
  0
LINE
  8
0
 10
7.322
 11
7.475
 20
1120.25
 21
1120.38
  0
LINE
  8
0
 10
7.475
 11
7.637
 20
1120.38
 21
1120.5
  0
LINE
  8
0
 10
7.637
 11
7.808
 20
1120.5
 21
1120.6
  0
LINE
  8
0
 10
7.808
 11
7.986
 20
1120.6
 21
1120.68
  0
LINE
  8
0
 10
7.986
 11
8.171
 20
1120.68
 21
1120.76
  0
LINE
  8
0
 10
8.171
 11
8.361
 20
1120.76
 21
1120.82
  0
LINE
  8
0
 10
8.361
 11
8.555
 20
1120.82
 21
1120.86
  0
LINE
  8
0
 10
8.555
 11
8.752
 20
1120.86
 21
1120.89
  0
LINE
  8
0
 10
8.752
 11
8.95
 20
1120.89
 21
1120.9
  0
LINE
  8
0
 10
8.95
 11
9.149
 20
1120.9
 21
1120.9
  0
LINE
  8
0
 10
9.149
 11
9.347
 20
1120.9
 21
1120.88
  0
LINE
  8
0
 10
9.347
 11
9.542
 20
1120.88
 21
1120.84
  0
LINE
  8
0
 10
9.542
 11
9.735
 20
1120.84
 21
1120.79
  0
LINE
  8
0
 10
9.735
 11
9.922
 20
1120.79
 21
1120.72
  0
LINE
  8
0
 10
9.922
 11
10.104
 20
1120.72
 21
1120.64
  0
LINE
  8
0
 10
10.104
 11
10.279
 20
1120.64
 21
1120.55
  0
LINE
  8
0
 10
10.279
 11
10.445
 20
1120.55
 21
1120.44
  0
LINE
  8
0
 10
10.445
 11
10.603
 20
1120.44
 21
1120.32
  0
LINE
  8
0
 10
10.603
 11
10.75
 20
1120.32
 21
1120.18
  0
LINE
  8
0
 10
10.75
 11
10.886
 20
1120.18
 21
1120.04
  0
LINE
  8
0
 10
10.886
 11
11.011
 20
1120.04
 21
1119.89
  0
LINE
  8
0
 10
11.011
 11
11.122
 20
1119.89
 21
1119.72
  0
LINE
  8
0
 10
11.122
 11
11.221
 20
1119.72
 21
1119.55
  0
LINE
  8
0
 10
11.221
 11
11.305
 20
1119.55
 21
1119.37
  0
LINE
  8
0
 10
11.305
 11
11.375
 20
1119.37
 21
1119.18
  0
LINE
  8
0
 10
11.375
 11
11.429
 20
1119.18
 21
1118.99
  0
LINE
  8
0
 10
11.429
 11
11.468
 20
1118.99
 21
1118.8
  0
LINE
  8
0
 10
11.468
 11
11.492
 20
1118.8
 21
1118.6
  0
LINE
  8
0
 10
11.492
 11
11.5
 20
1118.6
 21
1118.4
  0
LINE
  8
0
 10
11.5
 11
11.492
 20
1118.4
 21
1118.2
  0
LINE
  8
0
 10
11.492
 11
11.468
 20
1118.2
 21
1118
  0
LINE
  8
0
 10
11.468
 11
11.429
 20
1118
 21
1117.81
  0
LINE
  8
0
 10
11.429
 11
11.375
 20
1117.81
 21
1117.62
  0
LINE
  8
0
 10
11.375
 11
11.305
 20
1117.62
 21
1117.43
  0
LINE
  8
0
 10
11.305
 11
11.221
 20
1117.43
 21
1117.25
  0
LINE
  8
0
 10
11.221
 11
11.122
 20
1117.25
 21
1117.08
  0
LINE
  8
0
 10
11.122
 11
11.011
 20
1117.08
 21
1116.91
  0
LINE
  8
0
 10
11.011
 11
10.886
 20
1116.91
 21
1116.76
  0
LINE
  8
0
 10
10.886
 11
10.75
 20
1116.76
 21
1116.62
  0
LINE
  8
0
 10
10.75
 11
10.603
 20
1116.62
 21
1116.48
  0
LINE
  8
0
 10
10.603
 11
10.445
 20
1116.48
 21
1116.36
  0
LINE
  8
0
 10
10.445
 11
10.279
 20
1116.36
 21
1116.25
  0
LINE
  8
0
 10
10.279
 11
10.104
 20
1116.25
 21
1116.16
  0
LINE
  8
0
 10
10.104
 11
9.922
 20
1116.16
 21
1116.08
  0
LINE
  8
0
 10
9.922
 11
9.735
 20
1116.08
 21
1116.01
  0
LINE
  8
0
 10
9.735
 11
9.542
 20
1116.01
 21
1115.96
  0
LINE
  8
0
 10
9.542
 11
9.347
 20
1115.96
 21
1115.92
  0
LINE
  8
0
 10
9.347
 11
9.149
 20
1115.92
 21
1115.9
  0
LINE
  8
0
 10
9.149
 11
8.95
 20
1115.9
 21
1115.9
  0
LINE
  8
0
 10
8.95
 11
8.752
 20
1115.9
 21
1115.91
  0
LINE
  8
0
 10
8.752
 11
8.555
 20
1115.91
 21
1115.94
  0
LINE
  8
0
 10
8.555
 11
8.361
 20
1115.94
 21
1115.98
  0
LINE
  8
0
 10
8.361
 11
8.171
 20
1115.98
 21
1116.04
  0
LINE
  8
0
 10
8.171
 11
7.986
 20
1116.04
 21
1116.12
  0
LINE
  8
0
 10
7.986
 11
7.808
 20
1116.12
 21
1116.2
  0
LINE
  8
0
 10
7.808
 11
7.637
 20
1116.2
 21
1116.3
  0
LINE
  8
0
 10
7.637
 11
7.475
 20
1116.3
 21
1116.42
  0
LINE
  8
0
 10
7.475
 11
7.322
 20
1116.42
 21
1116.55
  0
LINE
  8
0
 10
7.322
 11
7.18
 20
1116.55
 21
1116.69
  0
LINE
  8
0
 10
7.18
 11
7.05
 20
1116.69
 21
1116.84
  0
LINE
  8
0
 10
7.05
 11
6.932
 20
1116.84
 21
1117
  0
LINE
  8
0
 10
6.932
 11
6.827
 20
1117
 21
1117.16
  0
LINE
  8
0
 10
6.827
 11
6.735
 20
1117.16
 21
1117.34
  0
LINE
  8
0
 10
6.735
 11
6.658
 20
1117.34
 21
1117.52
  0
LINE
  8
0
 10
6.658
 11
6.596
 20
1117.52
 21
1117.71
  0
LINE
  8
0
 10
6.596
 11
6.549
 20
1117.71
 21
1117.91
  0
LINE
  8
0
 10
6.549
 11
6.518
 20
1117.91
 21
1118.1
  0
LINE
  8
0
 10
6.518
 11
6.502
 20
1118.1
 21
1118.3
  0
LINE
  8
0
 10
6.502
 11
6.502
 20
1264.3
 21
1264.5
  0
LINE
  8
0
 10
6.502
 11
6.518
 20
1264.5
 21
1264.7
  0
LINE
  8
0
 10
6.518
 11
6.549
 20
1264.7
 21
1264.89
  0
LINE
  8
0
 10
6.549
 11
6.596
 20
1264.89
 21
1265.09
  0
LINE
  8
0
 10
6.596
 11
6.658
 20
1265.09
 21
1265.28
  0
LINE
  8
0
 10
6.658
 11
6.735
 20
1265.28
 21
1265.46
  0
LINE
  8
0
 10
6.735
 11
6.827
 20
1265.46
 21
1265.64
  0
LINE
  8
0
 10
6.827
 11
6.932
 20
1265.64
 21
1265.8
  0
LINE
  8
0
 10
6.932
 11
7.05
 20
1265.8
 21
1265.96
  0
LINE
  8
0
 10
7.05
 11
7.18
 20
1265.96
 21
1266.11
  0
LINE
  8
0
 10
7.18
 11
7.322
 20
1266.11
 21
1266.25
  0
LINE
  8
0
 10
7.322
 11
7.475
 20
1266.25
 21
1266.38
  0
LINE
  8
0
 10
7.475
 11
7.637
 20
1266.38
 21
1266.5
  0
LINE
  8
0
 10
7.637
 11
7.808
 20
1266.5
 21
1266.6
  0
LINE
  8
0
 10
7.808
 11
7.986
 20
1266.6
 21
1266.68
  0
LINE
  8
0
 10
7.986
 11
8.171
 20
1266.68
 21
1266.76
  0
LINE
  8
0
 10
8.171
 11
8.361
 20
1266.76
 21
1266.82
  0
LINE
  8
0
 10
8.361
 11
8.555
 20
1266.82
 21
1266.86
  0
LINE
  8
0
 10
8.555
 11
8.752
 20
1266.86
 21
1266.89
  0
LINE
  8
0
 10
8.752
 11
8.95
 20
1266.89
 21
1266.9
  0
LINE
  8
0
 10
8.95
 11
9.149
 20
1266.9
 21
1266.9
  0
LINE
  8
0
 10
9.149
 11
9.347
 20
1266.9
 21
1266.88
  0
LINE
  8
0
 10
9.347
 11
9.542
 20
1266.88
 21
1266.84
  0
LINE
  8
0
 10
9.542
 11
9.735
 20
1266.84
 21
1266.79
  0
LINE
  8
0
 10
9.735
 11
9.922
 20
1266.79
 21
1266.72
  0
LINE
  8
0
 10
9.922
 11
10.104
 20
1266.72
 21
1266.64
  0
LINE
  8
0
 10
10.104
 11
10.279
 20
1266.64
 21
1266.55
  0
LINE
  8
0
 10
10.279
 11
10.445
 20
1266.55
 21
1266.44
  0
LINE
  8
0
 10
10.445
 11
10.603
 20
1266.44
 21
1266.32
  0
LINE
  8
0
 10
10.603
 11
10.75
 20
1266.32
 21
1266.18
  0
LINE
  8
0
 10
10.75
 11
10.886
 20
1266.18
 21
1266.04
  0
LINE
  8
0
 10
10.886
 11
11.011
 20
1266.04
 21
1265.89
  0
LINE
  8
0
 10
11.011
 11
11.122
 20
1265.89
 21
1265.72
  0
LINE
  8
0
 10
11.122
 11
11.221
 20
1265.72
 21
1265.55
  0
LINE
  8
0
 10
11.221
 11
11.305
 20
1265.55
 21
1265.37
  0
LINE
  8
0
 10
11.305
 11
11.375
 20
1265.37
 21
1265.18
  0
LINE
  8
0
 10
11.375
 11
11.429
 20
1265.18
 21
1264.99
  0
LINE
  8
0
 10
11.429
 11
11.468
 20
1264.99
 21
1264.8
  0
LINE
  8
0
 10
11.468
 11
11.492
 20
1264.8
 21
1264.6
  0
LINE
  8
0
 10
11.492
 11
11.5
 20
1264.6
 21
1264.4
  0
LINE
  8
0
 10
11.5
 11
11.492
 20
1264.4
 21
1264.2
  0
LINE
  8
0
 10
11.492
 11
11.468
 20
1264.2
 21
1264
  0
LINE
  8
0
 10
11.468
 11
11.429
 20
1264
 21
1263.81
  0
LINE
  8
0
 10
11.429
 11
11.375
 20
1263.81
 21
1263.62
  0
LINE
  8
0
 10
11.375
 11
11.305
 20
1263.62
 21
1263.43
  0
LINE
  8
0
 10
11.305
 11
11.221
 20
1263.43
 21
1263.25
  0
LINE
  8
0
 10
11.221
 11
11.122
 20
1263.25
 21
1263.08
  0
LINE
  8
0
 10
11.122
 11
11.011
 20
1263.08
 21
1262.91
  0
LINE
  8
0
 10
11.011
 11
10.886
 20
1262.91
 21
1262.76
  0
LINE
  8
0
 10
10.886
 11
10.75
 20
1262.76
 21
1262.62
  0
LINE
  8
0
 10
10.75
 11
10.603
 20
1262.62
 21
1262.48
  0
LINE
  8
0
 10
10.603
 11
10.445
 20
1262.48
 21
1262.36
  0
LINE
  8
0
 10
10.445
 11
10.279
 20
1262.36
 21
1262.25
  0
LINE
  8
0
 10
10.279
 11
10.104
 20
1262.25
 21
1262.16
  0
LINE
  8
0
 10
10.104
 11
9.922
 20
1262.16
 21
1262.08
  0
LINE
  8
0
 10
9.922
 11
9.735
 20
1262.08
 21
1262.01
  0
LINE
  8
0
 10
9.735
 11
9.542
 20
1262.01
 21
1261.96
  0
LINE
  8
0
 10
9.542
 11
9.347
 20
1261.96
 21
1261.92
  0
LINE
  8
0
 10
9.347
 11
9.149
 20
1261.92
 21
1261.9
  0
LINE
  8
0
 10
9.149
 11
8.95
 20
1261.9
 21
1261.9
  0
LINE
  8
0
 10
8.95
 11
8.752
 20
1261.9
 21
1261.91
  0
LINE
  8
0
 10
8.752
 11
8.555
 20
1261.91
 21
1261.94
  0
LINE
  8
0
 10
8.555
 11
8.361
 20
1261.94
 21
1261.98
  0
LINE
  8
0
 10
8.361
 11
8.171
 20
1261.98
 21
1262.04
  0
LINE
  8
0
 10
8.171
 11
7.986
 20
1262.04
 21
1262.12
  0
LINE
  8
0
 10
7.986
 11
7.808
 20
1262.12
 21
1262.2
  0
LINE
  8
0
 10
7.808
 11
7.637
 20
1262.2
 21
1262.3
  0
LINE
  8
0
 10
7.637
 11
7.475
 20
1262.3
 21
1262.42
  0
LINE
  8
0
 10
7.475
 11
7.322
 20
1262.42
 21
1262.55
  0
LINE
  8
0
 10
7.322
 11
7.18
 20
1262.55
 21
1262.69
  0
LINE
  8
0
 10
7.18
 11
7.05
 20
1262.69
 21
1262.84
  0
LINE
  8
0
 10
7.05
 11
6.932
 20
1262.84
 21
1263
  0
LINE
  8
0
 10
6.932
 11
6.827
 20
1263
 21
1263.16
  0
LINE
  8
0
 10
6.827
 11
6.735
 20
1263.16
 21
1263.34
  0
LINE
  8
0
 10
6.735
 11
6.658
 20
1263.34
 21
1263.52
  0
LINE
  8
0
 10
6.658
 11
6.596
 20
1263.52
 21
1263.71
  0
LINE
  8
0
 10
6.596
 11
6.549
 20
1263.71
 21
1263.91
  0
LINE
  8
0
 10
6.549
 11
6.518
 20
1263.91
 21
1264.1
  0
LINE
  8
0
 10
6.518
 11
6.502
 20
1264.1
 21
1264.3
  0
LINE
  8
0
 10
6.502
 11
6.502
 20
2984.7
 21
2984.9
  0
LINE
  8
0
 10
6.502
 11
6.518
 20
2984.9
 21
2985.1
  0
LINE
  8
0
 10
6.518
 11
6.549
 20
2985.1
 21
2985.29
  0
LINE
  8
0
 10
6.549
 11
6.596
 20
2985.29
 21
2985.49
  0
LINE
  8
0
 10
6.596
 11
6.658
 20
2985.49
 21
2985.68
  0
LINE
  8
0
 10
6.658
 11
6.735
 20
2985.68
 21
2985.86
  0
LINE
  8
0
 10
6.735
 11
6.827
 20
2985.86
 21
2986.04
  0
LINE
  8
0
 10
6.827
 11
6.932
 20
2986.04
 21
2986.2
  0
LINE
  8
0
 10
6.932
 11
7.05
 20
2986.2
 21
2986.36
  0
LINE
  8
0
 10
7.05
 11
7.18
 20
2986.36
 21
2986.51
  0
LINE
  8
0
 10
7.18
 11
7.322
 20
2986.51
 21
2986.65
  0
LINE
  8
0
 10
7.322
 11
7.475
 20
2986.65
 21
2986.78
  0
LINE
  8
0
 10
7.475
 11
7.637
 20
2986.78
 21
2986.9
  0
LINE
  8
0
 10
7.637
 11
7.808
 20
2986.9
 21
2987
  0
LINE
  8
0
 10
7.808
 11
7.986
 20
2987
 21
2987.09
  0
LINE
  8
0
 10
7.986
 11
8.171
 20
2987.09
 21
2987.16
  0
LINE
  8
0
 10
8.171
 11
8.361
 20
2987.16
 21
2987.22
  0
LINE
  8
0
 10
8.361
 11
8.555
 20
2987.22
 21
2987.26
  0
LINE
  8
0
 10
8.555
 11
8.752
 20
2987.26
 21
2987.29
  0
LINE
  8
0
 10
8.752
 11
8.95
 20
2987.29
 21
2987.3
  0
LINE
  8
0
 10
8.95
 11
9.149
 20
2987.3
 21
2987.3
  0
LINE
  8
0
 10
9.149
 11
9.347
 20
2987.3
 21
2987.28
  0
LINE
  8
0
 10
9.347
 11
9.542
 20
2987.28
 21
2987.24
  0
LINE
  8
0
 10
9.542
 11
9.735
 20
2987.24
 21
2987.19
  0
LINE
  8
0
 10
9.735
 11
9.922
 20
2987.19
 21
2987.12
  0
LINE
  8
0
 10
9.922
 11
10.104
 20
2987.12
 21
2987.04
  0
LINE
  8
0
 10
10.104
 11
10.279
 20
2987.04
 21
2986.95
  0
LINE
  8
0
 10
10.279
 11
10.445
 20
2986.95
 21
2986.84
  0
LINE
  8
0
 10
10.445
 11
10.603
 20
2986.84
 21
2986.72
  0
LINE
  8
0
 10
10.603
 11
10.75
 20
2986.72
 21
2986.59
  0
LINE
  8
0
 10
10.75
 11
10.886
 20
2986.59
 21
2986.44
  0
LINE
  8
0
 10
10.886
 11
11.011
 20
2986.44
 21
2986.29
  0
LINE
  8
0
 10
11.011
 11
11.122
 20
2986.29
 21
2986.12
  0
LINE
  8
0
 10
11.122
 11
11.221
 20
2986.12
 21
2985.95
  0
LINE
  8
0
 10
11.221
 11
11.305
 20
2985.95
 21
2985.77
  0
LINE
  8
0
 10
11.305
 11
11.375
 20
2985.77
 21
2985.58
  0
LINE
  8
0
 10
11.375
 11
11.429
 20
2985.58
 21
2985.39
  0
LINE
  8
0
 10
11.429
 11
11.468
 20
2985.39
 21
2985.2
  0
LINE
  8
0
 10
11.468
 11
11.492
 20
2985.2
 21
2985
  0
LINE
  8
0
 10
11.492
 11
11.5
 20
2985
 21
2984.8
  0
LINE
  8
0
 10
11.5
 11
11.492
 20
2984.8
 21
2984.6
  0
LINE
  8
0
 10
11.492
 11
11.468
 20
2984.6
 21
2984.4
  0
LINE
  8
0
 10
11.468
 11
11.429
 20
2984.4
 21
2984.21
  0
LINE
  8
0
 10
11.429
 11
11.375
 20
2984.21
 21
2984.02
  0
LINE
  8
0
 10
11.375
 11
11.305
 20
2984.02
 21
2983.83
  0
LINE
  8
0
 10
11.305
 11
11.221
 20
2983.83
 21
2983.65
  0
LINE
  8
0
 10
11.221
 11
11.122
 20
2983.65
 21
2983.48
  0
LINE
  8
0
 10
11.122
 11
11.011
 20
2983.48
 21
2983.31
  0
LINE
  8
0
 10
11.011
 11
10.886
 20
2983.31
 21
2983.16
  0
LINE
  8
0
 10
10.886
 11
10.75
 20
2983.16
 21
2983.01
  0
LINE
  8
0
 10
10.75
 11
10.603
 20
2983.01
 21
2982.88
  0
LINE
  8
0
 10
10.603
 11
10.445
 20
2982.88
 21
2982.76
  0
LINE
  8
0
 10
10.445
 11
10.279
 20
2982.76
 21
2982.65
  0
LINE
  8
0
 10
10.279
 11
10.104
 20
2982.65
 21
2982.56
  0
LINE
  8
0
 10
10.104
 11
9.922
 20
2982.56
 21
2982.48
  0
LINE
  8
0
 10
9.922
 11
9.735
 20
2982.48
 21
2982.41
  0
LINE
  8
0
 10
9.735
 11
9.542
 20
2982.41
 21
2982.36
  0
LINE
  8
0
 10
9.542
 11
9.347
 20
2982.36
 21
2982.32
  0
LINE
  8
0
 10
9.347
 11
9.149
 20
2982.32
 21
2982.3
  0
LINE
  8
0
 10
9.149
 11
8.95
 20
2982.3
 21
2982.3
  0
LINE
  8
0
 10
8.95
 11
8.752
 20
2982.3
 21
2982.31
  0
LINE
  8
0
 10
8.752
 11
8.555
 20
2982.31
 21
2982.34
  0
LINE
  8
0
 10
8.555
 11
8.361
 20
2982.34
 21
2982.38
  0
LINE
  8
0
 10
8.361
 11
8.171
 20
2982.38
 21
2982.44
  0
LINE
  8
0
 10
8.171
 11
7.986
 20
2982.44
 21
2982.51
  0
LINE
  8
0
 10
7.986
 11
7.808
 20
2982.51
 21
2982.6
  0
LINE
  8
0
 10
7.808
 11
7.637
 20
2982.6
 21
2982.7
  0
LINE
  8
0
 10
7.637
 11
7.475
 20
2982.7
 21
2982.82
  0
LINE
  8
0
 10
7.475
 11
7.322
 20
2982.82
 21
2982.95
  0
LINE
  8
0
 10
7.322
 11
7.18
 20
2982.95
 21
2983.09
  0
LINE
  8
0
 10
7.18
 11
7.05
 20
2983.09
 21
2983.24
  0
LINE
  8
0
 10
7.05
 11
6.932
 20
2983.24
 21
2983.4
  0
LINE
  8
0
 10
6.932
 11
6.827
 20
2983.4
 21
2983.56
  0
LINE
  8
0
 10
6.827
 11
6.735
 20
2983.56
 21
2983.74
  0
LINE
  8
0
 10
6.735
 11
6.658
 20
2983.74
 21
2983.92
  0
LINE
  8
0
 10
6.658
 11
6.596
 20
2983.92
 21
2984.11
  0
LINE
  8
0
 10
6.596
 11
6.549
 20
2984.11
 21
2984.31
  0
LINE
  8
0
 10
6.549
 11
6.518
 20
2984.31
 21
2984.5
  0
LINE
  8
0
 10
6.518
 11
6.502
 20
2984.5
 21
2984.7
  0
LINE
  8
0
 10
28
 11
28
 20
1337.3
 21
1427.3
  0
LINE
  8
0
 10
28
 11
28.008
 20
1427.3
 21
1427.74
  0
LINE
  8
0
 10
28.008
 11
28.03
 20
1427.74
 21
1428.17
  0
LINE
  8
0
 10
28.03
 11
28.068
 20
1428.17
 21
1428.61
  0
LINE
  8
0
 10
28.068
 11
28.122
 20
1428.61
 21
1429.04
  0
LINE
  8
0
 10
28.122
 11
28.19
 20
1429.04
 21
1429.47
  0
LINE
  8
0
 10
28.19
 11
28.273
 20
1429.47
 21
1429.9
  0
LINE
  8
0
 10
28.273
 11
28.371
 20
1429.9
 21
1430.32
  0
LINE
  8
0
 10
28.371
 11
28.484
 20
1430.32
 21
1430.75
  0
LINE
  8
0
 10
28.484
 11
28.612
 20
1430.75
 21
1431.16
  0
LINE
  8
0
 10
28.612
 11
28.754
 20
1431.16
 21
1431.58
  0
LINE
  8
0
 10
28.754
 11
28.91
 20
1431.58
 21
1431.98
  0
LINE
  8
0
 10
28.91
 11
29.081
 20
1431.98
 21
1432.38
  0
LINE
  8
0
 10
29.081
 11
29.265
 20
1432.38
 21
1432.78
  0
LINE
  8
0
 10
29.265
 11
29.463
 20
1432.78
 21
1433.17
  0
LINE
  8
0
 10
29.463
 11
29.675
 20
1433.17
 21
1433.55
  0
LINE
  8
0
 10
29.675
 11
29.899
 20
1433.55
 21
1433.92
  0
LINE
  8
0
 10
29.899
 11
30.137
 20
1433.92
 21
1434.29
  0
LINE
  8
0
 10
30.137
 11
30.387
 20
1434.29
 21
1434.65
  0
LINE
  8
0
 10
30.387
 11
30.65
 20
1434.65
 21
1435
  0
LINE
  8
0
 10
30.65
 11
30.924
 20
1435
 21
1435.34
  0
LINE
  8
0
 10
30.924
 11
31.211
 20
1435.34
 21
1435.66
  0
LINE
  8
0
 10
31.211
 11
31.508
 20
1435.66
 21
1435.98
  0
LINE
  8
0
 10
31.508
 11
31.817
 20
1435.98
 21
1436.29
  0
LINE
  8
0
 10
31.817
 11
32.136
 20
1436.29
 21
1436.59
  0
LINE
  8
0
 10
32.136
 11
32.465
 20
1436.59
 21
1436.88
  0
LINE
  8
0
 10
32.465
 11
32.804
 20
1436.88
 21
1437.15
  0
LINE
  8
0
 10
32.804
 11
33.153
 20
1437.15
 21
1437.41
  0
LINE
  8
0
 10
33.153
 11
33.51
 20
1437.41
 21
1437.66
  0
LINE
  8
0
 10
33.51
 11
33.876
 20
1437.66
 21
1437.9
  0
LINE
  8
0
 10
33.876
 11
34.25
 20
1437.9
 21
1438.12
  0
LINE
  8
0
 10
34.25
 11
34.632
 20
1438.12
 21
1438.34
  0
LINE
  8
0
 10
34.632
 11
35.02
 20
1438.34
 21
1438.54
  0
LINE
  8
0
 10
35.02
 11
35.416
 20
1438.54
 21
1438.72
  0
LINE
  8
0
 10
35.416
 11
35.817
 20
1438.72
 21
1438.89
  0
LINE
  8
0
 10
35.817
 11
36.225
 20
1438.89
 21
1439.05
  0
LINE
  8
0
 10
36.225
 11
36.637
 20
1439.05
 21
1439.19
  0
LINE
  8
0
 10
36.637
 11
37.055
 20
1439.19
 21
1439.32
  0
LINE
  8
0
 10
37.055
 11
37.476
 20
1439.32
 21
1439.43
  0
LINE
  8
0
 10
37.476
 11
37.901
 20
1439.43
 21
1439.53
  0
LINE
  8
0
 10
37.901
 11
38.329
 20
1439.53
 21
1439.61
  0
LINE
  8
0
 10
38.329
 11
38.76
 20
1439.61
 21
1439.68
  0
LINE
  8
0
 10
38.76
 11
39.193
 20
1439.68
 21
1439.73
  0
LINE
  8
0
 10
39.193
 11
39.628
 20
1439.73
 21
1439.77
  0
LINE
  8
0
 10
39.628
 11
40.064
 20
1439.77
 21
1439.79
  0
LINE
  8
0
 10
40.064
 11
40.5
 20
1439.79
 21
1439.8
  0
LINE
  8
0
 10
40.5
 11
202.5
 20
1439.8
 21
1439.8
  0
LINE
  8
0
 10
202.5
 11
202.936
 20
1439.8
 21
1439.79
  0
LINE
  8
0
 10
202.936
 11
203.372
 20
1439.79
 21
1439.77
  0
LINE
  8
0
 10
203.372
 11
203.807
 20
1439.77
 21
1439.73
  0
LINE
  8
0
 10
203.807
 11
204.24
 20
1439.73
 21
1439.68
  0
LINE
  8
0
 10
204.24
 11
204.671
 20
1439.68
 21
1439.61
  0
LINE
  8
0
 10
204.671
 11
205.099
 20
1439.61
 21
1439.53
  0
LINE
  8
0
 10
205.099
 11
205.524
 20
1439.53
 21
1439.43
  0
LINE
  8
0
 10
205.524
 11
205.945
 20
1439.43
 21
1439.32
  0
LINE
  8
0
 10
205.945
 11
206.363
 20
1439.32
 21
1439.19
  0
LINE
  8
0
 10
206.363
 11
206.775
 20
1439.19
 21
1439.05
  0
LINE
  8
0
 10
206.775
 11
207.183
 20
1439.05
 21
1438.89
  0
LINE
  8
0
 10
207.183
 11
207.584
 20
1438.89
 21
1438.72
  0
LINE
  8
0
 10
207.584
 11
207.98
 20
1438.72
 21
1438.54
  0
LINE
  8
0
 10
207.98
 11
208.368
 20
1438.54
 21
1438.34
  0
LINE
  8
0
 10
208.368
 11
208.75
 20
1438.34
 21
1438.12
  0
LINE
  8
0
 10
208.75
 11
209.124
 20
1438.12
 21
1437.9
  0
LINE
  8
0
 10
209.124
 11
209.49
 20
1437.9
 21
1437.66
  0
LINE
  8
0
 10
209.49
 11
209.847
 20
1437.66
 21
1437.41
  0
LINE
  8
0
 10
209.847
 11
210.196
 20
1437.41
 21
1437.15
  0
LINE
  8
0
 10
210.196
 11
210.535
 20
1437.15
 21
1436.88
  0
LINE
  8
0
 10
210.535
 11
210.864
 20
1436.88
 21
1436.59
  0
LINE
  8
0
 10
210.864
 11
211.183
 20
1436.59
 21
1436.29
  0
LINE
  8
0
 10
211.183
 11
211.492
 20
1436.29
 21
1435.98
  0
LINE
  8
0
 10
211.492
 11
211.789
 20
1435.98
 21
1435.66
  0
LINE
  8
0
 10
211.789
 11
212.076
 20
1435.66
 21
1435.34
  0
LINE
  8
0
 10
212.076
 11
212.35
 20
1435.34
 21
1435
  0
LINE
  8
0
 10
212.35
 11
212.613
 20
1435
 21
1434.65
  0
LINE
  8
0
 10
212.613
 11
212.863
 20
1434.65
 21
1434.29
  0
LINE
  8
0
 10
212.863
 11
213.101
 20
1434.29
 21
1433.92
  0
LINE
  8
0
 10
213.101
 11
213.325
 20
1433.92
 21
1433.55
  0
LINE
  8
0
 10
213.325
 11
213.537
 20
1433.55
 21
1433.17
  0
LINE
  8
0
 10
213.537
 11
213.735
 20
1433.17
 21
1432.78
  0
LINE
  8
0
 10
213.735
 11
213.919
 20
1432.78
 21
1432.38
  0
LINE
  8
0
 10
213.919
 11
214.09
 20
1432.38
 21
1431.98
  0
LINE
  8
0
 10
214.09
 11
214.246
 20
1431.98
 21
1431.58
  0
LINE
  8
0
 10
214.246
 11
214.388
 20
1431.58
 21
1431.16
  0
LINE
  8
0
 10
214.388
 11
214.516
 20
1431.16
 21
1430.75
  0
LINE
  8
0
 10
214.516
 11
214.629
 20
1430.75
 21
1430.32
  0
LINE
  8
0
 10
214.629
 11
214.727
 20
1430.32
 21
1429.9
  0
LINE
  8
0
 10
214.727
 11
214.81
 20
1429.9
 21
1429.47
  0
LINE
  8
0
 10
214.81
 11
214.878
 20
1429.47
 21
1429.04
  0
LINE
  8
0
 10
214.878
 11
214.932
 20
1429.04
 21
1428.61
  0
LINE
  8
0
 10
214.932
 11
214.97
 20
1428.61
 21
1428.17
  0
LINE
  8
0
 10
214.97
 11
214.992
 20
1428.17
 21
1427.74
  0
LINE
  8
0
 10
214.992
 11
215
 20
1427.74
 21
1427.3
  0
LINE
  8
0
 10
215
 11
215
 20
1427.3
 21
1337.3
  0
LINE
  8
0
 10
215
 11
214.992
 20
1337.3
 21
1336.86
  0
LINE
  8
0
 10
214.992
 11
214.97
 20
1336.86
 21
1336.43
  0
LINE
  8
0
 10
214.97
 11
214.932
 20
1336.43
 21
1335.99
  0
LINE
  8
0
 10
214.932
 11
214.878
 20
1335.99
 21
1335.56
  0
LINE
  8
0
 10
214.878
 11
214.81
 20
1335.56
 21
1335.13
  0
LINE
  8
0
 10
214.81
 11
214.727
 20
1335.13
 21
1334.7
  0
LINE
  8
0
 10
214.727
 11
214.629
 20
1334.7
 21
1334.28
  0
LINE
  8
0
 10
214.629
 11
214.516
 20
1334.28
 21
1333.86
  0
LINE
  8
0
 10
214.516
 11
214.388
 20
1333.86
 21
1333.44
  0
LINE
  8
0
 10
214.388
 11
214.246
 20
1333.44
 21
1333.03
  0
LINE
  8
0
 10
214.246
 11
214.09
 20
1333.03
 21
1332.62
  0
LINE
  8
0
 10
214.09
 11
213.919
 20
1332.62
 21
1332.22
  0
LINE
  8
0
 10
213.919
 11
213.735
 20
1332.22
 21
1331.82
  0
LINE
  8
0
 10
213.735
 11
213.537
 20
1331.82
 21
1331.43
  0
LINE
  8
0
 10
213.537
 11
213.325
 20
1331.43
 21
1331.05
  0
LINE
  8
0
 10
213.325
 11
213.101
 20
1331.05
 21
1330.68
  0
LINE
  8
0
 10
213.101
 11
212.863
 20
1330.68
 21
1330.31
  0
LINE
  8
0
 10
212.863
 11
212.613
 20
1330.31
 21
1329.95
  0
LINE
  8
0
 10
212.613
 11
212.35
 20
1329.95
 21
1329.6
  0
LINE
  8
0
 10
212.35
 11
212.076
 20
1329.6
 21
1329.27
  0
LINE
  8
0
 10
212.076
 11
211.789
 20
1329.27
 21
1328.94
  0
LINE
  8
0
 10
211.789
 11
211.492
 20
1328.94
 21
1328.62
  0
LINE
  8
0
 10
211.492
 11
211.183
 20
1328.62
 21
1328.31
  0
LINE
  8
0
 10
211.183
 11
210.864
 20
1328.31
 21
1328.01
  0
LINE
  8
0
 10
210.864
 11
210.535
 20
1328.01
 21
1327.72
  0
LINE
  8
0
 10
210.535
 11
210.196
 20
1327.72
 21
1327.45
  0
LINE
  8
0
 10
210.196
 11
209.847
 20
1327.45
 21
1327.19
  0
LINE
  8
0
 10
209.847
 11
209.49
 20
1327.19
 21
1326.94
  0
LINE
  8
0
 10
209.49
 11
209.124
 20
1326.94
 21
1326.7
  0
LINE
  8
0
 10
209.124
 11
208.75
 20
1326.7
 21
1326.48
  0
LINE
  8
0
 10
208.75
 11
208.368
 20
1326.48
 21
1326.26
  0
LINE
  8
0
 10
208.368
 11
207.98
 20
1326.26
 21
1326.07
  0
LINE
  8
0
 10
207.98
 11
207.584
 20
1326.07
 21
1325.88
  0
LINE
  8
0
 10
207.584
 11
207.183
 20
1325.88
 21
1325.71
  0
LINE
  8
0
 10
207.183
 11
206.775
 20
1325.71
 21
1325.55
  0
LINE
  8
0
 10
206.775
 11
206.363
 20
1325.55
 21
1325.41
  0
LINE
  8
0
 10
206.363
 11
205.945
 20
1325.41
 21
1325.28
  0
LINE
  8
0
 10
205.945
 11
205.524
 20
1325.28
 21
1325.17
  0
LINE
  8
0
 10
205.524
 11
205.099
 20
1325.17
 21
1325.07
  0
LINE
  8
0
 10
205.099
 11
204.671
 20
1325.07
 21
1324.99
  0
LINE
  8
0
 10
204.671
 11
204.24
 20
1324.99
 21
1324.92
  0
LINE
  8
0
 10
204.24
 11
203.807
 20
1324.92
 21
1324.87
  0
LINE
  8
0
 10
203.807
 11
203.372
 20
1324.87
 21
1324.83
  0
LINE
  8
0
 10
203.372
 11
202.936
 20
1324.83
 21
1324.81
  0
LINE
  8
0
 10
202.936
 11
202.5
 20
1324.81
 21
1324.8
  0
LINE
  8
0
 10
202.5
 11
40.5
 20
1324.8
 21
1324.8
  0
LINE
  8
0
 10
40.5
 11
40.064
 20
1324.8
 21
1324.81
  0
LINE
  8
0
 10
40.064
 11
39.628
 20
1324.81
 21
1324.83
  0
LINE
  8
0
 10
39.628
 11
39.193
 20
1324.83
 21
1324.87
  0
LINE
  8
0
 10
39.193
 11
38.76
 20
1324.87
 21
1324.92
  0
LINE
  8
0
 10
38.76
 11
38.329
 20
1324.92
 21
1324.99
  0
LINE
  8
0
 10
38.329
 11
37.901
 20
1324.99
 21
1325.07
  0
LINE
  8
0
 10
37.901
 11
37.476
 20
1325.07
 21
1325.17
  0
LINE
  8
0
 10
37.476
 11
37.055
 20
1325.17
 21
1325.28
  0
LINE
  8
0
 10
37.055
 11
36.637
 20
1325.28
 21
1325.41
  0
LINE
  8
0
 10
36.637
 11
36.225
 20
1325.41
 21
1325.55
  0
LINE
  8
0
 10
36.225
 11
35.817
 20
1325.55
 21
1325.71
  0
LINE
  8
0
 10
35.817
 11
35.416
 20
1325.71
 21
1325.88
  0
LINE
  8
0
 10
35.416
 11
35.02
 20
1325.88
 21
1326.07
  0
LINE
  8
0
 10
35.02
 11
34.632
 20
1326.07
 21
1326.26
  0
LINE
  8
0
 10
34.632
 11
34.25
 20
1326.26
 21
1326.48
  0
LINE
  8
0
 10
34.25
 11
33.876
 20
1326.48
 21
1326.7
  0
LINE
  8
0
 10
33.876
 11
33.51
 20
1326.7
 21
1326.94
  0
LINE
  8
0
 10
33.51
 11
33.153
 20
1326.94
 21
1327.19
  0
LINE
  8
0
 10
33.153
 11
32.804
 20
1327.19
 21
1327.45
  0
LINE
  8
0
 10
32.804
 11
32.465
 20
1327.45
 21
1327.72
  0
LINE
  8
0
 10
32.465
 11
32.136
 20
1327.72
 21
1328.01
  0
LINE
  8
0
 10
32.136
 11
31.817
 20
1328.01
 21
1328.31
  0
LINE
  8
0
 10
31.817
 11
31.508
 20
1328.31
 21
1328.62
  0
LINE
  8
0
 10
31.508
 11
31.211
 20
1328.62
 21
1328.94
  0
LINE
  8
0
 10
31.211
 11
30.924
 20
1328.94
 21
1329.27
  0
LINE
  8
0
 10
30.924
 11
30.65
 20
1329.27
 21
1329.6
  0
LINE
  8
0
 10
30.65
 11
30.387
 20
1329.6
 21
1329.95
  0
LINE
  8
0
 10
30.387
 11
30.137
 20
1329.95
 21
1330.31
  0
LINE
  8
0
 10
30.137
 11
29.899
 20
1330.31
 21
1330.68
  0
LINE
  8
0
 10
29.899
 11
29.675
 20
1330.68
 21
1331.05
  0
LINE
  8
0
 10
29.675
 11
29.463
 20
1331.05
 21
1331.43
  0
LINE
  8
0
 10
29.463
 11
29.265
 20
1331.43
 21
1331.82
  0
LINE
  8
0
 10
29.265
 11
29.081
 20
1331.82
 21
1332.22
  0
LINE
  8
0
 10
29.081
 11
28.91
 20
1332.22
 21
1332.62
  0
LINE
  8
0
 10
28.91
 11
28.754
 20
1332.62
 21
1333.03
  0
LINE
  8
0
 10
28.754
 11
28.612
 20
1333.03
 21
1333.44
  0
LINE
  8
0
 10
28.612
 11
28.484
 20
1333.44
 21
1333.86
  0
LINE
  8
0
 10
28.484
 11
28.371
 20
1333.86
 21
1334.28
  0
LINE
  8
0
 10
28.371
 11
28.273
 20
1334.28
 21
1334.7
  0
LINE
  8
0
 10
28.273
 11
28.19
 20
1334.7
 21
1335.13
  0
LINE
  8
0
 10
28.19
 11
28.122
 20
1335.13
 21
1335.56
  0
LINE
  8
0
 10
28.122
 11
28.068
 20
1335.56
 21
1335.99
  0
LINE
  8
0
 10
28.068
 11
28.03
 20
1335.99
 21
1336.43
  0
LINE
  8
0
 10
28.03
 11
28.008
 20
1336.43
 21
1336.86
  0
LINE
  8
0
 10
28.008
 11
28
 20
1336.86
 21
1337.3
  0
LINE
  8
0
 10
50
 11
50
 20
1169.4
 21
1225.4
  0
LINE
  8
0
 10
50
 11
50.098
 20
1225.4
 21
1226.02
  0
LINE
  8
0
 10
50.098
 11
50.382
 20
1226.02
 21
1226.58
  0
LINE
  8
0
 10
50.382
 11
50.824
 20
1226.58
 21
1227.02
  0
LINE
  8
0
 10
50.824
 11
51.382
 20
1227.02
 21
1227.3
  0
LINE
  8
0
 10
51.382
 11
52
 20
1227.3
 21
1227.4
  0
LINE
  8
0
 10
52
 11
52.618
 20
1227.4
 21
1227.3
  0
LINE
  8
0
 10
52.618
 11
53.176
 20
1227.3
 21
1227.02
  0
LINE
  8
0
 10
53.176
 11
53.618
 20
1227.02
 21
1226.58
  0
LINE
  8
0
 10
53.618
 11
53.902
 20
1226.58
 21
1226.02
  0
LINE
  8
0
 10
53.902
 11
54
 20
1226.02
 21
1225.4
  0
LINE
  8
0
 10
54
 11
54
 20
1225.4
 21
1169.4
  0
LINE
  8
0
 10
54
 11
53.902
 20
1169.4
 21
1168.78
  0
LINE
  8
0
 10
53.902
 11
53.618
 20
1168.78
 21
1168.22
  0
LINE
  8
0
 10
53.618
 11
53.176
 20
1168.22
 21
1167.78
  0
LINE
  8
0
 10
53.176
 11
52.618
 20
1167.78
 21
1167.5
  0
LINE
  8
0
 10
52.618
 11
52
 20
1167.5
 21
1167.4
  0
LINE
  8
0
 10
52
 11
51.382
 20
1167.4
 21
1167.5
  0
LINE
  8
0
 10
51.382
 11
50.824
 20
1167.5
 21
1167.78
  0
LINE
  8
0
 10
50.824
 11
50.382
 20
1167.78
 21
1168.22
  0
LINE
  8
0
 10
50.382
 11
50.098
 20
1168.22
 21
1168.78
  0
LINE
  8
0
 10
50.098
 11
50
 20
1168.78
 21
1169.4
  0
LINE
  8
0
 10
80.309
 11
80.309
 20
1169.4
 21
1225.4
  0
LINE
  8
0
 10
80.309
 11
80.407
 20
1225.4
 21
1226.02
  0
LINE
  8
0
 10
80.407
 11
80.691
 20
1226.02
 21
1226.58
  0
LINE
  8
0
 10
80.691
 11
81.133
 20
1226.58
 21
1227.02
  0
LINE
  8
0
 10
81.133
 11
81.691
 20
1227.02
 21
1227.3
  0
LINE
  8
0
 10
81.691
 11
82.309
 20
1227.3
 21
1227.4
  0
LINE
  8
0
 10
82.309
 11
82.927
 20
1227.4
 21
1227.3
  0
LINE
  8
0
 10
82.927
 11
83.485
 20
1227.3
 21
1227.02
  0
LINE
  8
0
 10
83.485
 11
83.927
 20
1227.02
 21
1226.58
  0
LINE
  8
0
 10
83.927
 11
84.211
 20
1226.58
 21
1226.02
  0
LINE
  8
0
 10
84.211
 11
84.309
 20
1226.02
 21
1225.4
  0
LINE
  8
0
 10
84.309
 11
84.309
 20
1225.4
 21
1169.4
  0
LINE
  8
0
 10
84.309
 11
84.211
 20
1169.4
 21
1168.78
  0
LINE
  8
0
 10
84.211
 11
83.927
 20
1168.78
 21
1168.22
  0
LINE
  8
0
 10
83.927
 11
83.485
 20
1168.22
 21
1167.78
  0
LINE
  8
0
 10
83.485
 11
82.927
 20
1167.78
 21
1167.5
  0
LINE
  8
0
 10
82.927
 11
82.309
 20
1167.5
 21
1167.4
  0
LINE
  8
0
 10
82.309
 11
81.691
 20
1167.4
 21
1167.5
  0
LINE
  8
0
 10
81.691
 11
81.133
 20
1167.5
 21
1167.78
  0
LINE
  8
0
 10
81.133
 11
80.691
 20
1167.78
 21
1168.22
  0
LINE
  8
0
 10
80.691
 11
80.407
 20
1168.22
 21
1168.78
  0
LINE
  8
0
 10
80.407
 11
80.309
 20
1168.78
 21
1169.4
  0
LINE
  8
0
 10
96.502
 11
96.502
 20
972.301
 21
972.499
  0
LINE
  8
0
 10
96.502
 11
96.518
 20
972.499
 21
972.698
  0
LINE
  8
0
 10
96.518
 11
96.549
 20
972.698
 21
972.894
  0
LINE
  8
0
 10
96.549
 11
96.596
 20
972.894
 21
973.087
  0
LINE
  8
0
 10
96.596
 11
96.658
 20
973.087
 21
973.276
  0
LINE
  8
0
 10
96.658
 11
96.735
 20
973.276
 21
973.459
  0
LINE
  8
0
 10
96.735
 11
96.827
 20
973.459
 21
973.636
  0
LINE
  8
0
 10
96.827
 11
96.932
 20
973.636
 21
973.804
  0
LINE
  8
0
 10
96.932
 11
97.05
 20
973.804
 21
973.964
  0
LINE
  8
0
 10
97.05
 11
97.18
 20
973.964
 21
974.114
  0
LINE
  8
0
 10
97.18
 11
97.322
 20
974.114
 21
974.253
  0
LINE
  8
0
 10
97.322
 11
97.475
 20
974.253
 21
974.381
  0
LINE
  8
0
 10
97.475
 11
97.637
 20
974.381
 21
974.496
  0
LINE
  8
0
 10
97.637
 11
97.808
 20
974.496
 21
974.597
  0
LINE
  8
0
 10
97.808
 11
97.986
 20
974.597
 21
974.685
  0
LINE
  8
0
 10
97.986
 11
98.171
 20
974.685
 21
974.759
  0
LINE
  8
0
 10
98.171
 11
98.361
 20
974.759
 21
974.817
  0
LINE
  8
0
 10
98.361
 11
98.555
 20
974.817
 21
974.86
  0
LINE
  8
0
 10
98.555
 11
98.752
 20
974.86
 21
974.888
  0
LINE
  8
0
 10
98.752
 11
98.95
 20
974.888
 21
974.9
  0
LINE
  8
0
 10
98.95
 11
99.149
 20
974.9
 21
974.896
  0
LINE
  8
0
 10
99.149
 11
99.347
 20
974.896
 21
974.876
  0
LINE
  8
0
 10
99.347
 11
99.542
 20
974.876
 21
974.84
  0
LINE
  8
0
 10
99.542
 11
99.735
 20
974.84
 21
974.79
  0
LINE
  8
0
 10
99.735
 11
99.922
 20
974.79
 21
974.724
  0
LINE
  8
0
 10
99.922
 11
100.104
 20
974.724
 21
974.643
  0
LINE
  8
0
 10
100.104
 11
100.279
 20
974.643
 21
974.548
  0
LINE
  8
0
 10
100.279
 11
100.445
 20
974.548
 21
974.44
  0
LINE
  8
0
 10
100.445
 11
100.603
 20
974.44
 21
974.319
  0
LINE
  8
0
 10
100.603
 11
100.75
 20
974.319
 21
974.185
  0
LINE
  8
0
 10
100.75
 11
100.886
 20
974.185
 21
974.041
  0
LINE
  8
0
 10
100.886
 11
101.011
 20
974.041
 21
973.886
  0
LINE
  8
0
 10
101.011
 11
101.122
 20
973.886
 21
973.721
  0
LINE
  8
0
 10
101.122
 11
101.221
 20
973.721
 21
973.548
  0
LINE
  8
0
 10
101.221
 11
101.305
 20
973.548
 21
973.368
  0
LINE
  8
0
 10
101.305
 11
101.375
 20
973.368
 21
973.182
  0
LINE
  8
0
 10
101.375
 11
101.429
 20
973.182
 21
972.991
  0
LINE
  8
0
 10
101.429
 11
101.468
 20
972.991
 21
972.796
  0
LINE
  8
0
 10
101.468
 11
101.492
 20
972.796
 21
972.599
  0
LINE
  8
0
 10
101.492
 11
101.5
 20
972.599
 21
972.4
  0
LINE
  8
0
 10
101.5
 11
101.492
 20
972.4
 21
972.201
  0
LINE
  8
0
 10
101.492
 11
101.468
 20
972.201
 21
972.004
  0
LINE
  8
0
 10
101.468
 11
101.429
 20
972.004
 21
971.809
  0
LINE
  8
0
 10
101.429
 11
101.375
 20
971.809
 21
971.618
  0
LINE
  8
0
 10
101.375
 11
101.305
 20
971.618
 21
971.432
  0
LINE
  8
0
 10
101.305
 11
101.221
 20
971.432
 21
971.252
  0
LINE
  8
0
 10
101.221
 11
101.122
 20
971.252
 21
971.079
  0
LINE
  8
0
 10
101.122
 11
101.011
 20
971.079
 21
970.914
  0
LINE
  8
0
 10
101.011
 11
100.886
 20
970.914
 21
970.759
  0
LINE
  8
0
 10
100.886
 11
100.75
 20
970.759
 21
970.615
  0
LINE
  8
0
 10
100.75
 11
100.603
 20
970.615
 21
970.481
  0
LINE
  8
0
 10
100.603
 11
100.445
 20
970.481
 21
970.36
  0
LINE
  8
0
 10
100.445
 11
100.279
 20
970.36
 21
970.252
  0
LINE
  8
0
 10
100.279
 11
100.104
 20
970.252
 21
970.157
  0
LINE
  8
0
 10
100.104
 11
99.922
 20
970.157
 21
970.076
  0
LINE
  8
0
 10
99.922
 11
99.735
 20
970.076
 21
970.01
  0
LINE
  8
0
 10
99.735
 11
99.542
 20
970.01
 21
969.96
  0
LINE
  8
0
 10
99.542
 11
99.347
 20
969.96
 21
969.924
  0
LINE
  8
0
 10
99.347
 11
99.149
 20
969.924
 21
969.904
  0
LINE
  8
0
 10
99.149
 11
98.95
 20
969.904
 21
969.9
  0
LINE
  8
0
 10
98.95
 11
98.752
 20
969.9
 21
969.912
  0
LINE
  8
0
 10
98.752
 11
98.555
 20
969.912
 21
969.94
  0
LINE
  8
0
 10
98.555
 11
98.361
 20
969.94
 21
969.983
  0
LINE
  8
0
 10
98.361
 11
98.171
 20
969.983
 21
970.041
  0
LINE
  8
0
 10
98.171
 11
97.986
 20
970.041
 21
970.115
  0
LINE
  8
0
 10
97.986
 11
97.808
 20
970.115
 21
970.203
  0
LINE
  8
0
 10
97.808
 11
97.637
 20
970.203
 21
970.304
  0
LINE
  8
0
 10
97.637
 11
97.475
 20
970.304
 21
970.419
  0
LINE
  8
0
 10
97.475
 11
97.322
 20
970.419
 21
970.547
  0
LINE
  8
0
 10
97.322
 11
97.18
 20
970.547
 21
970.686
  0
LINE
  8
0
 10
97.18
 11
97.05
 20
970.686
 21
970.836
  0
LINE
  8
0
 10
97.05
 11
96.932
 20
970.836
 21
970.996
  0
LINE
  8
0
 10
96.932
 11
96.827
 20
970.996
 21
971.164
  0
LINE
  8
0
 10
96.827
 11
96.735
 20
971.164
 21
971.341
  0
LINE
  8
0
 10
96.735
 11
96.658
 20
971.341
 21
971.524
  0
LINE
  8
0
 10
96.658
 11
96.596
 20
971.524
 21
971.713
  0
LINE
  8
0
 10
96.596
 11
96.549
 20
971.713
 21
971.906
  0
LINE
  8
0
 10
96.549
 11
96.518
 20
971.906
 21
972.102
  0
LINE
  8
0
 10
96.518
 11
96.502
 20
972.102
 21
972.301
  0
LINE
  8
0
 10
97.495
 11
97.495
 20
1641.7
 21
1644.69
  0
LINE
  8
0
 10
97.495
 11
97.618
 20
1644.69
 21
1645.47
  0
LINE
  8
0
 10
97.618
 11
97.973
 20
1645.47
 21
1646.17
  0
LINE
  8
0
 10
97.973
 11
98.528
 20
1646.17
 21
1646.72
  0
LINE
  8
0
 10
98.528
 11
99.226
 20
1646.72
 21
1647.08
  0
LINE
  8
0
 10
99.226
 11
100
 20
1647.08
 21
1647.2
  0
LINE
  8
0
 10
100
 11
100.774
 20
1647.2
 21
1647.08
  0
LINE
  8
0
 10
100.774
 11
101.472
 20
1647.08
 21
1646.72
  0
LINE
  8
0
 10
101.472
 11
102.027
 20
1646.72
 21
1646.17
  0
LINE
  8
0
 10
102.027
 11
102.382
 20
1646.17
 21
1645.47
  0
LINE
  8
0
 10
102.382
 11
102.505
 20
1645.47
 21
1644.69
  0
LINE
  8
0
 10
102.505
 11
102.505
 20
1644.69
 21
1641.7
  0
LINE
  8
0
 10
102.505
 11
102.382
 20
1641.7
 21
1640.93
  0
LINE
  8
0
 10
102.382
 11
102.027
 20
1640.93
 21
1640.23
  0
LINE
  8
0
 10
102.027
 11
101.472
 20
1640.23
 21
1639.68
  0
LINE
  8
0
 10
101.472
 11
100.774
 20
1639.68
 21
1639.32
  0
LINE
  8
0
 10
100.774
 11
100
 20
1639.32
 21
1639.2
  0
LINE
  8
0
 10
100
 11
99.226
 20
1639.2
 21
1639.32
  0
LINE
  8
0
 10
99.226
 11
98.528
 20
1639.32
 21
1639.68
  0
LINE
  8
0
 10
98.528
 11
97.973
 20
1639.68
 21
1640.23
  0
LINE
  8
0
 10
97.973
 11
97.618
 20
1640.23
 21
1640.93
  0
LINE
  8
0
 10
97.618
 11
97.495
 20
1640.93
 21
1641.7
  0
LINE
  8
0
 10
97.495
 11
97.495
 20
1933.7
 21
1936.69
  0
LINE
  8
0
 10
97.495
 11
97.618
 20
1936.69
 21
1937.47
  0
LINE
  8
0
 10
97.618
 11
97.973
 20
1937.47
 21
1938.17
  0
LINE
  8
0
 10
97.973
 11
98.528
 20
1938.17
 21
1938.72
  0
LINE
  8
0
 10
98.528
 11
99.226
 20
1938.72
 21
1939.08
  0
LINE
  8
0
 10
99.226
 11
100
 20
1939.08
 21
1939.2
  0
LINE
  8
0
 10
100
 11
100.774
 20
1939.2
 21
1939.08
  0
LINE
  8
0
 10
100.774
 11
101.472
 20
1939.08
 21
1938.72
  0
LINE
  8
0
 10
101.472
 11
102.027
 20
1938.72
 21
1938.17
  0
LINE
  8
0
 10
102.027
 11
102.382
 20
1938.17
 21
1937.47
  0
LINE
  8
0
 10
102.382
 11
102.505
 20
1937.47
 21
1936.69
  0
LINE
  8
0
 10
102.505
 11
102.505
 20
1936.69
 21
1933.7
  0
LINE
  8
0
 10
102.505
 11
102.382
 20
1933.7
 21
1932.93
  0
LINE
  8
0
 10
102.382
 11
102.027
 20
1932.93
 21
1932.23
  0
LINE
  8
0
 10
102.027
 11
101.472
 20
1932.23
 21
1931.68
  0
LINE
  8
0
 10
101.472
 11
100.774
 20
1931.68
 21
1931.32
  0
LINE
  8
0
 10
100.774
 11
100
 20
1931.32
 21
1931.2
  0
LINE
  8
0
 10
100
 11
99.226
 20
1931.2
 21
1931.32
  0
LINE
  8
0
 10
99.226
 11
98.528
 20
1931.32
 21
1931.68
  0
LINE
  8
0
 10
98.528
 11
97.973
 20
1931.68
 21
1932.23
  0
LINE
  8
0
 10
97.973
 11
97.618
 20
1932.23
 21
1932.93
  0
LINE
  8
0
 10
97.618
 11
97.495
 20
1932.93
 21
1933.7
  0
LINE
  8
0
 10
97.495
 11
97.495
 20
1977.11
 21
1980.1
  0
LINE
  8
0
 10
97.495
 11
97.618
 20
1980.1
 21
1980.87
  0
LINE
  8
0
 10
97.618
 11
97.973
 20
1980.87
 21
1981.57
  0
LINE
  8
0
 10
97.973
 11
98.528
 20
1981.57
 21
1982.12
  0
LINE
  8
0
 10
98.528
 11
99.226
 20
1982.12
 21
1982.48
  0
LINE
  8
0
 10
99.226
 11
100
 20
1982.48
 21
1982.6
  0
LINE
  8
0
 10
100
 11
100.774
 20
1982.6
 21
1982.48
  0
LINE
  8
0
 10
100.774
 11
101.472
 20
1982.48
 21
1982.12
  0
LINE
  8
0
 10
101.472
 11
102.027
 20
1982.12
 21
1981.57
  0
LINE
  8
0
 10
102.027
 11
102.382
 20
1981.57
 21
1980.87
  0
LINE
  8
0
 10
102.382
 11
102.505
 20
1980.87
 21
1980.1
  0
LINE
  8
0
 10
102.505
 11
102.505
 20
1980.1
 21
1977.11
  0
LINE
  8
0
 10
102.505
 11
102.382
 20
1977.11
 21
1976.33
  0
LINE
  8
0
 10
102.382
 11
102.027
 20
1976.33
 21
1975.63
  0
LINE
  8
0
 10
102.027
 11
101.472
 20
1975.63
 21
1975.08
  0
LINE
  8
0
 10
101.472
 11
100.774
 20
1975.08
 21
1974.72
  0
LINE
  8
0
 10
100.774
 11
100
 20
1974.72
 21
1974.6
  0
LINE
  8
0
 10
100
 11
99.226
 20
1974.6
 21
1974.72
  0
LINE
  8
0
 10
99.226
 11
98.528
 20
1974.72
 21
1975.08
  0
LINE
  8
0
 10
98.528
 11
97.973
 20
1975.08
 21
1975.63
  0
LINE
  8
0
 10
97.973
 11
97.618
 20
1975.63
 21
1976.33
  0
LINE
  8
0
 10
97.618
 11
97.495
 20
1976.33
 21
1977.11
  0
LINE
  8
0
 10
97.495
 11
97.495
 20
2269.11
 21
2272.1
  0
LINE
  8
0
 10
97.495
 11
97.618
 20
2272.1
 21
2272.87
  0
LINE
  8
0
 10
97.618
 11
97.973
 20
2272.87
 21
2273.57
  0
LINE
  8
0
 10
97.973
 11
98.528
 20
2273.57
 21
2274.12
  0
LINE
  8
0
 10
98.528
 11
99.226
 20
2274.12
 21
2274.48
  0
LINE
  8
0
 10
99.226
 11
100
 20
2274.48
 21
2274.6
  0
LINE
  8
0
 10
100
 11
100.774
 20
2274.6
 21
2274.48
  0
LINE
  8
0
 10
100.774
 11
101.472
 20
2274.48
 21
2274.12
  0
LINE
  8
0
 10
101.472
 11
102.027
 20
2274.12
 21
2273.57
  0
LINE
  8
0
 10
102.027
 11
102.382
 20
2273.57
 21
2272.87
  0
LINE
  8
0
 10
102.382
 11
102.505
 20
2272.87
 21
2272.1
  0
LINE
  8
0
 10
102.505
 11
102.505
 20
2272.1
 21
2269.11
  0
LINE
  8
0
 10
102.505
 11
102.382
 20
2269.11
 21
2268.33
  0
LINE
  8
0
 10
102.382
 11
102.027
 20
2268.33
 21
2267.63
  0
LINE
  8
0
 10
102.027
 11
101.472
 20
2267.63
 21
2267.08
  0
LINE
  8
0
 10
101.472
 11
100.774
 20
2267.08
 21
2266.72
  0
LINE
  8
0
 10
100.774
 11
100
 20
2266.72
 21
2266.6
  0
LINE
  8
0
 10
100
 11
99.226
 20
2266.6
 21
2266.72
  0
LINE
  8
0
 10
99.226
 11
98.528
 20
2266.72
 21
2267.08
  0
LINE
  8
0
 10
98.528
 11
97.973
 20
2267.08
 21
2267.63
  0
LINE
  8
0
 10
97.973
 11
97.618
 20
2267.63
 21
2268.33
  0
LINE
  8
0
 10
97.618
 11
97.495
 20
2268.33
 21
2269.11
  0
LINE
  8
0
 10
97.502
 11
97.502
 20
2649.3
 21
2649.5
  0
LINE
  8
0
 10
97.502
 11
97.518
 20
2649.5
 21
2649.7
  0
LINE
  8
0
 10
97.518
 11
97.549
 20
2649.7
 21
2649.89
  0
LINE
  8
0
 10
97.549
 11
97.596
 20
2649.89
 21
2650.09
  0
LINE
  8
0
 10
97.596
 11
97.658
 20
2650.09
 21
2650.28
  0
LINE
  8
0
 10
97.658
 11
97.735
 20
2650.28
 21
2650.46
  0
LINE
  8
0
 10
97.735
 11
97.827
 20
2650.46
 21
2650.64
  0
LINE
  8
0
 10
97.827
 11
97.932
 20
2650.64
 21
2650.8
  0
LINE
  8
0
 10
97.932
 11
98.05
 20
2650.8
 21
2650.96
  0
LINE
  8
0
 10
98.05
 11
98.18
 20
2650.96
 21
2651.11
  0
LINE
  8
0
 10
98.18
 11
98.322
 20
2651.11
 21
2651.25
  0
LINE
  8
0
 10
98.322
 11
98.475
 20
2651.25
 21
2651.38
  0
LINE
  8
0
 10
98.475
 11
98.637
 20
2651.38
 21
2651.5
  0
LINE
  8
0
 10
98.637
 11
98.808
 20
2651.5
 21
2651.6
  0
LINE
  8
0
 10
98.808
 11
98.986
 20
2651.6
 21
2651.68
  0
LINE
  8
0
 10
98.986
 11
99.171
 20
2651.68
 21
2651.76
  0
LINE
  8
0
 10
99.171
 11
99.361
 20
2651.76
 21
2651.82
  0
LINE
  8
0
 10
99.361
 11
99.555
 20
2651.82
 21
2651.86
  0
LINE
  8
0
 10
99.555
 11
99.752
 20
2651.86
 21
2651.89
  0
LINE
  8
0
 10
99.752
 11
99.95
 20
2651.89
 21
2651.9
  0
LINE
  8
0
 10
99.95
 11
100.149
 20
2651.9
 21
2651.9
  0
LINE
  8
0
 10
100.149
 11
100.347
 20
2651.9
 21
2651.88
  0
LINE
  8
0
 10
100.347
 11
100.542
 20
2651.88
 21
2651.84
  0
LINE
  8
0
 10
100.542
 11
100.735
 20
2651.84
 21
2651.79
  0
LINE
  8
0
 10
100.735
 11
100.922
 20
2651.79
 21
2651.72
  0
LINE
  8
0
 10
100.922
 11
101.104
 20
2651.72
 21
2651.64
  0
LINE
  8
0
 10
101.104
 11
101.279
 20
2651.64
 21
2651.55
  0
LINE
  8
0
 10
101.279
 11
101.445
 20
2651.55
 21
2651.44
  0
LINE
  8
0
 10
101.445
 11
101.603
 20
2651.44
 21
2651.32
  0
LINE
  8
0
 10
101.603
 11
101.75
 20
2651.32
 21
2651.18
  0
LINE
  8
0
 10
101.75
 11
101.886
 20
2651.18
 21
2651.04
  0
LINE
  8
0
 10
101.886
 11
102.011
 20
2651.04
 21
2650.89
  0
LINE
  8
0
 10
102.011
 11
102.122
 20
2650.89
 21
2650.72
  0
LINE
  8
0
 10
102.122
 11
102.221
 20
2650.72
 21
2650.55
  0
LINE
  8
0
 10
102.221
 11
102.305
 20
2650.55
 21
2650.37
  0
LINE
  8
0
 10
102.305
 11
102.375
 20
2650.37
 21
2650.18
  0
LINE
  8
0
 10
102.375
 11
102.429
 20
2650.18
 21
2649.99
  0
LINE
  8
0
 10
102.429
 11
102.468
 20
2649.99
 21
2649.8
  0
LINE
  8
0
 10
102.468
 11
102.492
 20
2649.8
 21
2649.6
  0
LINE
  8
0
 10
102.492
 11
102.5
 20
2649.6
 21
2649.4
  0
LINE
  8
0
 10
102.5
 11
102.492
 20
2649.4
 21
2649.2
  0
LINE
  8
0
 10
102.492
 11
102.468
 20
2649.2
 21
2649
  0
LINE
  8
0
 10
102.468
 11
102.429
 20
2649
 21
2648.81
  0
LINE
  8
0
 10
102.429
 11
102.375
 20
2648.81
 21
2648.62
  0
LINE
  8
0
 10
102.375
 11
102.305
 20
2648.62
 21
2648.43
  0
LINE
  8
0
 10
102.305
 11
102.221
 20
2648.43
 21
2648.25
  0
LINE
  8
0
 10
102.221
 11
102.122
 20
2648.25
 21
2648.08
  0
LINE
  8
0
 10
102.122
 11
102.011
 20
2648.08
 21
2647.91
  0
LINE
  8
0
 10
102.011
 11
101.886
 20
2647.91
 21
2647.76
  0
LINE
  8
0
 10
101.886
 11
101.75
 20
2647.76
 21
2647.62
  0
LINE
  8
0
 10
101.75
 11
101.603
 20
2647.62
 21
2647.48
  0
LINE
  8
0
 10
101.603
 11
101.445
 20
2647.48
 21
2647.36
  0
LINE
  8
0
 10
101.445
 11
101.279
 20
2647.36
 21
2647.25
  0
LINE
  8
0
 10
101.279
 11
101.104
 20
2647.25
 21
2647.16
  0
LINE
  8
0
 10
101.104
 11
100.922
 20
2647.16
 21
2647.08
  0
LINE
  8
0
 10
100.922
 11
100.735
 20
2647.08
 21
2647.01
  0
LINE
  8
0
 10
100.735
 11
100.542
 20
2647.01
 21
2646.96
  0
LINE
  8
0
 10
100.542
 11
100.347
 20
2646.96
 21
2646.92
  0
LINE
  8
0
 10
100.347
 11
100.149
 20
2646.92
 21
2646.9
  0
LINE
  8
0
 10
100.149
 11
99.95
 20
2646.9
 21
2646.9
  0
LINE
  8
0
 10
99.95
 11
99.752
 20
2646.9
 21
2646.91
  0
LINE
  8
0
 10
99.752
 11
99.555
 20
2646.91
 21
2646.94
  0
LINE
  8
0
 10
99.555
 11
99.361
 20
2646.94
 21
2646.98
  0
LINE
  8
0
 10
99.361
 11
99.171
 20
2646.98
 21
2647.04
  0
LINE
  8
0
 10
99.171
 11
98.986
 20
2647.04
 21
2647.12
  0
LINE
  8
0
 10
98.986
 11
98.808
 20
2647.12
 21
2647.2
  0
LINE
  8
0
 10
98.808
 11
98.637
 20
2647.2
 21
2647.3
  0
LINE
  8
0
 10
98.637
 11
98.475
 20
2647.3
 21
2647.42
  0
LINE
  8
0
 10
98.475
 11
98.322
 20
2647.42
 21
2647.55
  0
LINE
  8
0
 10
98.322
 11
98.18
 20
2647.55
 21
2647.69
  0
LINE
  8
0
 10
98.18
 11
98.05
 20
2647.69
 21
2647.84
  0
LINE
  8
0
 10
98.05
 11
97.932
 20
2647.84
 21
2648
  0
LINE
  8
0
 10
97.932
 11
97.827
 20
2648
 21
2648.16
  0
LINE
  8
0
 10
97.827
 11
97.735
 20
2648.16
 21
2648.34
  0
LINE
  8
0
 10
97.735
 11
97.658
 20
2648.34
 21
2648.52
  0
LINE
  8
0
 10
97.658
 11
97.596
 20
2648.52
 21
2648.71
  0
LINE
  8
0
 10
97.596
 11
97.549
 20
2648.71
 21
2648.91
  0
LINE
  8
0
 10
97.549
 11
97.518
 20
2648.91
 21
2649.1
  0
LINE
  8
0
 10
97.518
 11
97.502
 20
2649.1
 21
2649.3
  0
LINE
  8
0
 10
97.502
 11
97.502
 20
2879.3
 21
2879.5
  0
LINE
  8
0
 10
97.502
 11
97.518
 20
2879.5
 21
2879.7
  0
LINE
  8
0
 10
97.518
 11
97.549
 20
2879.7
 21
2879.89
  0
LINE
  8
0
 10
97.549
 11
97.596
 20
2879.89
 21
2880.09
  0
LINE
  8
0
 10
97.596
 11
97.658
 20
2880.09
 21
2880.28
  0
LINE
  8
0
 10
97.658
 11
97.735
 20
2880.28
 21
2880.46
  0
LINE
  8
0
 10
97.735
 11
97.827
 20
2880.46
 21
2880.64
  0
LINE
  8
0
 10
97.827
 11
97.932
 20
2880.64
 21
2880.8
  0
LINE
  8
0
 10
97.932
 11
98.05
 20
2880.8
 21
2880.96
  0
LINE
  8
0
 10
98.05
 11
98.18
 20
2880.96
 21
2881.11
  0
LINE
  8
0
 10
98.18
 11
98.322
 20
2881.11
 21
2881.25
  0
LINE
  8
0
 10
98.322
 11
98.475
 20
2881.25
 21
2881.38
  0
LINE
  8
0
 10
98.475
 11
98.637
 20
2881.38
 21
2881.5
  0
LINE
  8
0
 10
98.637
 11
98.808
 20
2881.5
 21
2881.6
  0
LINE
  8
0
 10
98.808
 11
98.986
 20
2881.6
 21
2881.68
  0
LINE
  8
0
 10
98.986
 11
99.171
 20
2881.68
 21
2881.76
  0
LINE
  8
0
 10
99.171
 11
99.361
 20
2881.76
 21
2881.82
  0
LINE
  8
0
 10
99.361
 11
99.555
 20
2881.82
 21
2881.86
  0
LINE
  8
0
 10
99.555
 11
99.752
 20
2881.86
 21
2881.89
  0
LINE
  8
0
 10
99.752
 11
99.95
 20
2881.89
 21
2881.9
  0
LINE
  8
0
 10
99.95
 11
100.149
 20
2881.9
 21
2881.9
  0
LINE
  8
0
 10
100.149
 11
100.347
 20
2881.9
 21
2881.88
  0
LINE
  8
0
 10
100.347
 11
100.542
 20
2881.88
 21
2881.84
  0
LINE
  8
0
 10
100.542
 11
100.735
 20
2881.84
 21
2881.79
  0
LINE
  8
0
 10
100.735
 11
100.922
 20
2881.79
 21
2881.72
  0
LINE
  8
0
 10
100.922
 11
101.104
 20
2881.72
 21
2881.64
  0
LINE
  8
0
 10
101.104
 11
101.279
 20
2881.64
 21
2881.55
  0
LINE
  8
0
 10
101.279
 11
101.445
 20
2881.55
 21
2881.44
  0
LINE
  8
0
 10
101.445
 11
101.603
 20
2881.44
 21
2881.32
  0
LINE
  8
0
 10
101.603
 11
101.75
 20
2881.32
 21
2881.18
  0
LINE
  8
0
 10
101.75
 11
101.886
 20
2881.18
 21
2881.04
  0
LINE
  8
0
 10
101.886
 11
102.011
 20
2881.04
 21
2880.89
  0
LINE
  8
0
 10
102.011
 11
102.122
 20
2880.89
 21
2880.72
  0
LINE
  8
0
 10
102.122
 11
102.221
 20
2880.72
 21
2880.55
  0
LINE
  8
0
 10
102.221
 11
102.305
 20
2880.55
 21
2880.37
  0
LINE
  8
0
 10
102.305
 11
102.375
 20
2880.37
 21
2880.18
  0
LINE
  8
0
 10
102.375
 11
102.429
 20
2880.18
 21
2879.99
  0
LINE
  8
0
 10
102.429
 11
102.468
 20
2879.99
 21
2879.8
  0
LINE
  8
0
 10
102.468
 11
102.492
 20
2879.8
 21
2879.6
  0
LINE
  8
0
 10
102.492
 11
102.5
 20
2879.6
 21
2879.4
  0
LINE
  8
0
 10
102.5
 11
102.492
 20
2879.4
 21
2879.2
  0
LINE
  8
0
 10
102.492
 11
102.468
 20
2879.2
 21
2879
  0
LINE
  8
0
 10
102.468
 11
102.429
 20
2879
 21
2878.81
  0
LINE
  8
0
 10
102.429
 11
102.375
 20
2878.81
 21
2878.62
  0
LINE
  8
0
 10
102.375
 11
102.305
 20
2878.62
 21
2878.43
  0
LINE
  8
0
 10
102.305
 11
102.221
 20
2878.43
 21
2878.25
  0
LINE
  8
0
 10
102.221
 11
102.122
 20
2878.25
 21
2878.08
  0
LINE
  8
0
 10
102.122
 11
102.011
 20
2878.08
 21
2877.91
  0
LINE
  8
0
 10
102.011
 11
101.886
 20
2877.91
 21
2877.76
  0
LINE
  8
0
 10
101.886
 11
101.75
 20
2877.76
 21
2877.62
  0
LINE
  8
0
 10
101.75
 11
101.603
 20
2877.62
 21
2877.48
  0
LINE
  8
0
 10
101.603
 11
101.445
 20
2877.48
 21
2877.36
  0
LINE
  8
0
 10
101.445
 11
101.279
 20
2877.36
 21
2877.25
  0
LINE
  8
0
 10
101.279
 11
101.104
 20
2877.25
 21
2877.16
  0
LINE
  8
0
 10
101.104
 11
100.922
 20
2877.16
 21
2877.08
  0
LINE
  8
0
 10
100.922
 11
100.735
 20
2877.08
 21
2877.01
  0
LINE
  8
0
 10
100.735
 11
100.542
 20
2877.01
 21
2876.96
  0
LINE
  8
0
 10
100.542
 11
100.347
 20
2876.96
 21
2876.92
  0
LINE
  8
0
 10
100.347
 11
100.149
 20
2876.92
 21
2876.9
  0
LINE
  8
0
 10
100.149
 11
99.95
 20
2876.9
 21
2876.9
  0
LINE
  8
0
 10
99.95
 11
99.752
 20
2876.9
 21
2876.91
  0
LINE
  8
0
 10
99.752
 11
99.555
 20
2876.91
 21
2876.94
  0
LINE
  8
0
 10
99.555
 11
99.361
 20
2876.94
 21
2876.98
  0
LINE
  8
0
 10
99.361
 11
99.171
 20
2876.98
 21
2877.04
  0
LINE
  8
0
 10
99.171
 11
98.986
 20
2877.04
 21
2877.12
  0
LINE
  8
0
 10
98.986
 11
98.808
 20
2877.12
 21
2877.2
  0
LINE
  8
0
 10
98.808
 11
98.637
 20
2877.2
 21
2877.3
  0
LINE
  8
0
 10
98.637
 11
98.475
 20
2877.3
 21
2877.42
  0
LINE
  8
0
 10
98.475
 11
98.322
 20
2877.42
 21
2877.55
  0
LINE
  8
0
 10
98.322
 11
98.18
 20
2877.55
 21
2877.69
  0
LINE
  8
0
 10
98.18
 11
98.05
 20
2877.69
 21
2877.84
  0
LINE
  8
0
 10
98.05
 11
97.932
 20
2877.84
 21
2878
  0
LINE
  8
0
 10
97.932
 11
97.827
 20
2878
 21
2878.16
  0
LINE
  8
0
 10
97.827
 11
97.735
 20
2878.16
 21
2878.34
  0
LINE
  8
0
 10
97.735
 11
97.658
 20
2878.34
 21
2878.52
  0
LINE
  8
0
 10
97.658
 11
97.596
 20
2878.52
 21
2878.71
  0
LINE
  8
0
 10
97.596
 11
97.549
 20
2878.71
 21
2878.91
  0
LINE
  8
0
 10
97.549
 11
97.518
 20
2878.91
 21
2879.1
  0
LINE
  8
0
 10
97.518
 11
97.502
 20
2879.1
 21
2879.3
  0
LINE
  8
0
 10
110.619
 11
110.619
 20
1169.4
 21
1225.4
  0
LINE
  8
0
 10
110.619
 11
110.717
 20
1225.4
 21
1226.02
  0
LINE
  8
0
 10
110.717
 11
111.001
 20
1226.02
 21
1226.58
  0
LINE
  8
0
 10
111.001
 11
111.443
 20
1226.58
 21
1227.02
  0
LINE
  8
0
 10
111.443
 11
112.001
 20
1227.02
 21
1227.3
  0
LINE
  8
0
 10
112.001
 11
112.619
 20
1227.3
 21
1227.4
  0
LINE
  8
0
 10
112.619
 11
113.237
 20
1227.4
 21
1227.3
  0
LINE
  8
0
 10
113.237
 11
113.795
 20
1227.3
 21
1227.02
  0
LINE
  8
0
 10
113.795
 11
114.237
 20
1227.02
 21
1226.58
  0
LINE
  8
0
 10
114.237
 11
114.521
 20
1226.58
 21
1226.02
  0
LINE
  8
0
 10
114.521
 11
114.619
 20
1226.02
 21
1225.4
  0
LINE
  8
0
 10
114.619
 11
114.619
 20
1225.4
 21
1169.4
  0
LINE
  8
0
 10
114.619
 11
114.521
 20
1169.4
 21
1168.78
  0
LINE
  8
0
 10
114.521
 11
114.237
 20
1168.78
 21
1168.22
  0
LINE
  8
0
 10
114.237
 11
113.795
 20
1168.22
 21
1167.78
  0
LINE
  8
0
 10
113.795
 11
113.237
 20
1167.78
 21
1167.5
  0
LINE
  8
0
 10
113.237
 11
112.619
 20
1167.5
 21
1167.4
  0
LINE
  8
0
 10
112.619
 11
112.001
 20
1167.4
 21
1167.5
  0
LINE
  8
0
 10
112.001
 11
111.443
 20
1167.5
 21
1167.78
  0
LINE
  8
0
 10
111.443
 11
111.001
 20
1167.78
 21
1168.22
  0
LINE
  8
0
 10
111.001
 11
110.717
 20
1168.22
 21
1168.78
  0
LINE
  8
0
 10
110.717
 11
110.619
 20
1168.78
 21
1169.4
  0
LINE
  8
0
 10
114.96
 11
114.96
 20
1306.32
 21
1309.28
  0
LINE
  8
0
 10
114.96
 11
115.083
 20
1309.28
 21
1310.06
  0
LINE
  8
0
 10
115.083
 11
115.441
 20
1310.06
 21
1310.76
  0
LINE
  8
0
 10
115.441
 11
115.999
 20
1310.76
 21
1311.32
  0
LINE
  8
0
 10
115.999
 11
116.701
 20
1311.32
 21
1311.68
  0
LINE
  8
0
 10
116.701
 11
117.48
 20
1311.68
 21
1311.8
  0
LINE
  8
0
 10
117.48
 11
118.259
 20
1311.8
 21
1311.68
  0
LINE
  8
0
 10
118.259
 11
118.961
 20
1311.68
 21
1311.32
  0
LINE
  8
0
 10
118.961
 11
119.519
 20
1311.32
 21
1310.76
  0
LINE
  8
0
 10
119.519
 11
119.877
 20
1310.76
 21
1310.06
  0
LINE
  8
0
 10
119.877
 11
120
 20
1310.06
 21
1309.28
  0
LINE
  8
0
 10
120
 11
120
 20
1309.28
 21
1306.32
  0
LINE
  8
0
 10
120
 11
119.877
 20
1306.32
 21
1305.54
  0
LINE
  8
0
 10
119.877
 11
119.519
 20
1305.54
 21
1304.84
  0
LINE
  8
0
 10
119.519
 11
118.961
 20
1304.84
 21
1304.28
  0
LINE
  8
0
 10
118.961
 11
118.259
 20
1304.28
 21
1303.92
  0
LINE
  8
0
 10
118.259
 11
117.48
 20
1303.92
 21
1303.8
  0
LINE
  8
0
 10
117.48
 11
116.701
 20
1303.8
 21
1303.92
  0
LINE
  8
0
 10
116.701
 11
115.999
 20
1303.92
 21
1304.28
  0
LINE
  8
0
 10
115.999
 11
115.441
 20
1304.28
 21
1304.84
  0
LINE
  8
0
 10
115.441
 11
115.083
 20
1304.84
 21
1305.54
  0
LINE
  8
0
 10
115.083
 11
114.96
 20
1305.54
 21
1306.32
  0
LINE
  8
0
 10
114.96
 11
114.96
 20
1598.32
 21
1601.28
  0
LINE
  8
0
 10
114.96
 11
115.083
 20
1601.28
 21
1602.06
  0
LINE
  8
0
 10
115.083
 11
115.441
 20
1602.06
 21
1602.76
  0
LINE
  8
0
 10
115.441
 11
115.999
 20
1602.76
 21
1603.32
  0
LINE
  8
0
 10
115.999
 11
116.701
 20
1603.32
 21
1603.68
  0
LINE
  8
0
 10
116.701
 11
117.48
 20
1603.68
 21
1603.8
  0
LINE
  8
0
 10
117.48
 11
118.259
 20
1603.8
 21
1603.68
  0
LINE
  8
0
 10
118.259
 11
118.961
 20
1603.68
 21
1603.32
  0
LINE
  8
0
 10
118.961
 11
119.519
 20
1603.32
 21
1602.76
  0
LINE
  8
0
 10
119.519
 11
119.877
 20
1602.76
 21
1602.06
  0
LINE
  8
0
 10
119.877
 11
120
 20
1602.06
 21
1601.28
  0
LINE
  8
0
 10
120
 11
120
 20
1601.28
 21
1598.32
  0
LINE
  8
0
 10
120
 11
119.877
 20
1598.32
 21
1597.54
  0
LINE
  8
0
 10
119.877
 11
119.519
 20
1597.54
 21
1596.84
  0
LINE
  8
0
 10
119.519
 11
118.961
 20
1596.84
 21
1596.28
  0
LINE
  8
0
 10
118.961
 11
118.259
 20
1596.28
 21
1595.92
  0
LINE
  8
0
 10
118.259
 11
117.48
 20
1595.92
 21
1595.8
  0
LINE
  8
0
 10
117.48
 11
116.701
 20
1595.8
 21
1595.92
  0
LINE
  8
0
 10
116.701
 11
115.999
 20
1595.92
 21
1596.28
  0
LINE
  8
0
 10
115.999
 11
115.441
 20
1596.28
 21
1596.84
  0
LINE
  8
0
 10
115.441
 11
115.083
 20
1596.84
 21
1597.54
  0
LINE
  8
0
 10
115.083
 11
114.96
 20
1597.54
 21
1598.32
  0
LINE
  8
0
 10
117.45
 11
117.45
 20
7.55
 21
10.45
  0
LINE
  8
0
 10
117.45
 11
117.575
 20
10.45
 21
11.238
  0
LINE
  8
0
 10
117.575
 11
117.937
 20
11.238
 21
11.949
  0
LINE
  8
0
 10
117.937
 11
118.501
 20
11.949
 21
12.513
  0
LINE
  8
0
 10
118.501
 11
119.212
 20
12.513
 21
12.875
  0
LINE
  8
0
 10
119.212
 11
120
 20
12.875
 21
13
  0
LINE
  8
0
 10
120
 11
120.788
 20
13
 21
12.875
  0
LINE
  8
0
 10
120.788
 11
121.499
 20
12.875
 21
12.513
  0
LINE
  8
0
 10
121.499
 11
122.063
 20
12.513
 21
11.949
  0
LINE
  8
0
 10
122.063
 11
122.425
 20
11.949
 21
11.238
  0
LINE
  8
0
 10
122.425
 11
122.55
 20
11.238
 21
10.45
  0
LINE
  8
0
 10
122.55
 11
122.55
 20
10.45
 21
7.55
  0
LINE
  8
0
 10
122.55
 11
122.425
 20
7.55
 21
6.762
  0
LINE
  8
0
 10
122.425
 11
122.063
 20
6.762
 21
6.051
  0
LINE
  8
0
 10
122.063
 11
121.499
 20
6.051
 21
5.487
  0
LINE
  8
0
 10
121.499
 11
120.788
 20
5.487
 21
5.125
  0
LINE
  8
0
 10
120.788
 11
120
 20
5.125
 21
5
  0
LINE
  8
0
 10
120
 11
119.212
 20
5
 21
5.125
  0
LINE
  8
0
 10
119.212
 11
118.501
 20
5.125
 21
5.487
  0
LINE
  8
0
 10
118.501
 11
117.937
 20
5.487
 21
6.051
  0
LINE
  8
0
 10
117.937
 11
117.575
 20
6.051
 21
6.762
  0
LINE
  8
0
 10
117.575
 11
117.45
 20
6.762
 21
7.55
  0
LINE
  8
0
 10
117.45
 11
117.45
 20
927.55
 21
930.45
  0
LINE
  8
0
 10
117.45
 11
117.575
 20
930.45
 21
931.238
  0
LINE
  8
0
 10
117.575
 11
117.937
 20
931.238
 21
931.949
  0
LINE
  8
0
 10
117.937
 11
118.501
 20
931.949
 21
932.513
  0
LINE
  8
0
 10
118.501
 11
119.212
 20
932.513
 21
932.875
  0
LINE
  8
0
 10
119.212
 11
120
 20
932.875
 21
933
  0
LINE
  8
0
 10
120
 11
120.788
 20
933
 21
932.875
  0
LINE
  8
0
 10
120.788
 11
121.499
 20
932.875
 21
932.513
  0
LINE
  8
0
 10
121.499
 11
122.063
 20
932.513
 21
931.949
  0
LINE
  8
0
 10
122.063
 11
122.425
 20
931.949
 21
931.238
  0
LINE
  8
0
 10
122.425
 11
122.55
 20
931.238
 21
930.45
  0
LINE
  8
0
 10
122.55
 11
122.55
 20
930.45
 21
927.55
  0
LINE
  8
0
 10
122.55
 11
122.425
 20
927.55
 21
926.762
  0
LINE
  8
0
 10
122.425
 11
122.063
 20
926.762
 21
926.051
  0
LINE
  8
0
 10
122.063
 11
121.499
 20
926.051
 21
925.487
  0
LINE
  8
0
 10
121.499
 11
120.788
 20
925.487
 21
925.125
  0
LINE
  8
0
 10
120.788
 11
120
 20
925.125
 21
925
  0
LINE
  8
0
 10
120
 11
119.212
 20
925
 21
925.125
  0
LINE
  8
0
 10
119.212
 11
118.501
 20
925.125
 21
925.487
  0
LINE
  8
0
 10
118.501
 11
117.937
 20
925.487
 21
926.051
  0
LINE
  8
0
 10
117.937
 11
117.575
 20
926.051
 21
926.762
  0
LINE
  8
0
 10
117.575
 11
117.45
 20
926.762
 21
927.55
  0
LINE
  8
0
 10
125.502
 11
125.502
 20
1444.7
 21
1444.9
  0
LINE
  8
0
 10
125.502
 11
125.518
 20
1444.9
 21
1445.1
  0
LINE
  8
0
 10
125.518
 11
125.549
 20
1445.1
 21
1445.29
  0
LINE
  8
0
 10
125.549
 11
125.596
 20
1445.29
 21
1445.49
  0
LINE
  8
0
 10
125.596
 11
125.658
 20
1445.49
 21
1445.68
  0
LINE
  8
0
 10
125.658
 11
125.735
 20
1445.68
 21
1445.86
  0
LINE
  8
0
 10
125.735
 11
125.827
 20
1445.86
 21
1446.04
  0
LINE
  8
0
 10
125.827
 11
125.932
 20
1446.04
 21
1446.2
  0
LINE
  8
0
 10
125.932
 11
126.05
 20
1446.2
 21
1446.36
  0
LINE
  8
0
 10
126.05
 11
126.18
 20
1446.36
 21
1446.51
  0
LINE
  8
0
 10
126.18
 11
126.322
 20
1446.51
 21
1446.65
  0
LINE
  8
0
 10
126.322
 11
126.475
 20
1446.65
 21
1446.78
  0
LINE
  8
0
 10
126.475
 11
126.637
 20
1446.78
 21
1446.9
  0
LINE
  8
0
 10
126.637
 11
126.808
 20
1446.9
 21
1447
  0
LINE
  8
0
 10
126.808
 11
126.986
 20
1447
 21
1447.09
  0
LINE
  8
0
 10
126.986
 11
127.171
 20
1447.09
 21
1447.16
  0
LINE
  8
0
 10
127.171
 11
127.361
 20
1447.16
 21
1447.22
  0
LINE
  8
0
 10
127.361
 11
127.555
 20
1447.22
 21
1447.26
  0
LINE
  8
0
 10
127.555
 11
127.752
 20
1447.26
 21
1447.29
  0
LINE
  8
0
 10
127.752
 11
127.95
 20
1447.29
 21
1447.3
  0
LINE
  8
0
 10
127.95
 11
128.149
 20
1447.3
 21
1447.3
  0
LINE
  8
0
 10
128.149
 11
128.347
 20
1447.3
 21
1447.28
  0
LINE
  8
0
 10
128.347
 11
128.542
 20
1447.28
 21
1447.24
  0
LINE
  8
0
 10
128.542
 11
128.735
 20
1447.24
 21
1447.19
  0
LINE
  8
0
 10
128.735
 11
128.922
 20
1447.19
 21
1447.12
  0
LINE
  8
0
 10
128.922
 11
129.104
 20
1447.12
 21
1447.04
  0
LINE
  8
0
 10
129.104
 11
129.279
 20
1447.04
 21
1446.95
  0
LINE
  8
0
 10
129.279
 11
129.445
 20
1446.95
 21
1446.84
  0
LINE
  8
0
 10
129.445
 11
129.603
 20
1446.84
 21
1446.72
  0
LINE
  8
0
 10
129.603
 11
129.75
 20
1446.72
 21
1446.59
  0
LINE
  8
0
 10
129.75
 11
129.886
 20
1446.59
 21
1446.44
  0
LINE
  8
0
 10
129.886
 11
130.011
 20
1446.44
 21
1446.29
  0
LINE
  8
0
 10
130.011
 11
130.122
 20
1446.29
 21
1446.12
  0
LINE
  8
0
 10
130.122
 11
130.221
 20
1446.12
 21
1445.95
  0
LINE
  8
0
 10
130.221
 11
130.305
 20
1445.95
 21
1445.77
  0
LINE
  8
0
 10
130.305
 11
130.375
 20
1445.77
 21
1445.58
  0
LINE
  8
0
 10
130.375
 11
130.429
 20
1445.58
 21
1445.39
  0
LINE
  8
0
 10
130.429
 11
130.468
 20
1445.39
 21
1445.2
  0
LINE
  8
0
 10
130.468
 11
130.492
 20
1445.2
 21
1445
  0
LINE
  8
0
 10
130.492
 11
130.5
 20
1445
 21
1444.8
  0
LINE
  8
0
 10
130.5
 11
130.492
 20
1444.8
 21
1444.6
  0
LINE
  8
0
 10
130.492
 11
130.468
 20
1444.6
 21
1444.4
  0
LINE
  8
0
 10
130.468
 11
130.429
 20
1444.4
 21
1444.21
  0
LINE
  8
0
 10
130.429
 11
130.375
 20
1444.21
 21
1444.02
  0
LINE
  8
0
 10
130.375
 11
130.305
 20
1444.02
 21
1443.83
  0
LINE
  8
0
 10
130.305
 11
130.221
 20
1443.83
 21
1443.65
  0
LINE
  8
0
 10
130.221
 11
130.122
 20
1443.65
 21
1443.48
  0
LINE
  8
0
 10
130.122
 11
130.011
 20
1443.48
 21
1443.31
  0
LINE
  8
0
 10
130.011
 11
129.886
 20
1443.31
 21
1443.16
  0
LINE
  8
0
 10
129.886
 11
129.75
 20
1443.16
 21
1443.02
  0
LINE
  8
0
 10
129.75
 11
129.603
 20
1443.02
 21
1442.88
  0
LINE
  8
0
 10
129.603
 11
129.445
 20
1442.88
 21
1442.76
  0
LINE
  8
0
 10
129.445
 11
129.279
 20
1442.76
 21
1442.65
  0
LINE
  8
0
 10
129.279
 11
129.104
 20
1442.65
 21
1442.56
  0
LINE
  8
0
 10
129.104
 11
128.922
 20
1442.56
 21
1442.48
  0
LINE
  8
0
 10
128.922
 11
128.735
 20
1442.48
 21
1442.41
  0
LINE
  8
0
 10
128.735
 11
128.542
 20
1442.41
 21
1442.36
  0
LINE
  8
0
 10
128.542
 11
128.347
 20
1442.36
 21
1442.32
  0
LINE
  8
0
 10
128.347
 11
128.149
 20
1442.32
 21
1442.3
  0
LINE
  8
0
 10
128.149
 11
127.95
 20
1442.3
 21
1442.3
  0
LINE
  8
0
 10
127.95
 11
127.752
 20
1442.3
 21
1442.31
  0
LINE
  8
0
 10
127.752
 11
127.555
 20
1442.31
 21
1442.34
  0
LINE
  8
0
 10
127.555
 11
127.361
 20
1442.34
 21
1442.38
  0
LINE
  8
0
 10
127.361
 11
127.171
 20
1442.38
 21
1442.44
  0
LINE
  8
0
 10
127.171
 11
126.986
 20
1442.44
 21
1442.52
  0
LINE
  8
0
 10
126.986
 11
126.808
 20
1442.52
 21
1442.6
  0
LINE
  8
0
 10
126.808
 11
126.637
 20
1442.6
 21
1442.7
  0
LINE
  8
0
 10
126.637
 11
126.475
 20
1442.7
 21
1442.82
  0
LINE
  8
0
 10
126.475
 11
126.322
 20
1442.82
 21
1442.95
  0
LINE
  8
0
 10
126.322
 11
126.18
 20
1442.95
 21
1443.09
  0
LINE
  8
0
 10
126.18
 11
126.05
 20
1443.09
 21
1443.24
  0
LINE
  8
0
 10
126.05
 11
125.932
 20
1443.24
 21
1443.4
  0
LINE
  8
0
 10
125.932
 11
125.827
 20
1443.4
 21
1443.56
  0
LINE
  8
0
 10
125.827
 11
125.735
 20
1443.56
 21
1443.74
  0
LINE
  8
0
 10
125.735
 11
125.658
 20
1443.74
 21
1443.92
  0
LINE
  8
0
 10
125.658
 11
125.596
 20
1443.92
 21
1444.11
  0
LINE
  8
0
 10
125.596
 11
125.549
 20
1444.11
 21
1444.31
  0
LINE
  8
0
 10
125.549
 11
125.518
 20
1444.31
 21
1444.5
  0
LINE
  8
0
 10
125.518
 11
125.502
 20
1444.5
 21
1444.7
  0
LINE
  8
0
 10
140.928
 11
140.928
 20
1169.4
 21
1225.4
  0
LINE
  8
0
 10
140.928
 11
141.026
 20
1225.4
 21
1226.02
  0
LINE
  8
0
 10
141.026
 11
141.31
 20
1226.02
 21
1226.58
  0
LINE
  8
0
 10
141.31
 11
141.752
 20
1226.58
 21
1227.02
  0
LINE
  8
0
 10
141.752
 11
142.31
 20
1227.02
 21
1227.3
  0
LINE
  8
0
 10
142.31
 11
142.928
 20
1227.3
 21
1227.4
  0
LINE
  8
0
 10
142.928
 11
143.546
 20
1227.4
 21
1227.3
  0
LINE
  8
0
 10
143.546
 11
144.104
 20
1227.3
 21
1227.02
  0
LINE
  8
0
 10
144.104
 11
144.546
 20
1227.02
 21
1226.58
  0
LINE
  8
0
 10
144.546
 11
144.83
 20
1226.58
 21
1226.02
  0
LINE
  8
0
 10
144.83
 11
144.928
 20
1226.02
 21
1225.4
  0
LINE
  8
0
 10
144.928
 11
144.928
 20
1225.4
 21
1169.4
  0
LINE
  8
0
 10
144.928
 11
144.83
 20
1169.4
 21
1168.78
  0
LINE
  8
0
 10
144.83
 11
144.546
 20
1168.78
 21
1168.22
  0
LINE
  8
0
 10
144.546
 11
144.104
 20
1168.22
 21
1167.78
  0
LINE
  8
0
 10
144.104
 11
143.546
 20
1167.78
 21
1167.5
  0
LINE
  8
0
 10
143.546
 11
142.928
 20
1167.5
 21
1167.4
  0
LINE
  8
0
 10
142.928
 11
142.31
 20
1167.4
 21
1167.5
  0
LINE
  8
0
 10
142.31
 11
141.752
 20
1167.5
 21
1167.78
  0
LINE
  8
0
 10
141.752
 11
141.31
 20
1167.78
 21
1168.22
  0
LINE
  8
0
 10
141.31
 11
141.026
 20
1168.22
 21
1168.78
  0
LINE
  8
0
 10
141.026
 11
140.928
 20
1168.78
 21
1169.4
  0
LINE
  8
0
 10
171.237
 11
171.237
 20
1169.4
 21
1225.4
  0
LINE
  8
0
 10
171.237
 11
171.335
 20
1225.4
 21
1226.02
  0
LINE
  8
0
 10
171.335
 11
171.619
 20
1226.02
 21
1226.58
  0
LINE
  8
0
 10
171.619
 11
172.061
 20
1226.58
 21
1227.02
  0
LINE
  8
0
 10
172.061
 11
172.619
 20
1227.02
 21
1227.3
  0
LINE
  8
0
 10
172.619
 11
173.237
 20
1227.3
 21
1227.4
  0
LINE
  8
0
 10
173.237
 11
173.855
 20
1227.4
 21
1227.3
  0
LINE
  8
0
 10
173.855
 11
174.413
 20
1227.3
 21
1227.02
  0
LINE
  8
0
 10
174.413
 11
174.855
 20
1227.02
 21
1226.58
  0
LINE
  8
0
 10
174.855
 11
175.139
 20
1226.58
 21
1226.02
  0
LINE
  8
0
 10
175.139
 11
175.237
 20
1226.02
 21
1225.4
  0
LINE
  8
0
 10
175.237
 11
175.237
 20
1225.4
 21
1169.4
  0
LINE
  8
0
 10
175.237
 11
175.139
 20
1169.4
 21
1168.78
  0
LINE
  8
0
 10
175.139
 11
174.855
 20
1168.78
 21
1168.22
  0
LINE
  8
0
 10
174.855
 11
174.413
 20
1168.22
 21
1167.78
  0
LINE
  8
0
 10
174.413
 11
173.855
 20
1167.78
 21
1167.5
  0
LINE
  8
0
 10
173.855
 11
173.237
 20
1167.5
 21
1167.4
  0
LINE
  8
0
 10
173.237
 11
172.619
 20
1167.4
 21
1167.5
  0
LINE
  8
0
 10
172.619
 11
172.061
 20
1167.5
 21
1167.78
  0
LINE
  8
0
 10
172.061
 11
171.619
 20
1167.78
 21
1168.22
  0
LINE
  8
0
 10
171.619
 11
171.335
 20
1168.22
 21
1168.78
  0
LINE
  8
0
 10
171.335
 11
171.237
 20
1168.78
 21
1169.4
  0
LINE
  8
0
 10
201.546
 11
201.546
 20
1169.4
 21
1225.4
  0
LINE
  8
0
 10
201.546
 11
201.644
 20
1225.4
 21
1226.02
  0
LINE
  8
0
 10
201.644
 11
201.928
 20
1226.02
 21
1226.58
  0
LINE
  8
0
 10
201.928
 11
202.37
 20
1226.58
 21
1227.02
  0
LINE
  8
0
 10
202.37
 11
202.928
 20
1227.02
 21
1227.3
  0
LINE
  8
0
 10
202.928
 11
203.546
 20
1227.3
 21
1227.4
  0
LINE
  8
0
 10
203.546
 11
204.164
 20
1227.4
 21
1227.3
  0
LINE
  8
0
 10
204.164
 11
204.722
 20
1227.3
 21
1227.02
  0
LINE
  8
0
 10
204.722
 11
205.164
 20
1227.02
 21
1226.58
  0
LINE
  8
0
 10
205.164
 11
205.448
 20
1226.58
 21
1226.02
  0
LINE
  8
0
 10
205.448
 11
205.546
 20
1226.02
 21
1225.4
  0
LINE
  8
0
 10
205.546
 11
205.546
 20
1225.4
 21
1169.4
  0
LINE
  8
0
 10
205.546
 11
205.448
 20
1169.4
 21
1168.78
  0
LINE
  8
0
 10
205.448
 11
205.164
 20
1168.78
 21
1168.22
  0
LINE
  8
0
 10
205.164
 11
204.722
 20
1168.22
 21
1167.78
  0
LINE
  8
0
 10
204.722
 11
204.164
 20
1167.78
 21
1167.5
  0
LINE
  8
0
 10
204.164
 11
203.546
 20
1167.5
 21
1167.4
  0
LINE
  8
0
 10
203.546
 11
202.928
 20
1167.4
 21
1167.5
  0
LINE
  8
0
 10
202.928
 11
202.37
 20
1167.5
 21
1167.78
  0
LINE
  8
0
 10
202.37
 11
201.928
 20
1167.78
 21
1168.22
  0
LINE
  8
0
 10
201.928
 11
201.644
 20
1168.22
 21
1168.78
  0
LINE
  8
0
 10
201.644
 11
201.546
 20
1168.78
 21
1169.4
  0
LINE
  8
0
 10
231.856
 11
231.856
 20
1169.4
 21
1225.4
  0
LINE
  8
0
 10
231.856
 11
231.954
 20
1225.4
 21
1226.02
  0
LINE
  8
0
 10
231.954
 11
232.238
 20
1226.02
 21
1226.58
  0
LINE
  8
0
 10
232.238
 11
232.68
 20
1226.58
 21
1227.02
  0
LINE
  8
0
 10
232.68
 11
233.238
 20
1227.02
 21
1227.3
  0
LINE
  8
0
 10
233.238
 11
233.856
 20
1227.3
 21
1227.4
  0
LINE
  8
0
 10
233.856
 11
234.474
 20
1227.4
 21
1227.3
  0
LINE
  8
0
 10
234.474
 11
235.032
 20
1227.3
 21
1227.02
  0
LINE
  8
0
 10
235.032
 11
235.474
 20
1227.02
 21
1226.58
  0
LINE
  8
0
 10
235.474
 11
235.758
 20
1226.58
 21
1226.02
  0
LINE
  8
0
 10
235.758
 11
235.856
 20
1226.02
 21
1225.4
  0
LINE
  8
0
 10
235.856
 11
235.856
 20
1225.4
 21
1169.4
  0
LINE
  8
0
 10
235.856
 11
235.758
 20
1169.4
 21
1168.78
  0
LINE
  8
0
 10
235.758
 11
235.474
 20
1168.78
 21
1168.22
  0
LINE
  8
0
 10
235.474
 11
235.032
 20
1168.22
 21
1167.78
  0
LINE
  8
0
 10
235.032
 11
234.474
 20
1167.78
 21
1167.5
  0
LINE
  8
0
 10
234.474
 11
233.856
 20
1167.5
 21
1167.4
  0
LINE
  8
0
 10
233.856
 11
233.238
 20
1167.4
 21
1167.5
  0
LINE
  8
0
 10
233.238
 11
232.68
 20
1167.5
 21
1167.78
  0
LINE
  8
0
 10
232.68
 11
232.238
 20
1167.78
 21
1168.22
  0
LINE
  8
0
 10
232.238
 11
231.954
 20
1168.22
 21
1168.78
  0
LINE
  8
0
 10
231.954
 11
231.856
 20
1168.78
 21
1169.4
  0
LINE
  8
0
 10
262.165
 11
262.165
 20
1169.4
 21
1225.4
  0
LINE
  8
0
 10
262.165
 11
262.263
 20
1225.4
 21
1226.02
  0
LINE
  8
0
 10
262.263
 11
262.547
 20
1226.02
 21
1226.58
  0
LINE
  8
0
 10
262.547
 11
262.989
 20
1226.58
 21
1227.02
  0
LINE
  8
0
 10
262.989
 11
263.547
 20
1227.02
 21
1227.3
  0
LINE
  8
0
 10
263.547
 11
264.165
 20
1227.3
 21
1227.4
  0
LINE
  8
0
 10
264.165
 11
264.783
 20
1227.4
 21
1227.3
  0
LINE
  8
0
 10
264.783
 11
265.341
 20
1227.3
 21
1227.02
  0
LINE
  8
0
 10
265.341
 11
265.783
 20
1227.02
 21
1226.58
  0
LINE
  8
0
 10
265.783
 11
266.067
 20
1226.58
 21
1226.02
  0
LINE
  8
0
 10
266.067
 11
266.165
 20
1226.02
 21
1225.4
  0
LINE
  8
0
 10
266.165
 11
266.165
 20
1225.4
 21
1169.4
  0
LINE
  8
0
 10
266.165
 11
266.067
 20
1169.4
 21
1168.78
  0
LINE
  8
0
 10
266.067
 11
265.783
 20
1168.78
 21
1168.22
  0
LINE
  8
0
 10
265.783
 11
265.341
 20
1168.22
 21
1167.78
  0
LINE
  8
0
 10
265.341
 11
264.783
 20
1167.78
 21
1167.5
  0
LINE
  8
0
 10
264.783
 11
264.165
 20
1167.5
 21
1167.4
  0
LINE
  8
0
 10
264.165
 11
263.547
 20
1167.4
 21
1167.5
  0
LINE
  8
0
 10
263.547
 11
262.989
 20
1167.5
 21
1167.78
  0
LINE
  8
0
 10
262.989
 11
262.547
 20
1167.78
 21
1168.22
  0
LINE
  8
0
 10
262.547
 11
262.263
 20
1168.22
 21
1168.78
  0
LINE
  8
0
 10
262.263
 11
262.165
 20
1168.78
 21
1169.4
  0
LINE
  8
0
 10
292.474
 11
292.474
 20
1169.4
 21
1225.4
  0
LINE
  8
0
 10
292.474
 11
292.572
 20
1225.4
 21
1226.02
  0
LINE
  8
0
 10
292.572
 11
292.856
 20
1226.02
 21
1226.58
  0
LINE
  8
0
 10
292.856
 11
293.298
 20
1226.58
 21
1227.02
  0
LINE
  8
0
 10
293.298
 11
293.856
 20
1227.02
 21
1227.3
  0
LINE
  8
0
 10
293.856
 11
294.474
 20
1227.3
 21
1227.4
  0
LINE
  8
0
 10
294.474
 11
295.092
 20
1227.4
 21
1227.3
  0
LINE
  8
0
 10
295.092
 11
295.65
 20
1227.3
 21
1227.02
  0
LINE
  8
0
 10
295.65
 11
296.092
 20
1227.02
 21
1226.58
  0
LINE
  8
0
 10
296.092
 11
296.376
 20
1226.58
 21
1226.02
  0
LINE
  8
0
 10
296.376
 11
296.474
 20
1226.02
 21
1225.4
  0
LINE
  8
0
 10
296.474
 11
296.474
 20
1225.4
 21
1169.4
  0
LINE
  8
0
 10
296.474
 11
296.376
 20
1169.4
 21
1168.78
  0
LINE
  8
0
 10
296.376
 11
296.092
 20
1168.78
 21
1168.22
  0
LINE
  8
0
 10
296.092
 11
295.65
 20
1168.22
 21
1167.78
  0
LINE
  8
0
 10
295.65
 11
295.092
 20
1167.78
 21
1167.5
  0
LINE
  8
0
 10
295.092
 11
294.474
 20
1167.5
 21
1167.4
  0
LINE
  8
0
 10
294.474
 11
293.856
 20
1167.4
 21
1167.5
  0
LINE
  8
0
 10
293.856
 11
293.298
 20
1167.5
 21
1167.78
  0
LINE
  8
0
 10
293.298
 11
292.856
 20
1167.78
 21
1168.22
  0
LINE
  8
0
 10
292.856
 11
292.572
 20
1168.22
 21
1168.78
  0
LINE
  8
0
 10
292.572
 11
292.474
 20
1168.78
 21
1169.4
  0
LINE
  8
0
 10
318.802
 11
318.802
 20
2413.9
 21
2414.1
  0
LINE
  8
0
 10
318.802
 11
318.818
 20
2414.1
 21
2414.3
  0
LINE
  8
0
 10
318.818
 11
318.849
 20
2414.3
 21
2414.49
  0
LINE
  8
0
 10
318.849
 11
318.896
 20
2414.49
 21
2414.69
  0
LINE
  8
0
 10
318.896
 11
318.958
 20
2414.69
 21
2414.88
  0
LINE
  8
0
 10
318.958
 11
319.035
 20
2414.88
 21
2415.06
  0
LINE
  8
0
 10
319.035
 11
319.127
 20
2415.06
 21
2415.24
  0
LINE
  8
0
 10
319.127
 11
319.232
 20
2415.24
 21
2415.4
  0
LINE
  8
0
 10
319.232
 11
319.35
 20
2415.4
 21
2415.56
  0
LINE
  8
0
 10
319.35
 11
319.48
 20
2415.56
 21
2415.71
  0
LINE
  8
0
 10
319.48
 11
319.622
 20
2415.71
 21
2415.85
  0
LINE
  8
0
 10
319.622
 11
319.775
 20
2415.85
 21
2415.98
  0
LINE
  8
0
 10
319.775
 11
319.937
 20
2415.98
 21
2416.1
  0
LINE
  8
0
 10
319.937
 11
320.108
 20
2416.1
 21
2416.2
  0
LINE
  8
0
 10
320.108
 11
320.286
 20
2416.2
 21
2416.28
  0
LINE
  8
0
 10
320.286
 11
320.471
 20
2416.28
 21
2416.36
  0
LINE
  8
0
 10
320.471
 11
320.661
 20
2416.36
 21
2416.42
  0
LINE
  8
0
 10
320.661
 11
320.855
 20
2416.42
 21
2416.46
  0
LINE
  8
0
 10
320.855
 11
321.052
 20
2416.46
 21
2416.49
  0
LINE
  8
0
 10
321.052
 11
321.25
 20
2416.49
 21
2416.5
  0
LINE
  8
0
 10
321.25
 11
321.449
 20
2416.5
 21
2416.5
  0
LINE
  8
0
 10
321.449
 11
321.647
 20
2416.5
 21
2416.48
  0
LINE
  8
0
 10
321.647
 11
321.842
 20
2416.48
 21
2416.44
  0
LINE
  8
0
 10
321.842
 11
322.035
 20
2416.44
 21
2416.39
  0
LINE
  8
0
 10
322.035
 11
322.222
 20
2416.39
 21
2416.32
  0
LINE
  8
0
 10
322.222
 11
322.404
 20
2416.32
 21
2416.24
  0
LINE
  8
0
 10
322.404
 11
322.579
 20
2416.24
 21
2416.15
  0
LINE
  8
0
 10
322.579
 11
322.745
 20
2416.15
 21
2416.04
  0
LINE
  8
0
 10
322.745
 11
322.903
 20
2416.04
 21
2415.92
  0
LINE
  8
0
 10
322.903
 11
323.05
 20
2415.92
 21
2415.78
  0
LINE
  8
0
 10
323.05
 11
323.186
 20
2415.78
 21
2415.64
  0
LINE
  8
0
 10
323.186
 11
323.311
 20
2415.64
 21
2415.49
  0
LINE
  8
0
 10
323.311
 11
323.422
 20
2415.49
 21
2415.32
  0
LINE
  8
0
 10
323.422
 11
323.521
 20
2415.32
 21
2415.15
  0
LINE
  8
0
 10
323.521
 11
323.605
 20
2415.15
 21
2414.97
  0
LINE
  8
0
 10
323.605
 11
323.675
 20
2414.97
 21
2414.78
  0
LINE
  8
0
 10
323.675
 11
323.729
 20
2414.78
 21
2414.59
  0
LINE
  8
0
 10
323.729
 11
323.768
 20
2414.59
 21
2414.4
  0
LINE
  8
0
 10
323.768
 11
323.792
 20
2414.4
 21
2414.2
  0
LINE
  8
0
 10
323.792
 11
323.8
 20
2414.2
 21
2414
  0
LINE
  8
0
 10
323.8
 11
323.792
 20
2414
 21
2413.8
  0
LINE
  8
0
 10
323.792
 11
323.768
 20
2413.8
 21
2413.6
  0
LINE
  8
0
 10
323.768
 11
323.729
 20
2413.6
 21
2413.41
  0
LINE
  8
0
 10
323.729
 11
323.675
 20
2413.41
 21
2413.22
  0
LINE
  8
0
 10
323.675
 11
323.605
 20
2413.22
 21
2413.03
  0
LINE
  8
0
 10
323.605
 11
323.521
 20
2413.03
 21
2412.85
  0
LINE
  8
0
 10
323.521
 11
323.422
 20
2412.85
 21
2412.68
  0
LINE
  8
0
 10
323.422
 11
323.311
 20
2412.68
 21
2412.51
  0
LINE
  8
0
 10
323.311
 11
323.186
 20
2412.51
 21
2412.36
  0
LINE
  8
0
 10
323.186
 11
323.05
 20
2412.36
 21
2412.22
  0
LINE
  8
0
 10
323.05
 11
322.903
 20
2412.22
 21
2412.08
  0
LINE
  8
0
 10
322.903
 11
322.745
 20
2412.08
 21
2411.96
  0
LINE
  8
0
 10
322.745
 11
322.579
 20
2411.96
 21
2411.85
  0
LINE
  8
0
 10
322.579
 11
322.404
 20
2411.85
 21
2411.76
  0
LINE
  8
0
 10
322.404
 11
322.222
 20
2411.76
 21
2411.68
  0
LINE
  8
0
 10
322.222
 11
322.035
 20
2411.68
 21
2411.61
  0
LINE
  8
0
 10
322.035
 11
321.842
 20
2411.61
 21
2411.56
  0
LINE
  8
0
 10
321.842
 11
321.647
 20
2411.56
 21
2411.52
  0
LINE
  8
0
 10
321.647
 11
321.449
 20
2411.52
 21
2411.5
  0
LINE
  8
0
 10
321.449
 11
321.25
 20
2411.5
 21
2411.5
  0
LINE
  8
0
 10
321.25
 11
321.052
 20
2411.5
 21
2411.51
  0
LINE
  8
0
 10
321.052
 11
320.855
 20
2411.51
 21
2411.54
  0
LINE
  8
0
 10
320.855
 11
320.661
 20
2411.54
 21
2411.58
  0
LINE
  8
0
 10
320.661
 11
320.471
 20
2411.58
 21
2411.64
  0
LINE
  8
0
 10
320.471
 11
320.286
 20
2411.64
 21
2411.72
  0
LINE
  8
0
 10
320.286
 11
320.108
 20
2411.72
 21
2411.8
  0
LINE
  8
0
 10
320.108
 11
319.937
 20
2411.8
 21
2411.9
  0
LINE
  8
0
 10
319.937
 11
319.775
 20
2411.9
 21
2412.02
  0
LINE
  8
0
 10
319.775
 11
319.622
 20
2412.02
 21
2412.15
  0
LINE
  8
0
 10
319.622
 11
319.48
 20
2412.15
 21
2412.29
  0
LINE
  8
0
 10
319.48
 11
319.35
 20
2412.29
 21
2412.44
  0
LINE
  8
0
 10
319.35
 11
319.232
 20
2412.44
 21
2412.6
  0
LINE
  8
0
 10
319.232
 11
319.127
 20
2412.6
 21
2412.76
  0
LINE
  8
0
 10
319.127
 11
319.035
 20
2412.76
 21
2412.94
  0
LINE
  8
0
 10
319.035
 11
318.958
 20
2412.94
 21
2413.12
  0
LINE
  8
0
 10
318.958
 11
318.896
 20
2413.12
 21
2413.31
  0
LINE
  8
0
 10
318.896
 11
318.849
 20
2413.31
 21
2413.51
  0
LINE
  8
0
 10
318.849
 11
318.818
 20
2413.51
 21
2413.7
  0
LINE
  8
0
 10
318.818
 11
318.802
 20
2413.7
 21
2413.9
  0
LINE
  8
0
 10
322.784
 11
322.784
 20
1169.4
 21
1225.4
  0
LINE
  8
0
 10
322.784
 11
322.882
 20
1225.4
 21
1226.02
  0
LINE
  8
0
 10
322.882
 11
323.166
 20
1226.02
 21
1226.58
  0
LINE
  8
0
 10
323.166
 11
323.608
 20
1226.58
 21
1227.02
  0
LINE
  8
0
 10
323.608
 11
324.166
 20
1227.02
 21
1227.3
  0
LINE
  8
0
 10
324.166
 11
324.784
 20
1227.3
 21
1227.4
  0
LINE
  8
0
 10
324.784
 11
325.402
 20
1227.4
 21
1227.3
  0
LINE
  8
0
 10
325.402
 11
325.96
 20
1227.3
 21
1227.02
  0
LINE
  8
0
 10
325.96
 11
326.402
 20
1227.02
 21
1226.58
  0
LINE
  8
0
 10
326.402
 11
326.686
 20
1226.58
 21
1226.02
  0
LINE
  8
0
 10
326.686
 11
326.784
 20
1226.02
 21
1225.4
  0
LINE
  8
0
 10
326.784
 11
326.784
 20
1225.4
 21
1169.4
  0
LINE
  8
0
 10
326.784
 11
326.686
 20
1169.4
 21
1168.78
  0
LINE
  8
0
 10
326.686
 11
326.402
 20
1168.78
 21
1168.22
  0
LINE
  8
0
 10
326.402
 11
325.96
 20
1168.22
 21
1167.78
  0
LINE
  8
0
 10
325.96
 11
325.402
 20
1167.78
 21
1167.5
  0
LINE
  8
0
 10
325.402
 11
324.784
 20
1167.5
 21
1167.4
  0
LINE
  8
0
 10
324.784
 11
324.166
 20
1167.4
 21
1167.5
  0
LINE
  8
0
 10
324.166
 11
323.608
 20
1167.5
 21
1167.78
  0
LINE
  8
0
 10
323.608
 11
323.166
 20
1167.78
 21
1168.22
  0
LINE
  8
0
 10
323.166
 11
322.882
 20
1168.22
 21
1168.78
  0
LINE
  8
0
 10
322.882
 11
322.784
 20
1168.78
 21
1169.4
  0
LINE
  8
0
 10
353.093
 11
353.093
 20
1169.4
 21
1225.4
  0
LINE
  8
0
 10
353.093
 11
353.191
 20
1225.4
 21
1226.02
  0
LINE
  8
0
 10
353.191
 11
353.475
 20
1226.02
 21
1226.58
  0
LINE
  8
0
 10
353.475
 11
353.917
 20
1226.58
 21
1227.02
  0
LINE
  8
0
 10
353.917
 11
354.475
 20
1227.02
 21
1227.3
  0
LINE
  8
0
 10
354.475
 11
355.093
 20
1227.3
 21
1227.4
  0
LINE
  8
0
 10
355.093
 11
355.711
 20
1227.4
 21
1227.3
  0
LINE
  8
0
 10
355.711
 11
356.269
 20
1227.3
 21
1227.02
  0
LINE
  8
0
 10
356.269
 11
356.711
 20
1227.02
 21
1226.58
  0
LINE
  8
0
 10
356.711
 11
356.995
 20
1226.58
 21
1226.02
  0
LINE
  8
0
 10
356.995
 11
357.093
 20
1226.02
 21
1225.4
  0
LINE
  8
0
 10
357.093
 11
357.093
 20
1225.4
 21
1169.4
  0
LINE
  8
0
 10
357.093
 11
356.995
 20
1169.4
 21
1168.78
  0
LINE
  8
0
 10
356.995
 11
356.711
 20
1168.78
 21
1168.22
  0
LINE
  8
0
 10
356.711
 11
356.269
 20
1168.22
 21
1167.78
  0
LINE
  8
0
 10
356.269
 11
355.711
 20
1167.78
 21
1167.5
  0
LINE
  8
0
 10
355.711
 11
355.093
 20
1167.5
 21
1167.4
  0
LINE
  8
0
 10
355.093
 11
354.475
 20
1167.4
 21
1167.5
  0
LINE
  8
0
 10
354.475
 11
353.917
 20
1167.5
 21
1167.78
  0
LINE
  8
0
 10
353.917
 11
353.475
 20
1167.78
 21
1168.22
  0
LINE
  8
0
 10
353.475
 11
353.191
 20
1168.22
 21
1168.78
  0
LINE
  8
0
 10
353.191
 11
353.093
 20
1168.78
 21
1169.4
  0
LINE
  8
0
 10
383.402
 11
383.402
 20
1169.4
 21
1225.4
  0
LINE
  8
0
 10
383.402
 11
383.5
 20
1225.4
 21
1226.02
  0
LINE
  8
0
 10
383.5
 11
383.784
 20
1226.02
 21
1226.58
  0
LINE
  8
0
 10
383.784
 11
384.226
 20
1226.58
 21
1227.02
  0
LINE
  8
0
 10
384.226
 11
384.784
 20
1227.02
 21
1227.3
  0
LINE
  8
0
 10
384.784
 11
385.402
 20
1227.3
 21
1227.4
  0
LINE
  8
0
 10
385.402
 11
386.02
 20
1227.4
 21
1227.3
  0
LINE
  8
0
 10
386.02
 11
386.578
 20
1227.3
 21
1227.02
  0
LINE
  8
0
 10
386.578
 11
387.02
 20
1227.02
 21
1226.58
  0
LINE
  8
0
 10
387.02
 11
387.304
 20
1226.58
 21
1226.02
  0
LINE
  8
0
 10
387.304
 11
387.402
 20
1226.02
 21
1225.4
  0
LINE
  8
0
 10
387.402
 11
387.402
 20
1225.4
 21
1169.4
  0
LINE
  8
0
 10
387.402
 11
387.304
 20
1169.4
 21
1168.78
  0
LINE
  8
0
 10
387.304
 11
387.02
 20
1168.78
 21
1168.22
  0
LINE
  8
0
 10
387.02
 11
386.578
 20
1168.22
 21
1167.78
  0
LINE
  8
0
 10
386.578
 11
386.02
 20
1167.78
 21
1167.5
  0
LINE
  8
0
 10
386.02
 11
385.402
 20
1167.5
 21
1167.4
  0
LINE
  8
0
 10
385.402
 11
384.784
 20
1167.4
 21
1167.5
  0
LINE
  8
0
 10
384.784
 11
384.226
 20
1167.5
 21
1167.78
  0
LINE
  8
0
 10
384.226
 11
383.784
 20
1167.78
 21
1168.22
  0
LINE
  8
0
 10
383.784
 11
383.5
 20
1168.22
 21
1168.78
  0
LINE
  8
0
 10
383.5
 11
383.402
 20
1168.78
 21
1169.4
  0
LINE
  8
0
 10
407.002
 11
407.002
 20
2984.7
 21
2984.9
  0
LINE
  8
0
 10
407.002
 11
407.018
 20
2984.9
 21
2985.1
  0
LINE
  8
0
 10
407.018
 11
407.049
 20
2985.1
 21
2985.29
  0
LINE
  8
0
 10
407.049
 11
407.096
 20
2985.29
 21
2985.49
  0
LINE
  8
0
 10
407.096
 11
407.158
 20
2985.49
 21
2985.68
  0
LINE
  8
0
 10
407.158
 11
407.235
 20
2985.68
 21
2985.86
  0
LINE
  8
0
 10
407.235
 11
407.327
 20
2985.86
 21
2986.04
  0
LINE
  8
0
 10
407.327
 11
407.432
 20
2986.04
 21
2986.2
  0
LINE
  8
0
 10
407.432
 11
407.55
 20
2986.2
 21
2986.36
  0
LINE
  8
0
 10
407.55
 11
407.68
 20
2986.36
 21
2986.51
  0
LINE
  8
0
 10
407.68
 11
407.822
 20
2986.51
 21
2986.65
  0
LINE
  8
0
 10
407.822
 11
407.975
 20
2986.65
 21
2986.78
  0
LINE
  8
0
 10
407.975
 11
408.137
 20
2986.78
 21
2986.9
  0
LINE
  8
0
 10
408.137
 11
408.308
 20
2986.9
 21
2987
  0
LINE
  8
0
 10
408.308
 11
408.486
 20
2987
 21
2987.09
  0
LINE
  8
0
 10
408.486
 11
408.671
 20
2987.09
 21
2987.16
  0
LINE
  8
0
 10
408.671
 11
408.861
 20
2987.16
 21
2987.22
  0
LINE
  8
0
 10
408.861
 11
409.055
 20
2987.22
 21
2987.26
  0
LINE
  8
0
 10
409.055
 11
409.252
 20
2987.26
 21
2987.29
  0
LINE
  8
0
 10
409.252
 11
409.45
 20
2987.29
 21
2987.3
  0
LINE
  8
0
 10
409.45
 11
409.649
 20
2987.3
 21
2987.3
  0
LINE
  8
0
 10
409.649
 11
409.847
 20
2987.3
 21
2987.28
  0
LINE
  8
0
 10
409.847
 11
410.042
 20
2987.28
 21
2987.24
  0
LINE
  8
0
 10
410.042
 11
410.235
 20
2987.24
 21
2987.19
  0
LINE
  8
0
 10
410.235
 11
410.422
 20
2987.19
 21
2987.12
  0
LINE
  8
0
 10
410.422
 11
410.604
 20
2987.12
 21
2987.04
  0
LINE
  8
0
 10
410.604
 11
410.779
 20
2987.04
 21
2986.95
  0
LINE
  8
0
 10
410.779
 11
410.945
 20
2986.95
 21
2986.84
  0
LINE
  8
0
 10
410.945
 11
411.103
 20
2986.84
 21
2986.72
  0
LINE
  8
0
 10
411.103
 11
411.25
 20
2986.72
 21
2986.59
  0
LINE
  8
0
 10
411.25
 11
411.386
 20
2986.59
 21
2986.44
  0
LINE
  8
0
 10
411.386
 11
411.511
 20
2986.44
 21
2986.29
  0
LINE
  8
0
 10
411.511
 11
411.622
 20
2986.29
 21
2986.12
  0
LINE
  8
0
 10
411.622
 11
411.721
 20
2986.12
 21
2985.95
  0
LINE
  8
0
 10
411.721
 11
411.805
 20
2985.95
 21
2985.77
  0
LINE
  8
0
 10
411.805
 11
411.875
 20
2985.77
 21
2985.58
  0
LINE
  8
0
 10
411.875
 11
411.929
 20
2985.58
 21
2985.39
  0
LINE
  8
0
 10
411.929
 11
411.968
 20
2985.39
 21
2985.2
  0
LINE
  8
0
 10
411.968
 11
411.992
 20
2985.2
 21
2985
  0
LINE
  8
0
 10
411.992
 11
412
 20
2985
 21
2984.8
  0
LINE
  8
0
 10
412
 11
411.992
 20
2984.8
 21
2984.6
  0
LINE
  8
0
 10
411.992
 11
411.968
 20
2984.6
 21
2984.4
  0
LINE
  8
0
 10
411.968
 11
411.929
 20
2984.4
 21
2984.21
  0
LINE
  8
0
 10
411.929
 11
411.875
 20
2984.21
 21
2984.02
  0
LINE
  8
0
 10
411.875
 11
411.805
 20
2984.02
 21
2983.83
  0
LINE
  8
0
 10
411.805
 11
411.721
 20
2983.83
 21
2983.65
  0
LINE
  8
0
 10
411.721
 11
411.622
 20
2983.65
 21
2983.48
  0
LINE
  8
0
 10
411.622
 11
411.511
 20
2983.48
 21
2983.31
  0
LINE
  8
0
 10
411.511
 11
411.386
 20
2983.31
 21
2983.16
  0
LINE
  8
0
 10
411.386
 11
411.25
 20
2983.16
 21
2983.01
  0
LINE
  8
0
 10
411.25
 11
411.103
 20
2983.01
 21
2982.88
  0
LINE
  8
0
 10
411.103
 11
410.945
 20
2982.88
 21
2982.76
  0
LINE
  8
0
 10
410.945
 11
410.779
 20
2982.76
 21
2982.65
  0
LINE
  8
0
 10
410.779
 11
410.604
 20
2982.65
 21
2982.56
  0
LINE
  8
0
 10
410.604
 11
410.422
 20
2982.56
 21
2982.48
  0
LINE
  8
0
 10
410.422
 11
410.235
 20
2982.48
 21
2982.41
  0
LINE
  8
0
 10
410.235
 11
410.042
 20
2982.41
 21
2982.36
  0
LINE
  8
0
 10
410.042
 11
409.847
 20
2982.36
 21
2982.32
  0
LINE
  8
0
 10
409.847
 11
409.649
 20
2982.32
 21
2982.3
  0
LINE
  8
0
 10
409.649
 11
409.45
 20
2982.3
 21
2982.3
  0
LINE
  8
0
 10
409.45
 11
409.252
 20
2982.3
 21
2982.31
  0
LINE
  8
0
 10
409.252
 11
409.055
 20
2982.31
 21
2982.34
  0
LINE
  8
0
 10
409.055
 11
408.861
 20
2982.34
 21
2982.38
  0
LINE
  8
0
 10
408.861
 11
408.671
 20
2982.38
 21
2982.44
  0
LINE
  8
0
 10
408.671
 11
408.486
 20
2982.44
 21
2982.51
  0
LINE
  8
0
 10
408.486
 11
408.308
 20
2982.51
 21
2982.6
  0
LINE
  8
0
 10
408.308
 11
408.137
 20
2982.6
 21
2982.7
  0
LINE
  8
0
 10
408.137
 11
407.975
 20
2982.7
 21
2982.82
  0
LINE
  8
0
 10
407.975
 11
407.822
 20
2982.82
 21
2982.95
  0
LINE
  8
0
 10
407.822
 11
407.68
 20
2982.95
 21
2983.09
  0
LINE
  8
0
 10
407.68
 11
407.55
 20
2983.09
 21
2983.24
  0
LINE
  8
0
 10
407.55
 11
407.432
 20
2983.24
 21
2983.4
  0
LINE
  8
0
 10
407.432
 11
407.327
 20
2983.4
 21
2983.56
  0
LINE
  8
0
 10
407.327
 11
407.235
 20
2983.56
 21
2983.74
  0
LINE
  8
0
 10
407.235
 11
407.158
 20
2983.74
 21
2983.92
  0
LINE
  8
0
 10
407.158
 11
407.096
 20
2983.92
 21
2984.11
  0
LINE
  8
0
 10
407.096
 11
407.049
 20
2984.11
 21
2984.31
  0
LINE
  8
0
 10
407.049
 11
407.018
 20
2984.31
 21
2984.5
  0
LINE
  8
0
 10
407.018
 11
407.002
 20
2984.5
 21
2984.7
  0
LINE
  8
0
 10
413.711
 11
413.711
 20
1169.4
 21
1225.4
  0
LINE
  8
0
 10
413.711
 11
413.809
 20
1225.4
 21
1226.02
  0
LINE
  8
0
 10
413.809
 11
414.093
 20
1226.02
 21
1226.58
  0
LINE
  8
0
 10
414.093
 11
414.535
 20
1226.58
 21
1227.02
  0
LINE
  8
0
 10
414.535
 11
415.093
 20
1227.02
 21
1227.3
  0
LINE
  8
0
 10
415.093
 11
415.711
 20
1227.3
 21
1227.4
  0
LINE
  8
0
 10
415.711
 11
416.329
 20
1227.4
 21
1227.3
  0
LINE
  8
0
 10
416.329
 11
416.887
 20
1227.3
 21
1227.02
  0
LINE
  8
0
 10
416.887
 11
417.329
 20
1227.02
 21
1226.58
  0
LINE
  8
0
 10
417.329
 11
417.613
 20
1226.58
 21
1226.02
  0
LINE
  8
0
 10
417.613
 11
417.711
 20
1226.02
 21
1225.4
  0
LINE
  8
0
 10
417.711
 11
417.711
 20
1225.4
 21
1169.4
  0
LINE
  8
0
 10
417.711
 11
417.613
 20
1169.4
 21
1168.78
  0
LINE
  8
0
 10
417.613
 11
417.329
 20
1168.78
 21
1168.22
  0
LINE
  8
0
 10
417.329
 11
416.887
 20
1168.22
 21
1167.78
  0
LINE
  8
0
 10
416.887
 11
416.329
 20
1167.78
 21
1167.5
  0
LINE
  8
0
 10
416.329
 11
415.711
 20
1167.5
 21
1167.4
  0
LINE
  8
0
 10
415.711
 11
415.093
 20
1167.4
 21
1167.5
  0
LINE
  8
0
 10
415.093
 11
414.535
 20
1167.5
 21
1167.78
  0
LINE
  8
0
 10
414.535
 11
414.093
 20
1167.78
 21
1168.22
  0
LINE
  8
0
 10
414.093
 11
413.809
 20
1168.22
 21
1168.78
  0
LINE
  8
0
 10
413.809
 11
413.711
 20
1168.78
 21
1169.4
  0
LINE
  8
0
 10
432.715
 11
432.715
 20
1244.3
 21
1244.5
  0
LINE
  8
0
 10
432.715
 11
432.731
 20
1244.5
 21
1244.7
  0
LINE
  8
0
 10
432.731
 11
432.762
 20
1244.7
 21
1244.89
  0
LINE
  8
0
 10
432.762
 11
432.809
 20
1244.89
 21
1245.09
  0
LINE
  8
0
 10
432.809
 11
432.871
 20
1245.09
 21
1245.28
  0
LINE
  8
0
 10
432.871
 11
432.948
 20
1245.28
 21
1245.46
  0
LINE
  8
0
 10
432.948
 11
433.04
 20
1245.46
 21
1245.64
  0
LINE
  8
0
 10
433.04
 11
433.145
 20
1245.64
 21
1245.8
  0
LINE
  8
0
 10
433.145
 11
433.263
 20
1245.8
 21
1245.96
  0
LINE
  8
0
 10
433.263
 11
433.393
 20
1245.96
 21
1246.11
  0
LINE
  8
0
 10
433.393
 11
433.535
 20
1246.11
 21
1246.25
  0
LINE
  8
0
 10
433.535
 11
433.688
 20
1246.25
 21
1246.38
  0
LINE
  8
0
 10
433.688
 11
433.85
 20
1246.38
 21
1246.5
  0
LINE
  8
0
 10
433.85
 11
434.021
 20
1246.5
 21
1246.6
  0
LINE
  8
0
 10
434.021
 11
434.199
 20
1246.6
 21
1246.68
  0
LINE
  8
0
 10
434.199
 11
434.384
 20
1246.68
 21
1246.76
  0
LINE
  8
0
 10
434.384
 11
434.574
 20
1246.76
 21
1246.82
  0
LINE
  8
0
 10
434.574
 11
434.768
 20
1246.82
 21
1246.86
  0
LINE
  8
0
 10
434.768
 11
434.965
 20
1246.86
 21
1246.89
  0
LINE
  8
0
 10
434.965
 11
435.163
 20
1246.89
 21
1246.9
  0
LINE
  8
0
 10
435.163
 11
435.362
 20
1246.9
 21
1246.9
  0
LINE
  8
0
 10
435.362
 11
435.56
 20
1246.9
 21
1246.88
  0
LINE
  8
0
 10
435.56
 11
435.755
 20
1246.88
 21
1246.84
  0
LINE
  8
0
 10
435.755
 11
435.948
 20
1246.84
 21
1246.79
  0
LINE
  8
0
 10
435.948
 11
436.135
 20
1246.79
 21
1246.72
  0
LINE
  8
0
 10
436.135
 11
436.317
 20
1246.72
 21
1246.64
  0
LINE
  8
0
 10
436.317
 11
436.492
 20
1246.64
 21
1246.55
  0
LINE
  8
0
 10
436.492
 11
436.658
 20
1246.55
 21
1246.44
  0
LINE
  8
0
 10
436.658
 11
436.816
 20
1246.44
 21
1246.32
  0
LINE
  8
0
 10
436.816
 11
436.963
 20
1246.32
 21
1246.18
  0
LINE
  8
0
 10
436.963
 11
437.099
 20
1246.18
 21
1246.04
  0
LINE
  8
0
 10
437.099
 11
437.224
 20
1246.04
 21
1245.89
  0
LINE
  8
0
 10
437.224
 11
437.335
 20
1245.89
 21
1245.72
  0
LINE
  8
0
 10
437.335
 11
437.434
 20
1245.72
 21
1245.55
  0
LINE
  8
0
 10
437.434
 11
437.518
 20
1245.55
 21
1245.37
  0
LINE
  8
0
 10
437.518
 11
437.588
 20
1245.37
 21
1245.18
  0
LINE
  8
0
 10
437.588
 11
437.642
 20
1245.18
 21
1244.99
  0
LINE
  8
0
 10
437.642
 11
437.681
 20
1244.99
 21
1244.8
  0
LINE
  8
0
 10
437.681
 11
437.705
 20
1244.8
 21
1244.6
  0
LINE
  8
0
 10
437.705
 11
437.713
 20
1244.6
 21
1244.4
  0
LINE
  8
0
 10
437.713
 11
437.705
 20
1244.4
 21
1244.2
  0
LINE
  8
0
 10
437.705
 11
437.681
 20
1244.2
 21
1244
  0
LINE
  8
0
 10
437.681
 11
437.642
 20
1244
 21
1243.81
  0
LINE
  8
0
 10
437.642
 11
437.588
 20
1243.81
 21
1243.62
  0
LINE
  8
0
 10
437.588
 11
437.518
 20
1243.62
 21
1243.43
  0
LINE
  8
0
 10
437.518
 11
437.434
 20
1243.43
 21
1243.25
  0
LINE
  8
0
 10
437.434
 11
437.335
 20
1243.25
 21
1243.08
  0
LINE
  8
0
 10
437.335
 11
437.224
 20
1243.08
 21
1242.91
  0
LINE
  8
0
 10
437.224
 11
437.099
 20
1242.91
 21
1242.76
  0
LINE
  8
0
 10
437.099
 11
436.963
 20
1242.76
 21
1242.62
  0
LINE
  8
0
 10
436.963
 11
436.816
 20
1242.62
 21
1242.48
  0
LINE
  8
0
 10
436.816
 11
436.658
 20
1242.48
 21
1242.36
  0
LINE
  8
0
 10
436.658
 11
436.492
 20
1242.36
 21
1242.25
  0
LINE
  8
0
 10
436.492
 11
436.317
 20
1242.25
 21
1242.16
  0
LINE
  8
0
 10
436.317
 11
436.135
 20
1242.16
 21
1242.08
  0
LINE
  8
0
 10
436.135
 11
435.948
 20
1242.08
 21
1242.01
  0
LINE
  8
0
 10
435.948
 11
435.755
 20
1242.01
 21
1241.96
  0
LINE
  8
0
 10
435.755
 11
435.56
 20
1241.96
 21
1241.92
  0
LINE
  8
0
 10
435.56
 11
435.362
 20
1241.92
 21
1241.9
  0
LINE
  8
0
 10
435.362
 11
435.163
 20
1241.9
 21
1241.9
  0
LINE
  8
0
 10
435.163
 11
434.965
 20
1241.9
 21
1241.91
  0
LINE
  8
0
 10
434.965
 11
434.768
 20
1241.91
 21
1241.94
  0
LINE
  8
0
 10
434.768
 11
434.574
 20
1241.94
 21
1241.98
  0
LINE
  8
0
 10
434.574
 11
434.384
 20
1241.98
 21
1242.04
  0
LINE
  8
0
 10
434.384
 11
434.199
 20
1242.04
 21
1242.12
  0
LINE
  8
0
 10
434.199
 11
434.021
 20
1242.12
 21
1242.2
  0
LINE
  8
0
 10
434.021
 11
433.85
 20
1242.2
 21
1242.3
  0
LINE
  8
0
 10
433.85
 11
433.688
 20
1242.3
 21
1242.42
  0
LINE
  8
0
 10
433.688
 11
433.535
 20
1242.42
 21
1242.55
  0
LINE
  8
0
 10
433.535
 11
433.393
 20
1242.55
 21
1242.69
  0
LINE
  8
0
 10
433.393
 11
433.263
 20
1242.69
 21
1242.84
  0
LINE
  8
0
 10
433.263
 11
433.145
 20
1242.84
 21
1243
  0
LINE
  8
0
 10
433.145
 11
433.04
 20
1243
 21
1243.16
  0
LINE
  8
0
 10
433.04
 11
432.948
 20
1243.16
 21
1243.34
  0
LINE
  8
0
 10
432.948
 11
432.871
 20
1243.34
 21
1243.52
  0
LINE
  8
0
 10
432.871
 11
432.809
 20
1243.52
 21
1243.71
  0
LINE
  8
0
 10
432.809
 11
432.762
 20
1243.71
 21
1243.91
  0
LINE
  8
0
 10
432.762
 11
432.731
 20
1243.91
 21
1244.1
  0
LINE
  8
0
 10
432.731
 11
432.715
 20
1244.1
 21
1244.3
  0
LINE
  8
0
 10
444.021
 11
444.021
 20
1169.4
 21
1225.4
  0
LINE
  8
0
 10
444.021
 11
444.119
 20
1225.4
 21
1226.02
  0
LINE
  8
0
 10
444.119
 11
444.403
 20
1226.02
 21
1226.58
  0
LINE
  8
0
 10
444.403
 11
444.845
 20
1226.58
 21
1227.02
  0
LINE
  8
0
 10
444.845
 11
445.403
 20
1227.02
 21
1227.3
  0
LINE
  8
0
 10
445.403
 11
446.021
 20
1227.3
 21
1227.4
  0
LINE
  8
0
 10
446.021
 11
446.639
 20
1227.4
 21
1227.3
  0
LINE
  8
0
 10
446.639
 11
447.197
 20
1227.3
 21
1227.02
  0
LINE
  8
0
 10
447.197
 11
447.639
 20
1227.02
 21
1226.58
  0
LINE
  8
0
 10
447.639
 11
447.923
 20
1226.58
 21
1226.02
  0
LINE
  8
0
 10
447.923
 11
448.021
 20
1226.02
 21
1225.4
  0
LINE
  8
0
 10
448.021
 11
448.021
 20
1225.4
 21
1169.4
  0
LINE
  8
0
 10
448.021
 11
447.923
 20
1169.4
 21
1168.78
  0
LINE
  8
0
 10
447.923
 11
447.639
 20
1168.78
 21
1168.22
  0
LINE
  8
0
 10
447.639
 11
447.197
 20
1168.22
 21
1167.78
  0
LINE
  8
0
 10
447.197
 11
446.639
 20
1167.78
 21
1167.5
  0
LINE
  8
0
 10
446.639
 11
446.021
 20
1167.5
 21
1167.4
  0
LINE
  8
0
 10
446.021
 11
445.403
 20
1167.4
 21
1167.5
  0
LINE
  8
0
 10
445.403
 11
444.845
 20
1167.5
 21
1167.78
  0
LINE
  8
0
 10
444.845
 11
444.403
 20
1167.78
 21
1168.22
  0
LINE
  8
0
 10
444.403
 11
444.119
 20
1168.22
 21
1168.78
  0
LINE
  8
0
 10
444.119
 11
444.021
 20
1168.78
 21
1169.4
  0
LINE
  8
0
 10
474.33
 11
474.33
 20
1169.4
 21
1225.4
  0
LINE
  8
0
 10
474.33
 11
474.428
 20
1225.4
 21
1226.02
  0
LINE
  8
0
 10
474.428
 11
474.712
 20
1226.02
 21
1226.58
  0
LINE
  8
0
 10
474.712
 11
475.154
 20
1226.58
 21
1227.02
  0
LINE
  8
0
 10
475.154
 11
475.712
 20
1227.02
 21
1227.3
  0
LINE
  8
0
 10
475.712
 11
476.33
 20
1227.3
 21
1227.4
  0
LINE
  8
0
 10
476.33
 11
476.948
 20
1227.4
 21
1227.3
  0
LINE
  8
0
 10
476.948
 11
477.506
 20
1227.3
 21
1227.02
  0
LINE
  8
0
 10
477.506
 11
477.948
 20
1227.02
 21
1226.58
  0
LINE
  8
0
 10
477.948
 11
478.232
 20
1226.58
 21
1226.02
  0
LINE
  8
0
 10
478.232
 11
478.33
 20
1226.02
 21
1225.4
  0
LINE
  8
0
 10
478.33
 11
478.33
 20
1225.4
 21
1169.4
  0
LINE
  8
0
 10
478.33
 11
478.232
 20
1169.4
 21
1168.78
  0
LINE
  8
0
 10
478.232
 11
477.948
 20
1168.78
 21
1168.22
  0
LINE
  8
0
 10
477.948
 11
477.506
 20
1168.22
 21
1167.78
  0
LINE
  8
0
 10
477.506
 11
476.948
 20
1167.78
 21
1167.5
  0
LINE
  8
0
 10
476.948
 11
476.33
 20
1167.5
 21
1167.4
  0
LINE
  8
0
 10
476.33
 11
475.712
 20
1167.4
 21
1167.5
  0
LINE
  8
0
 10
475.712
 11
475.154
 20
1167.5
 21
1167.78
  0
LINE
  8
0
 10
475.154
 11
474.712
 20
1167.78
 21
1168.22
  0
LINE
  8
0
 10
474.712
 11
474.428
 20
1168.22
 21
1168.78
  0
LINE
  8
0
 10
474.428
 11
474.33
 20
1168.78
 21
1169.4
  0
LINE
  8
0
 10
504.639
 11
504.639
 20
1169.4
 21
1225.4
  0
LINE
  8
0
 10
504.639
 11
504.737
 20
1225.4
 21
1226.02
  0
LINE
  8
0
 10
504.737
 11
505.021
 20
1226.02
 21
1226.58
  0
LINE
  8
0
 10
505.021
 11
505.463
 20
1226.58
 21
1227.02
  0
LINE
  8
0
 10
505.463
 11
506.021
 20
1227.02
 21
1227.3
  0
LINE
  8
0
 10
506.021
 11
506.639
 20
1227.3
 21
1227.4
  0
LINE
  8
0
 10
506.639
 11
507.257
 20
1227.4
 21
1227.3
  0
LINE
  8
0
 10
507.257
 11
507.815
 20
1227.3
 21
1227.02
  0
LINE
  8
0
 10
507.815
 11
508.257
 20
1227.02
 21
1226.58
  0
LINE
  8
0
 10
508.257
 11
508.541
 20
1226.58
 21
1226.02
  0
LINE
  8
0
 10
508.541
 11
508.639
 20
1226.02
 21
1225.4
  0
LINE
  8
0
 10
508.639
 11
508.639
 20
1225.4
 21
1169.4
  0
LINE
  8
0
 10
508.639
 11
508.541
 20
1169.4
 21
1168.78
  0
LINE
  8
0
 10
508.541
 11
508.257
 20
1168.78
 21
1168.22
  0
LINE
  8
0
 10
508.257
 11
507.815
 20
1168.22
 21
1167.78
  0
LINE
  8
0
 10
507.815
 11
507.257
 20
1167.78
 21
1167.5
  0
LINE
  8
0
 10
507.257
 11
506.639
 20
1167.5
 21
1167.4
  0
LINE
  8
0
 10
506.639
 11
506.021
 20
1167.4
 21
1167.5
  0
LINE
  8
0
 10
506.021
 11
505.463
 20
1167.5
 21
1167.78
  0
LINE
  8
0
 10
505.463
 11
505.021
 20
1167.78
 21
1168.22
  0
LINE
  8
0
 10
505.021
 11
504.737
 20
1168.22
 21
1168.78
  0
LINE
  8
0
 10
504.737
 11
504.639
 20
1168.78
 21
1169.4
  0
LINE
  8
0
 10
534.948
 11
534.948
 20
1169.4
 21
1225.4
  0
LINE
  8
0
 10
534.948
 11
535.046
 20
1225.4
 21
1226.02
  0
LINE
  8
0
 10
535.046
 11
535.33
 20
1226.02
 21
1226.58
  0
LINE
  8
0
 10
535.33
 11
535.772
 20
1226.58
 21
1227.02
  0
LINE
  8
0
 10
535.772
 11
536.33
 20
1227.02
 21
1227.3
  0
LINE
  8
0
 10
536.33
 11
536.948
 20
1227.3
 21
1227.4
  0
LINE
  8
0
 10
536.948
 11
537.566
 20
1227.4
 21
1227.3
  0
LINE
  8
0
 10
537.566
 11
538.124
 20
1227.3
 21
1227.02
  0
LINE
  8
0
 10
538.124
 11
538.566
 20
1227.02
 21
1226.58
  0
LINE
  8
0
 10
538.566
 11
538.85
 20
1226.58
 21
1226.02
  0
LINE
  8
0
 10
538.85
 11
538.948
 20
1226.02
 21
1225.4
  0
LINE
  8
0
 10
538.948
 11
538.948
 20
1225.4
 21
1169.4
  0
LINE
  8
0
 10
538.948
 11
538.85
 20
1169.4
 21
1168.78
  0
LINE
  8
0
 10
538.85
 11
538.566
 20
1168.78
 21
1168.22
  0
LINE
  8
0
 10
538.566
 11
538.124
 20
1168.22
 21
1167.78
  0
LINE
  8
0
 10
538.124
 11
537.566
 20
1167.78
 21
1167.5
  0
LINE
  8
0
 10
537.566
 11
536.948
 20
1167.5
 21
1167.4
  0
LINE
  8
0
 10
536.948
 11
536.33
 20
1167.4
 21
1167.5
  0
LINE
  8
0
 10
536.33
 11
535.772
 20
1167.5
 21
1167.78
  0
LINE
  8
0
 10
535.772
 11
535.33
 20
1167.78
 21
1168.22
  0
LINE
  8
0
 10
535.33
 11
535.046
 20
1168.22
 21
1168.78
  0
LINE
  8
0
 10
535.046
 11
534.948
 20
1168.78
 21
1169.4
  0
LINE
  8
0
 10
565.258
 11
565.258
 20
1169.4
 21
1225.4
  0
LINE
  8
0
 10
565.258
 11
565.356
 20
1225.4
 21
1226.02
  0
LINE
  8
0
 10
565.356
 11
565.64
 20
1226.02
 21
1226.58
  0
LINE
  8
0
 10
565.64
 11
566.082
 20
1226.58
 21
1227.02
  0
LINE
  8
0
 10
566.082
 11
566.64
 20
1227.02
 21
1227.3
  0
LINE
  8
0
 10
566.64
 11
567.258
 20
1227.3
 21
1227.4
  0
LINE
  8
0
 10
567.258
 11
567.876
 20
1227.4
 21
1227.3
  0
LINE
  8
0
 10
567.876
 11
568.434
 20
1227.3
 21
1227.02
  0
LINE
  8
0
 10
568.434
 11
568.876
 20
1227.02
 21
1226.58
  0
LINE
  8
0
 10
568.876
 11
569.16
 20
1226.58
 21
1226.02
  0
LINE
  8
0
 10
569.16
 11
569.258
 20
1226.02
 21
1225.4
  0
LINE
  8
0
 10
569.258
 11
569.258
 20
1225.4
 21
1169.4
  0
LINE
  8
0
 10
569.258
 11
569.16
 20
1169.4
 21
1168.78
  0
LINE
  8
0
 10
569.16
 11
568.876
 20
1168.78
 21
1168.22
  0
LINE
  8
0
 10
568.876
 11
568.434
 20
1168.22
 21
1167.78
  0
LINE
  8
0
 10
568.434
 11
567.876
 20
1167.78
 21
1167.5
  0
LINE
  8
0
 10
567.876
 11
567.258
 20
1167.5
 21
1167.4
  0
LINE
  8
0
 10
567.258
 11
566.64
 20
1167.4
 21
1167.5
  0
LINE
  8
0
 10
566.64
 11
566.082
 20
1167.5
 21
1167.78
  0
LINE
  8
0
 10
566.082
 11
565.64
 20
1167.78
 21
1168.22
  0
LINE
  8
0
 10
565.64
 11
565.356
 20
1168.22
 21
1168.78
  0
LINE
  8
0
 10
565.356
 11
565.258
 20
1168.78
 21
1169.4
  0
LINE
  8
0
 10
595.567
 11
595.567
 20
1169.4
 21
1225.4
  0
LINE
  8
0
 10
595.567
 11
595.665
 20
1225.4
 21
1226.02
  0
LINE
  8
0
 10
595.665
 11
595.949
 20
1226.02
 21
1226.58
  0
LINE
  8
0
 10
595.949
 11
596.391
 20
1226.58
 21
1227.02
  0
LINE
  8
0
 10
596.391
 11
596.949
 20
1227.02
 21
1227.3
  0
LINE
  8
0
 10
596.949
 11
597.567
 20
1227.3
 21
1227.4
  0
LINE
  8
0
 10
597.567
 11
598.185
 20
1227.4
 21
1227.3
  0
LINE
  8
0
 10
598.185
 11
598.743
 20
1227.3
 21
1227.02
  0
LINE
  8
0
 10
598.743
 11
599.185
 20
1227.02
 21
1226.58
  0
LINE
  8
0
 10
599.185
 11
599.469
 20
1226.58
 21
1226.02
  0
LINE
  8
0
 10
599.469
 11
599.567
 20
1226.02
 21
1225.4
  0
LINE
  8
0
 10
599.567
 11
599.567
 20
1225.4
 21
1169.4
  0
LINE
  8
0
 10
599.567
 11
599.469
 20
1169.4
 21
1168.78
  0
LINE
  8
0
 10
599.469
 11
599.185
 20
1168.78
 21
1168.22
  0
LINE
  8
0
 10
599.185
 11
598.743
 20
1168.22
 21
1167.78
  0
LINE
  8
0
 10
598.743
 11
598.185
 20
1167.78
 21
1167.5
  0
LINE
  8
0
 10
598.185
 11
597.567
 20
1167.5
 21
1167.4
  0
LINE
  8
0
 10
597.567
 11
596.949
 20
1167.4
 21
1167.5
  0
LINE
  8
0
 10
596.949
 11
596.391
 20
1167.5
 21
1167.78
  0
LINE
  8
0
 10
596.391
 11
595.949
 20
1167.78
 21
1168.22
  0
LINE
  8
0
 10
595.949
 11
595.665
 20
1168.22
 21
1168.78
  0
LINE
  8
0
 10
595.665
 11
595.567
 20
1168.78
 21
1169.4
  0
LINE
  8
0
 10
625.876
 11
625.876
 20
1169.4
 21
1225.4
  0
LINE
  8
0
 10
625.876
 11
625.974
 20
1225.4
 21
1226.02
  0
LINE
  8
0
 10
625.974
 11
626.258
 20
1226.02
 21
1226.58
  0
LINE
  8
0
 10
626.258
 11
626.7
 20
1226.58
 21
1227.02
  0
LINE
  8
0
 10
626.7
 11
627.258
 20
1227.02
 21
1227.3
  0
LINE
  8
0
 10
627.258
 11
627.876
 20
1227.3
 21
1227.4
  0
LINE
  8
0
 10
627.876
 11
628.494
 20
1227.4
 21
1227.3
  0
LINE
  8
0
 10
628.494
 11
629.052
 20
1227.3
 21
1227.02
  0
LINE
  8
0
 10
629.052
 11
629.494
 20
1227.02
 21
1226.58
  0
LINE
  8
0
 10
629.494
 11
629.778
 20
1226.58
 21
1226.02
  0
LINE
  8
0
 10
629.778
 11
629.876
 20
1226.02
 21
1225.4
  0
LINE
  8
0
 10
629.876
 11
629.876
 20
1225.4
 21
1169.4
  0
LINE
  8
0
 10
629.876
 11
629.778
 20
1169.4
 21
1168.78
  0
LINE
  8
0
 10
629.778
 11
629.494
 20
1168.78
 21
1168.22
  0
LINE
  8
0
 10
629.494
 11
629.052
 20
1168.22
 21
1167.78
  0
LINE
  8
0
 10
629.052
 11
628.494
 20
1167.78
 21
1167.5
  0
LINE
  8
0
 10
628.494
 11
627.876
 20
1167.5
 21
1167.4
  0
LINE
  8
0
 10
627.876
 11
627.258
 20
1167.4
 21
1167.5
  0
LINE
  8
0
 10
627.258
 11
626.7
 20
1167.5
 21
1167.78
  0
LINE
  8
0
 10
626.7
 11
626.258
 20
1167.78
 21
1168.22
  0
LINE
  8
0
 10
626.258
 11
625.974
 20
1168.22
 21
1168.78
  0
LINE
  8
0
 10
625.974
 11
625.876
 20
1168.78
 21
1169.4
  0
LINE
  8
0
 10
656.186
 11
656.186
 20
1169.4
 21
1225.4
  0
LINE
  8
0
 10
656.186
 11
656.284
 20
1225.4
 21
1226.02
  0
LINE
  8
0
 10
656.284
 11
656.568
 20
1226.02
 21
1226.58
  0
LINE
  8
0
 10
656.568
 11
657.01
 20
1226.58
 21
1227.02
  0
LINE
  8
0
 10
657.01
 11
657.568
 20
1227.02
 21
1227.3
  0
LINE
  8
0
 10
657.568
 11
658.186
 20
1227.3
 21
1227.4
  0
LINE
  8
0
 10
658.186
 11
658.804
 20
1227.4
 21
1227.3
  0
LINE
  8
0
 10
658.804
 11
659.362
 20
1227.3
 21
1227.02
  0
LINE
  8
0
 10
659.362
 11
659.804
 20
1227.02
 21
1226.58
  0
LINE
  8
0
 10
659.804
 11
660.088
 20
1226.58
 21
1226.02
  0
LINE
  8
0
 10
660.088
 11
660.186
 20
1226.02
 21
1225.4
  0
LINE
  8
0
 10
660.186
 11
660.186
 20
1225.4
 21
1169.4
  0
LINE
  8
0
 10
660.186
 11
660.088
 20
1169.4
 21
1168.78
  0
LINE
  8
0
 10
660.088
 11
659.804
 20
1168.78
 21
1168.22
  0
LINE
  8
0
 10
659.804
 11
659.362
 20
1168.22
 21
1167.78
  0
LINE
  8
0
 10
659.362
 11
658.804
 20
1167.78
 21
1167.5
  0
LINE
  8
0
 10
658.804
 11
658.186
 20
1167.5
 21
1167.4
  0
LINE
  8
0
 10
658.186
 11
657.568
 20
1167.4
 21
1167.5
  0
LINE
  8
0
 10
657.568
 11
657.01
 20
1167.5
 21
1167.78
  0
LINE
  8
0
 10
657.01
 11
656.568
 20
1167.78
 21
1168.22
  0
LINE
  8
0
 10
656.568
 11
656.284
 20
1168.22
 21
1168.78
  0
LINE
  8
0
 10
656.284
 11
656.186
 20
1168.78
 21
1169.4
  0
LINE
  8
0
 10
686.495
 11
686.495
 20
1169.4
 21
1225.4
  0
LINE
  8
0
 10
686.495
 11
686.593
 20
1225.4
 21
1226.02
  0
LINE
  8
0
 10
686.593
 11
686.877
 20
1226.02
 21
1226.58
  0
LINE
  8
0
 10
686.877
 11
687.319
 20
1226.58
 21
1227.02
  0
LINE
  8
0
 10
687.319
 11
687.877
 20
1227.02
 21
1227.3
  0
LINE
  8
0
 10
687.877
 11
688.495
 20
1227.3
 21
1227.4
  0
LINE
  8
0
 10
688.495
 11
689.113
 20
1227.4
 21
1227.3
  0
LINE
  8
0
 10
689.113
 11
689.671
 20
1227.3
 21
1227.02
  0
LINE
  8
0
 10
689.671
 11
690.113
 20
1227.02
 21
1226.58
  0
LINE
  8
0
 10
690.113
 11
690.397
 20
1226.58
 21
1226.02
  0
LINE
  8
0
 10
690.397
 11
690.495
 20
1226.02
 21
1225.4
  0
LINE
  8
0
 10
690.495
 11
690.495
 20
1225.4
 21
1169.4
  0
LINE
  8
0
 10
690.495
 11
690.397
 20
1169.4
 21
1168.78
  0
LINE
  8
0
 10
690.397
 11
690.113
 20
1168.78
 21
1168.22
  0
LINE
  8
0
 10
690.113
 11
689.671
 20
1168.22
 21
1167.78
  0
LINE
  8
0
 10
689.671
 11
689.113
 20
1167.78
 21
1167.5
  0
LINE
  8
0
 10
689.113
 11
688.495
 20
1167.5
 21
1167.4
  0
LINE
  8
0
 10
688.495
 11
687.877
 20
1167.4
 21
1167.5
  0
LINE
  8
0
 10
687.877
 11
687.319
 20
1167.5
 21
1167.78
  0
LINE
  8
0
 10
687.319
 11
686.877
 20
1167.78
 21
1168.22
  0
LINE
  8
0
 10
686.877
 11
686.593
 20
1168.22
 21
1168.78
  0
LINE
  8
0
 10
686.593
 11
686.495
 20
1168.78
 21
1169.4
  0
LINE
  8
0
 10
716.804
 11
716.804
 20
1169.4
 21
1225.4
  0
LINE
  8
0
 10
716.804
 11
716.902
 20
1225.4
 21
1226.02
  0
LINE
  8
0
 10
716.902
 11
717.186
 20
1226.02
 21
1226.58
  0
LINE
  8
0
 10
717.186
 11
717.628
 20
1226.58
 21
1227.02
  0
LINE
  8
0
 10
717.628
 11
718.186
 20
1227.02
 21
1227.3
  0
LINE
  8
0
 10
718.186
 11
718.804
 20
1227.3
 21
1227.4
  0
LINE
  8
0
 10
718.804
 11
719.422
 20
1227.4
 21
1227.3
  0
LINE
  8
0
 10
719.422
 11
719.98
 20
1227.3
 21
1227.02
  0
LINE
  8
0
 10
719.98
 11
720.422
 20
1227.02
 21
1226.58
  0
LINE
  8
0
 10
720.422
 11
720.706
 20
1226.58
 21
1226.02
  0
LINE
  8
0
 10
720.706
 11
720.804
 20
1226.02
 21
1225.4
  0
LINE
  8
0
 10
720.804
 11
720.804
 20
1225.4
 21
1169.4
  0
LINE
  8
0
 10
720.804
 11
720.706
 20
1169.4
 21
1168.78
  0
LINE
  8
0
 10
720.706
 11
720.422
 20
1168.78
 21
1168.22
  0
LINE
  8
0
 10
720.422
 11
719.98
 20
1168.22
 21
1167.78
  0
LINE
  8
0
 10
719.98
 11
719.422
 20
1167.78
 21
1167.5
  0
LINE
  8
0
 10
719.422
 11
718.804
 20
1167.5
 21
1167.4
  0
LINE
  8
0
 10
718.804
 11
718.186
 20
1167.4
 21
1167.5
  0
LINE
  8
0
 10
718.186
 11
717.628
 20
1167.5
 21
1167.78
  0
LINE
  8
0
 10
717.628
 11
717.186
 20
1167.78
 21
1168.22
  0
LINE
  8
0
 10
717.186
 11
716.902
 20
1168.22
 21
1168.78
  0
LINE
  8
0
 10
716.902
 11
716.804
 20
1168.78
 21
1169.4
  0
LINE
  8
0
 10
747.113
 11
747.113
 20
1169.4
 21
1225.4
  0
LINE
  8
0
 10
747.113
 11
747.211
 20
1225.4
 21
1226.02
  0
LINE
  8
0
 10
747.211
 11
747.495
 20
1226.02
 21
1226.58
  0
LINE
  8
0
 10
747.495
 11
747.937
 20
1226.58
 21
1227.02
  0
LINE
  8
0
 10
747.937
 11
748.495
 20
1227.02
 21
1227.3
  0
LINE
  8
0
 10
748.495
 11
749.113
 20
1227.3
 21
1227.4
  0
LINE
  8
0
 10
749.113
 11
749.731
 20
1227.4
 21
1227.3
  0
LINE
  8
0
 10
749.731
 11
750.289
 20
1227.3
 21
1227.02
  0
LINE
  8
0
 10
750.289
 11
750.731
 20
1227.02
 21
1226.58
  0
LINE
  8
0
 10
750.731
 11
751.015
 20
1226.58
 21
1226.02
  0
LINE
  8
0
 10
751.015
 11
751.113
 20
1226.02
 21
1225.4
  0
LINE
  8
0
 10
751.113
 11
751.113
 20
1225.4
 21
1169.4
  0
LINE
  8
0
 10
751.113
 11
751.015
 20
1169.4
 21
1168.78
  0
LINE
  8
0
 10
751.015
 11
750.731
 20
1168.78
 21
1168.22
  0
LINE
  8
0
 10
750.731
 11
750.289
 20
1168.22
 21
1167.78
  0
LINE
  8
0
 10
750.289
 11
749.731
 20
1167.78
 21
1167.5
  0
LINE
  8
0
 10
749.731
 11
749.113
 20
1167.5
 21
1167.4
  0
LINE
  8
0
 10
749.113
 11
748.495
 20
1167.4
 21
1167.5
  0
LINE
  8
0
 10
748.495
 11
747.937
 20
1167.5
 21
1167.78
  0
LINE
  8
0
 10
747.937
 11
747.495
 20
1167.78
 21
1168.22
  0
LINE
  8
0
 10
747.495
 11
747.211
 20
1168.22
 21
1168.78
  0
LINE
  8
0
 10
747.211
 11
747.113
 20
1168.78
 21
1169.4
  0
LINE
  8
0
 10
777.423
 11
777.423
 20
1169.4
 21
1225.4
  0
LINE
  8
0
 10
777.423
 11
777.521
 20
1225.4
 21
1226.02
  0
LINE
  8
0
 10
777.521
 11
777.805
 20
1226.02
 21
1226.58
  0
LINE
  8
0
 10
777.805
 11
778.247
 20
1226.58
 21
1227.02
  0
LINE
  8
0
 10
778.247
 11
778.805
 20
1227.02
 21
1227.3
  0
LINE
  8
0
 10
778.805
 11
779.423
 20
1227.3
 21
1227.4
  0
LINE
  8
0
 10
779.423
 11
780.041
 20
1227.4
 21
1227.3
  0
LINE
  8
0
 10
780.041
 11
780.599
 20
1227.3
 21
1227.02
  0
LINE
  8
0
 10
780.599
 11
781.041
 20
1227.02
 21
1226.58
  0
LINE
  8
0
 10
781.041
 11
781.325
 20
1226.58
 21
1226.02
  0
LINE
  8
0
 10
781.325
 11
781.423
 20
1226.02
 21
1225.4
  0
LINE
  8
0
 10
781.423
 11
781.423
 20
1225.4
 21
1169.4
  0
LINE
  8
0
 10
781.423
 11
781.325
 20
1169.4
 21
1168.78
  0
LINE
  8
0
 10
781.325
 11
781.041
 20
1168.78
 21
1168.22
  0
LINE
  8
0
 10
781.041
 11
780.599
 20
1168.22
 21
1167.78
  0
LINE
  8
0
 10
780.599
 11
780.041
 20
1167.78
 21
1167.5
  0
LINE
  8
0
 10
780.041
 11
779.423
 20
1167.5
 21
1167.4
  0
LINE
  8
0
 10
779.423
 11
778.805
 20
1167.4
 21
1167.5
  0
LINE
  8
0
 10
778.805
 11
778.247
 20
1167.5
 21
1167.78
  0
LINE
  8
0
 10
778.247
 11
777.805
 20
1167.78
 21
1168.22
  0
LINE
  8
0
 10
777.805
 11
777.521
 20
1168.22
 21
1168.78
  0
LINE
  8
0
 10
777.521
 11
777.423
 20
1168.78
 21
1169.4
  0
LINE
  8
0
 10
807.502
 11
807.502
 20
2984.7
 21
2984.9
  0
LINE
  8
0
 10
807.502
 11
807.518
 20
2984.9
 21
2985.1
  0
LINE
  8
0
 10
807.518
 11
807.549
 20
2985.1
 21
2985.29
  0
LINE
  8
0
 10
807.549
 11
807.596
 20
2985.29
 21
2985.49
  0
LINE
  8
0
 10
807.596
 11
807.658
 20
2985.49
 21
2985.68
  0
LINE
  8
0
 10
807.658
 11
807.735
 20
2985.68
 21
2985.86
  0
LINE
  8
0
 10
807.735
 11
807.827
 20
2985.86
 21
2986.04
  0
LINE
  8
0
 10
807.827
 11
807.932
 20
2986.04
 21
2986.2
  0
LINE
  8
0
 10
807.932
 11
808.05
 20
2986.2
 21
2986.36
  0
LINE
  8
0
 10
808.05
 11
808.18
 20
2986.36
 21
2986.51
  0
LINE
  8
0
 10
808.18
 11
808.322
 20
2986.51
 21
2986.65
  0
LINE
  8
0
 10
808.322
 11
808.475
 20
2986.65
 21
2986.78
  0
LINE
  8
0
 10
808.475
 11
808.637
 20
2986.78
 21
2986.9
  0
LINE
  8
0
 10
808.637
 11
808.808
 20
2986.9
 21
2987
  0
LINE
  8
0
 10
808.808
 11
808.986
 20
2987
 21
2987.09
  0
LINE
  8
0
 10
808.986
 11
809.171
 20
2987.09
 21
2987.16
  0
LINE
  8
0
 10
809.171
 11
809.361
 20
2987.16
 21
2987.22
  0
LINE
  8
0
 10
809.361
 11
809.555
 20
2987.22
 21
2987.26
  0
LINE
  8
0
 10
809.555
 11
809.752
 20
2987.26
 21
2987.29
  0
LINE
  8
0
 10
809.752
 11
809.95
 20
2987.29
 21
2987.3
  0
LINE
  8
0
 10
809.95
 11
810.149
 20
2987.3
 21
2987.3
  0
LINE
  8
0
 10
810.149
 11
810.347
 20
2987.3
 21
2987.28
  0
LINE
  8
0
 10
810.347
 11
810.542
 20
2987.28
 21
2987.24
  0
LINE
  8
0
 10
810.542
 11
810.735
 20
2987.24
 21
2987.19
  0
LINE
  8
0
 10
810.735
 11
810.922
 20
2987.19
 21
2987.12
  0
LINE
  8
0
 10
810.922
 11
811.104
 20
2987.12
 21
2987.04
  0
LINE
  8
0
 10
811.104
 11
811.279
 20
2987.04
 21
2986.95
  0
LINE
  8
0
 10
811.279
 11
811.445
 20
2986.95
 21
2986.84
  0
LINE
  8
0
 10
811.445
 11
811.603
 20
2986.84
 21
2986.72
  0
LINE
  8
0
 10
811.603
 11
811.75
 20
2986.72
 21
2986.59
  0
LINE
  8
0
 10
811.75
 11
811.886
 20
2986.59
 21
2986.44
  0
LINE
  8
0
 10
811.886
 11
812.011
 20
2986.44
 21
2986.29
  0
LINE
  8
0
 10
812.011
 11
812.122
 20
2986.29
 21
2986.12
  0
LINE
  8
0
 10
812.122
 11
812.221
 20
2986.12
 21
2985.95
  0
LINE
  8
0
 10
812.221
 11
812.305
 20
2985.95
 21
2985.77
  0
LINE
  8
0
 10
812.305
 11
812.375
 20
2985.77
 21
2985.58
  0
LINE
  8
0
 10
812.375
 11
812.429
 20
2985.58
 21
2985.39
  0
LINE
  8
0
 10
812.429
 11
812.468
 20
2985.39
 21
2985.2
  0
LINE
  8
0
 10
812.468
 11
812.492
 20
2985.2
 21
2985
  0
LINE
  8
0
 10
812.492
 11
812.5
 20
2985
 21
2984.8
  0
LINE
  8
0
 10
812.5
 11
812.492
 20
2984.8
 21
2984.6
  0
LINE
  8
0
 10
812.492
 11
812.468
 20
2984.6
 21
2984.4
  0
LINE
  8
0
 10
812.468
 11
812.429
 20
2984.4
 21
2984.21
  0
LINE
  8
0
 10
812.429
 11
812.375
 20
2984.21
 21
2984.02
  0
LINE
  8
0
 10
812.375
 11
812.305
 20
2984.02
 21
2983.83
  0
LINE
  8
0
 10
812.305
 11
812.221
 20
2983.83
 21
2983.65
  0
LINE
  8
0
 10
812.221
 11
812.122
 20
2983.65
 21
2983.48
  0
LINE
  8
0
 10
812.122
 11
812.011
 20
2983.48
 21
2983.31
  0
LINE
  8
0
 10
812.011
 11
811.886
 20
2983.31
 21
2983.16
  0
LINE
  8
0
 10
811.886
 11
811.75
 20
2983.16
 21
2983.01
  0
LINE
  8
0
 10
811.75
 11
811.603
 20
2983.01
 21
2982.88
  0
LINE
  8
0
 10
811.603
 11
811.445
 20
2982.88
 21
2982.76
  0
LINE
  8
0
 10
811.445
 11
811.279
 20
2982.76
 21
2982.65
  0
LINE
  8
0
 10
811.279
 11
811.104
 20
2982.65
 21
2982.56
  0
LINE
  8
0
 10
811.104
 11
810.922
 20
2982.56
 21
2982.48
  0
LINE
  8
0
 10
810.922
 11
810.735
 20
2982.48
 21
2982.41
  0
LINE
  8
0
 10
810.735
 11
810.542
 20
2982.41
 21
2982.36
  0
LINE
  8
0
 10
810.542
 11
810.347
 20
2982.36
 21
2982.32
  0
LINE
  8
0
 10
810.347
 11
810.149
 20
2982.32
 21
2982.3
  0
LINE
  8
0
 10
810.149
 11
809.95
 20
2982.3
 21
2982.3
  0
LINE
  8
0
 10
809.95
 11
809.752
 20
2982.3
 21
2982.31
  0
LINE
  8
0
 10
809.752
 11
809.555
 20
2982.31
 21
2982.34
  0
LINE
  8
0
 10
809.555
 11
809.361
 20
2982.34
 21
2982.38
  0
LINE
  8
0
 10
809.361
 11
809.171
 20
2982.38
 21
2982.44
  0
LINE
  8
0
 10
809.171
 11
808.986
 20
2982.44
 21
2982.51
  0
LINE
  8
0
 10
808.986
 11
808.808
 20
2982.51
 21
2982.6
  0
LINE
  8
0
 10
808.808
 11
808.637
 20
2982.6
 21
2982.7
  0
LINE
  8
0
 10
808.637
 11
808.475
 20
2982.7
 21
2982.82
  0
LINE
  8
0
 10
808.475
 11
808.322
 20
2982.82
 21
2982.95
  0
LINE
  8
0
 10
808.322
 11
808.18
 20
2982.95
 21
2983.09
  0
LINE
  8
0
 10
808.18
 11
808.05
 20
2983.09
 21
2983.24
  0
LINE
  8
0
 10
808.05
 11
807.932
 20
2983.24
 21
2983.4
  0
LINE
  8
0
 10
807.932
 11
807.827
 20
2983.4
 21
2983.56
  0
LINE
  8
0
 10
807.827
 11
807.735
 20
2983.56
 21
2983.74
  0
LINE
  8
0
 10
807.735
 11
807.658
 20
2983.74
 21
2983.92
  0
LINE
  8
0
 10
807.658
 11
807.596
 20
2983.92
 21
2984.11
  0
LINE
  8
0
 10
807.596
 11
807.549
 20
2984.11
 21
2984.31
  0
LINE
  8
0
 10
807.549
 11
807.518
 20
2984.31
 21
2984.5
  0
LINE
  8
0
 10
807.518
 11
807.502
 20
2984.5
 21
2984.7
  0
LINE
  8
0
 10
807.732
 11
807.732
 20
1169.4
 21
1225.4
  0
LINE
  8
0
 10
807.732
 11
807.83
 20
1225.4
 21
1226.02
  0
LINE
  8
0
 10
807.83
 11
808.114
 20
1226.02
 21
1226.58
  0
LINE
  8
0
 10
808.114
 11
808.556
 20
1226.58
 21
1227.02
  0
LINE
  8
0
 10
808.556
 11
809.114
 20
1227.02
 21
1227.3
  0
LINE
  8
0
 10
809.114
 11
809.732
 20
1227.3
 21
1227.4
  0
LINE
  8
0
 10
809.732
 11
810.35
 20
1227.4
 21
1227.3
  0
LINE
  8
0
 10
810.35
 11
810.908
 20
1227.3
 21
1227.02
  0
LINE
  8
0
 10
810.908
 11
811.35
 20
1227.02
 21
1226.58
  0
LINE
  8
0
 10
811.35
 11
811.634
 20
1226.58
 21
1226.02
  0
LINE
  8
0
 10
811.634
 11
811.732
 20
1226.02
 21
1225.4
  0
LINE
  8
0
 10
811.732
 11
811.732
 20
1225.4
 21
1169.4
  0
LINE
  8
0
 10
811.732
 11
811.634
 20
1169.4
 21
1168.78
  0
LINE
  8
0
 10
811.634
 11
811.35
 20
1168.78
 21
1168.22
  0
LINE
  8
0
 10
811.35
 11
810.908
 20
1168.22
 21
1167.78
  0
LINE
  8
0
 10
810.908
 11
810.35
 20
1167.78
 21
1167.5
  0
LINE
  8
0
 10
810.35
 11
809.732
 20
1167.5
 21
1167.4
  0
LINE
  8
0
 10
809.732
 11
809.114
 20
1167.4
 21
1167.5
  0
LINE
  8
0
 10
809.114
 11
808.556
 20
1167.5
 21
1167.78
  0
LINE
  8
0
 10
808.556
 11
808.114
 20
1167.78
 21
1168.22
  0
LINE
  8
0
 10
808.114
 11
807.83
 20
1168.22
 21
1168.78
  0
LINE
  8
0
 10
807.83
 11
807.732
 20
1168.78
 21
1169.4
  0
LINE
  8
0
 10
812.327
 11
812.327
 20
827.55
 21
830.45
  0
LINE
  8
0
 10
812.327
 11
812.452
 20
830.45
 21
831.238
  0
LINE
  8
0
 10
812.452
 11
812.814
 20
831.238
 21
831.949
  0
LINE
  8
0
 10
812.814
 11
813.378
 20
831.949
 21
832.513
  0
LINE
  8
0
 10
813.378
 11
814.089
 20
832.513
 21
832.875
  0
LINE
  8
0
 10
814.089
 11
814.877
 20
832.875
 21
833
  0
LINE
  8
0
 10
814.877
 11
815.665
 20
833
 21
832.875
  0
LINE
  8
0
 10
815.665
 11
816.376
 20
832.875
 21
832.513
  0
LINE
  8
0
 10
816.376
 11
816.94
 20
832.513
 21
831.949
  0
LINE
  8
0
 10
816.94
 11
817.302
 20
831.949
 21
831.238
  0
LINE
  8
0
 10
817.302
 11
817.427
 20
831.238
 21
830.45
  0
LINE
  8
0
 10
817.427
 11
817.427
 20
830.45
 21
827.55
  0
LINE
  8
0
 10
817.427
 11
817.302
 20
827.55
 21
826.762
  0
LINE
  8
0
 10
817.302
 11
816.94
 20
826.762
 21
826.051
  0
LINE
  8
0
 10
816.94
 11
816.376
 20
826.051
 21
825.487
  0
LINE
  8
0
 10
816.376
 11
815.665
 20
825.487
 21
825.125
  0
LINE
  8
0
 10
815.665
 11
814.877
 20
825.125
 21
825
  0
LINE
  8
0
 10
814.877
 11
814.089
 20
825
 21
825.125
  0
LINE
  8
0
 10
814.089
 11
813.378
 20
825.125
 21
825.487
  0
LINE
  8
0
 10
813.378
 11
812.814
 20
825.487
 21
826.051
  0
LINE
  8
0
 10
812.814
 11
812.452
 20
826.051
 21
826.762
  0
LINE
  8
0
 10
812.452
 11
812.327
 20
826.762
 21
827.55
  0
LINE
  8
0
 10
835.495
 11
835.495
 20
1641.7
 21
1644.69
  0
LINE
  8
0
 10
835.495
 11
835.618
 20
1644.69
 21
1645.47
  0
LINE
  8
0
 10
835.618
 11
835.973
 20
1645.47
 21
1646.17
  0
LINE
  8
0
 10
835.973
 11
836.528
 20
1646.17
 21
1646.72
  0
LINE
  8
0
 10
836.528
 11
837.226
 20
1646.72
 21
1647.08
  0
LINE
  8
0
 10
837.226
 11
838
 20
1647.08
 21
1647.2
  0
LINE
  8
0
 10
838
 11
838.774
 20
1647.2
 21
1647.08
  0
LINE
  8
0
 10
838.774
 11
839.472
 20
1647.08
 21
1646.72
  0
LINE
  8
0
 10
839.472
 11
840.027
 20
1646.72
 21
1646.17
  0
LINE
  8
0
 10
840.027
 11
840.382
 20
1646.17
 21
1645.47
  0
LINE
  8
0
 10
840.382
 11
840.505
 20
1645.47
 21
1644.69
  0
LINE
  8
0
 10
840.505
 11
840.505
 20
1644.69
 21
1641.7
  0
LINE
  8
0
 10
840.505
 11
840.382
 20
1641.7
 21
1640.93
  0
LINE
  8
0
 10
840.382
 11
840.027
 20
1640.93
 21
1640.23
  0
LINE
  8
0
 10
840.027
 11
839.472
 20
1640.23
 21
1639.68
  0
LINE
  8
0
 10
839.472
 11
838.774
 20
1639.68
 21
1639.32
  0
LINE
  8
0
 10
838.774
 11
838
 20
1639.32
 21
1639.2
  0
LINE
  8
0
 10
838
 11
837.226
 20
1639.2
 21
1639.32
  0
LINE
  8
0
 10
837.226
 11
836.528
 20
1639.32
 21
1639.68
  0
LINE
  8
0
 10
836.528
 11
835.973
 20
1639.68
 21
1640.23
  0
LINE
  8
0
 10
835.973
 11
835.618
 20
1640.23
 21
1640.93
  0
LINE
  8
0
 10
835.618
 11
835.495
 20
1640.93
 21
1641.7
  0
LINE
  8
0
 10
835.495
 11
835.495
 20
1933.7
 21
1936.69
  0
LINE
  8
0
 10
835.495
 11
835.618
 20
1936.69
 21
1937.47
  0
LINE
  8
0
 10
835.618
 11
835.973
 20
1937.47
 21
1938.17
  0
LINE
  8
0
 10
835.973
 11
836.528
 20
1938.17
 21
1938.72
  0
LINE
  8
0
 10
836.528
 11
837.226
 20
1938.72
 21
1939.08
  0
LINE
  8
0
 10
837.226
 11
838
 20
1939.08
 21
1939.2
  0
LINE
  8
0
 10
838
 11
838.774
 20
1939.2
 21
1939.08
  0
LINE
  8
0
 10
838.774
 11
839.472
 20
1939.08
 21
1938.72
  0
LINE
  8
0
 10
839.472
 11
840.027
 20
1938.72
 21
1938.17
  0
LINE
  8
0
 10
840.027
 11
840.382
 20
1938.17
 21
1937.47
  0
LINE
  8
0
 10
840.382
 11
840.505
 20
1937.47
 21
1936.69
  0
LINE
  8
0
 10
840.505
 11
840.505
 20
1936.69
 21
1933.7
  0
LINE
  8
0
 10
840.505
 11
840.382
 20
1933.7
 21
1932.93
  0
LINE
  8
0
 10
840.382
 11
840.027
 20
1932.93
 21
1932.23
  0
LINE
  8
0
 10
840.027
 11
839.472
 20
1932.23
 21
1931.68
  0
LINE
  8
0
 10
839.472
 11
838.774
 20
1931.68
 21
1931.32
  0
LINE
  8
0
 10
838.774
 11
838
 20
1931.32
 21
1931.2
  0
LINE
  8
0
 10
838
 11
837.226
 20
1931.2
 21
1931.32
  0
LINE
  8
0
 10
837.226
 11
836.528
 20
1931.32
 21
1931.68
  0
LINE
  8
0
 10
836.528
 11
835.973
 20
1931.68
 21
1932.23
  0
LINE
  8
0
 10
835.973
 11
835.618
 20
1932.23
 21
1932.93
  0
LINE
  8
0
 10
835.618
 11
835.495
 20
1932.93
 21
1933.7
  0
LINE
  8
0
 10
835.495
 11
835.495
 20
1977.11
 21
1980.1
  0
LINE
  8
0
 10
835.495
 11
835.618
 20
1980.1
 21
1980.87
  0
LINE
  8
0
 10
835.618
 11
835.973
 20
1980.87
 21
1981.57
  0
LINE
  8
0
 10
835.973
 11
836.528
 20
1981.57
 21
1982.12
  0
LINE
  8
0
 10
836.528
 11
837.226
 20
1982.12
 21
1982.48
  0
LINE
  8
0
 10
837.226
 11
838
 20
1982.48
 21
1982.6
  0
LINE
  8
0
 10
838
 11
838.774
 20
1982.6
 21
1982.48
  0
LINE
  8
0
 10
838.774
 11
839.472
 20
1982.48
 21
1982.12
  0
LINE
  8
0
 10
839.472
 11
840.027
 20
1982.12
 21
1981.57
  0
LINE
  8
0
 10
840.027
 11
840.382
 20
1981.57
 21
1980.87
  0
LINE
  8
0
 10
840.382
 11
840.505
 20
1980.87
 21
1980.1
  0
LINE
  8
0
 10
840.505
 11
840.505
 20
1980.1
 21
1977.11
  0
LINE
  8
0
 10
840.505
 11
840.382
 20
1977.11
 21
1976.33
  0
LINE
  8
0
 10
840.382
 11
840.027
 20
1976.33
 21
1975.63
  0
LINE
  8
0
 10
840.027
 11
839.472
 20
1975.63
 21
1975.08
  0
LINE
  8
0
 10
839.472
 11
838.774
 20
1975.08
 21
1974.72
  0
LINE
  8
0
 10
838.774
 11
838
 20
1974.72
 21
1974.6
  0
LINE
  8
0
 10
838
 11
837.226
 20
1974.6
 21
1974.72
  0
LINE
  8
0
 10
837.226
 11
836.528
 20
1974.72
 21
1975.08
  0
LINE
  8
0
 10
836.528
 11
835.973
 20
1975.08
 21
1975.63
  0
LINE
  8
0
 10
835.973
 11
835.618
 20
1975.63
 21
1976.33
  0
LINE
  8
0
 10
835.618
 11
835.495
 20
1976.33
 21
1977.11
  0
LINE
  8
0
 10
835.495
 11
835.495
 20
2269.11
 21
2272.1
  0
LINE
  8
0
 10
835.495
 11
835.618
 20
2272.1
 21
2272.87
  0
LINE
  8
0
 10
835.618
 11
835.973
 20
2272.87
 21
2273.57
  0
LINE
  8
0
 10
835.973
 11
836.528
 20
2273.57
 21
2274.12
  0
LINE
  8
0
 10
836.528
 11
837.226
 20
2274.12
 21
2274.48
  0
LINE
  8
0
 10
837.226
 11
838
 20
2274.48
 21
2274.6
  0
LINE
  8
0
 10
838
 11
838.774
 20
2274.6
 21
2274.48
  0
LINE
  8
0
 10
838.774
 11
839.472
 20
2274.48
 21
2274.12
  0
LINE
  8
0
 10
839.472
 11
840.027
 20
2274.12
 21
2273.57
  0
LINE
  8
0
 10
840.027
 11
840.382
 20
2273.57
 21
2272.87
  0
LINE
  8
0
 10
840.382
 11
840.505
 20
2272.87
 21
2272.1
  0
LINE
  8
0
 10
840.505
 11
840.505
 20
2272.1
 21
2269.11
  0
LINE
  8
0
 10
840.505
 11
840.382
 20
2269.11
 21
2268.33
  0
LINE
  8
0
 10
840.382
 11
840.027
 20
2268.33
 21
2267.63
  0
LINE
  8
0
 10
840.027
 11
839.472
 20
2267.63
 21
2267.08
  0
LINE
  8
0
 10
839.472
 11
838.774
 20
2267.08
 21
2266.72
  0
LINE
  8
0
 10
838.774
 11
838
 20
2266.72
 21
2266.6
  0
LINE
  8
0
 10
838
 11
837.226
 20
2266.6
 21
2266.72
  0
LINE
  8
0
 10
837.226
 11
836.528
 20
2266.72
 21
2267.08
  0
LINE
  8
0
 10
836.528
 11
835.973
 20
2267.08
 21
2267.63
  0
LINE
  8
0
 10
835.973
 11
835.618
 20
2267.63
 21
2268.33
  0
LINE
  8
0
 10
835.618
 11
835.495
 20
2268.33
 21
2269.11
  0
LINE
  8
0
 10
835.502
 11
835.502
 20
2649.3
 21
2649.5
  0
LINE
  8
0
 10
835.502
 11
835.518
 20
2649.5
 21
2649.7
  0
LINE
  8
0
 10
835.518
 11
835.549
 20
2649.7
 21
2649.89
  0
LINE
  8
0
 10
835.549
 11
835.596
 20
2649.89
 21
2650.09
  0
LINE
  8
0
 10
835.596
 11
835.658
 20
2650.09
 21
2650.28
  0
LINE
  8
0
 10
835.658
 11
835.735
 20
2650.28
 21
2650.46
  0
LINE
  8
0
 10
835.735
 11
835.827
 20
2650.46
 21
2650.64
  0
LINE
  8
0
 10
835.827
 11
835.932
 20
2650.64
 21
2650.8
  0
LINE
  8
0
 10
835.932
 11
836.05
 20
2650.8
 21
2650.96
  0
LINE
  8
0
 10
836.05
 11
836.18
 20
2650.96
 21
2651.11
  0
LINE
  8
0
 10
836.18
 11
836.322
 20
2651.11
 21
2651.25
  0
LINE
  8
0
 10
836.322
 11
836.475
 20
2651.25
 21
2651.38
  0
LINE
  8
0
 10
836.475
 11
836.637
 20
2651.38
 21
2651.5
  0
LINE
  8
0
 10
836.637
 11
836.808
 20
2651.5
 21
2651.6
  0
LINE
  8
0
 10
836.808
 11
836.986
 20
2651.6
 21
2651.68
  0
LINE
  8
0
 10
836.986
 11
837.171
 20
2651.68
 21
2651.76
  0
LINE
  8
0
 10
837.171
 11
837.361
 20
2651.76
 21
2651.82
  0
LINE
  8
0
 10
837.361
 11
837.555
 20
2651.82
 21
2651.86
  0
LINE
  8
0
 10
837.555
 11
837.752
 20
2651.86
 21
2651.89
  0
LINE
  8
0
 10
837.752
 11
837.95
 20
2651.89
 21
2651.9
  0
LINE
  8
0
 10
837.95
 11
838.149
 20
2651.9
 21
2651.9
  0
LINE
  8
0
 10
838.149
 11
838.347
 20
2651.9
 21
2651.88
  0
LINE
  8
0
 10
838.347
 11
838.542
 20
2651.88
 21
2651.84
  0
LINE
  8
0
 10
838.542
 11
838.735
 20
2651.84
 21
2651.79
  0
LINE
  8
0
 10
838.735
 11
838.922
 20
2651.79
 21
2651.72
  0
LINE
  8
0
 10
838.922
 11
839.104
 20
2651.72
 21
2651.64
  0
LINE
  8
0
 10
839.104
 11
839.279
 20
2651.64
 21
2651.55
  0
LINE
  8
0
 10
839.279
 11
839.445
 20
2651.55
 21
2651.44
  0
LINE
  8
0
 10
839.445
 11
839.603
 20
2651.44
 21
2651.32
  0
LINE
  8
0
 10
839.603
 11
839.75
 20
2651.32
 21
2651.18
  0
LINE
  8
0
 10
839.75
 11
839.886
 20
2651.18
 21
2651.04
  0
LINE
  8
0
 10
839.886
 11
840.011
 20
2651.04
 21
2650.89
  0
LINE
  8
0
 10
840.011
 11
840.122
 20
2650.89
 21
2650.72
  0
LINE
  8
0
 10
840.122
 11
840.221
 20
2650.72
 21
2650.55
  0
LINE
  8
0
 10
840.221
 11
840.305
 20
2650.55
 21
2650.37
  0
LINE
  8
0
 10
840.305
 11
840.375
 20
2650.37
 21
2650.18
  0
LINE
  8
0
 10
840.375
 11
840.429
 20
2650.18
 21
2649.99
  0
LINE
  8
0
 10
840.429
 11
840.468
 20
2649.99
 21
2649.8
  0
LINE
  8
0
 10
840.468
 11
840.492
 20
2649.8
 21
2649.6
  0
LINE
  8
0
 10
840.492
 11
840.5
 20
2649.6
 21
2649.4
  0
LINE
  8
0
 10
840.5
 11
840.492
 20
2649.4
 21
2649.2
  0
LINE
  8
0
 10
840.492
 11
840.468
 20
2649.2
 21
2649
  0
LINE
  8
0
 10
840.468
 11
840.429
 20
2649
 21
2648.81
  0
LINE
  8
0
 10
840.429
 11
840.375
 20
2648.81
 21
2648.62
  0
LINE
  8
0
 10
840.375
 11
840.305
 20
2648.62
 21
2648.43
  0
LINE
  8
0
 10
840.305
 11
840.221
 20
2648.43
 21
2648.25
  0
LINE
  8
0
 10
840.221
 11
840.122
 20
2648.25
 21
2648.08
  0
LINE
  8
0
 10
840.122
 11
840.011
 20
2648.08
 21
2647.91
  0
LINE
  8
0
 10
840.011
 11
839.886
 20
2647.91
 21
2647.76
  0
LINE
  8
0
 10
839.886
 11
839.75
 20
2647.76
 21
2647.62
  0
LINE
  8
0
 10
839.75
 11
839.603
 20
2647.62
 21
2647.48
  0
LINE
  8
0
 10
839.603
 11
839.445
 20
2647.48
 21
2647.36
  0
LINE
  8
0
 10
839.445
 11
839.279
 20
2647.36
 21
2647.25
  0
LINE
  8
0
 10
839.279
 11
839.104
 20
2647.25
 21
2647.16
  0
LINE
  8
0
 10
839.104
 11
838.922
 20
2647.16
 21
2647.08
  0
LINE
  8
0
 10
838.922
 11
838.735
 20
2647.08
 21
2647.01
  0
LINE
  8
0
 10
838.735
 11
838.542
 20
2647.01
 21
2646.96
  0
LINE
  8
0
 10
838.542
 11
838.347
 20
2646.96
 21
2646.92
  0
LINE
  8
0
 10
838.347
 11
838.149
 20
2646.92
 21
2646.9
  0
LINE
  8
0
 10
838.149
 11
837.95
 20
2646.9
 21
2646.9
  0
LINE
  8
0
 10
837.95
 11
837.752
 20
2646.9
 21
2646.91
  0
LINE
  8
0
 10
837.752
 11
837.555
 20
2646.91
 21
2646.94
  0
LINE
  8
0
 10
837.555
 11
837.361
 20
2646.94
 21
2646.98
  0
LINE
  8
0
 10
837.361
 11
837.171
 20
2646.98
 21
2647.04
  0
LINE
  8
0
 10
837.171
 11
836.986
 20
2647.04
 21
2647.12
  0
LINE
  8
0
 10
836.986
 11
836.808
 20
2647.12
 21
2647.2
  0
LINE
  8
0
 10
836.808
 11
836.637
 20
2647.2
 21
2647.3
  0
LINE
  8
0
 10
836.637
 11
836.475
 20
2647.3
 21
2647.42
  0
LINE
  8
0
 10
836.475
 11
836.322
 20
2647.42
 21
2647.55
  0
LINE
  8
0
 10
836.322
 11
836.18
 20
2647.55
 21
2647.69
  0
LINE
  8
0
 10
836.18
 11
836.05
 20
2647.69
 21
2647.84
  0
LINE
  8
0
 10
836.05
 11
835.932
 20
2647.84
 21
2648
  0
LINE
  8
0
 10
835.932
 11
835.827
 20
2648
 21
2648.16
  0
LINE
  8
0
 10
835.827
 11
835.735
 20
2648.16
 21
2648.34
  0
LINE
  8
0
 10
835.735
 11
835.658
 20
2648.34
 21
2648.52
  0
LINE
  8
0
 10
835.658
 11
835.596
 20
2648.52
 21
2648.71
  0
LINE
  8
0
 10
835.596
 11
835.549
 20
2648.71
 21
2648.91
  0
LINE
  8
0
 10
835.549
 11
835.518
 20
2648.91
 21
2649.1
  0
LINE
  8
0
 10
835.518
 11
835.502
 20
2649.1
 21
2649.3
  0
LINE
  8
0
 10
835.502
 11
835.502
 20
2879.3
 21
2879.5
  0
LINE
  8
0
 10
835.502
 11
835.518
 20
2879.5
 21
2879.7
  0
LINE
  8
0
 10
835.518
 11
835.549
 20
2879.7
 21
2879.89
  0
LINE
  8
0
 10
835.549
 11
835.596
 20
2879.89
 21
2880.09
  0
LINE
  8
0
 10
835.596
 11
835.658
 20
2880.09
 21
2880.28
  0
LINE
  8
0
 10
835.658
 11
835.735
 20
2880.28
 21
2880.46
  0
LINE
  8
0
 10
835.735
 11
835.827
 20
2880.46
 21
2880.64
  0
LINE
  8
0
 10
835.827
 11
835.932
 20
2880.64
 21
2880.8
  0
LINE
  8
0
 10
835.932
 11
836.05
 20
2880.8
 21
2880.96
  0
LINE
  8
0
 10
836.05
 11
836.18
 20
2880.96
 21
2881.11
  0
LINE
  8
0
 10
836.18
 11
836.322
 20
2881.11
 21
2881.25
  0
LINE
  8
0
 10
836.322
 11
836.475
 20
2881.25
 21
2881.38
  0
LINE
  8
0
 10
836.475
 11
836.637
 20
2881.38
 21
2881.5
  0
LINE
  8
0
 10
836.637
 11
836.808
 20
2881.5
 21
2881.6
  0
LINE
  8
0
 10
836.808
 11
836.986
 20
2881.6
 21
2881.68
  0
LINE
  8
0
 10
836.986
 11
837.171
 20
2881.68
 21
2881.76
  0
LINE
  8
0
 10
837.171
 11
837.361
 20
2881.76
 21
2881.82
  0
LINE
  8
0
 10
837.361
 11
837.555
 20
2881.82
 21
2881.86
  0
LINE
  8
0
 10
837.555
 11
837.752
 20
2881.86
 21
2881.89
  0
LINE
  8
0
 10
837.752
 11
837.95
 20
2881.89
 21
2881.9
  0
LINE
  8
0
 10
837.95
 11
838.149
 20
2881.9
 21
2881.9
  0
LINE
  8
0
 10
838.149
 11
838.347
 20
2881.9
 21
2881.88
  0
LINE
  8
0
 10
838.347
 11
838.542
 20
2881.88
 21
2881.84
  0
LINE
  8
0
 10
838.542
 11
838.735
 20
2881.84
 21
2881.79
  0
LINE
  8
0
 10
838.735
 11
838.922
 20
2881.79
 21
2881.72
  0
LINE
  8
0
 10
838.922
 11
839.104
 20
2881.72
 21
2881.64
  0
LINE
  8
0
 10
839.104
 11
839.279
 20
2881.64
 21
2881.55
  0
LINE
  8
0
 10
839.279
 11
839.445
 20
2881.55
 21
2881.44
  0
LINE
  8
0
 10
839.445
 11
839.603
 20
2881.44
 21
2881.32
  0
LINE
  8
0
 10
839.603
 11
839.75
 20
2881.32
 21
2881.18
  0
LINE
  8
0
 10
839.75
 11
839.886
 20
2881.18
 21
2881.04
  0
LINE
  8
0
 10
839.886
 11
840.011
 20
2881.04
 21
2880.89
  0
LINE
  8
0
 10
840.011
 11
840.122
 20
2880.89
 21
2880.72
  0
LINE
  8
0
 10
840.122
 11
840.221
 20
2880.72
 21
2880.55
  0
LINE
  8
0
 10
840.221
 11
840.305
 20
2880.55
 21
2880.37
  0
LINE
  8
0
 10
840.305
 11
840.375
 20
2880.37
 21
2880.18
  0
LINE
  8
0
 10
840.375
 11
840.429
 20
2880.18
 21
2879.99
  0
LINE
  8
0
 10
840.429
 11
840.468
 20
2879.99
 21
2879.8
  0
LINE
  8
0
 10
840.468
 11
840.492
 20
2879.8
 21
2879.6
  0
LINE
  8
0
 10
840.492
 11
840.5
 20
2879.6
 21
2879.4
  0
LINE
  8
0
 10
840.5
 11
840.492
 20
2879.4
 21
2879.2
  0
LINE
  8
0
 10
840.492
 11
840.468
 20
2879.2
 21
2879
  0
LINE
  8
0
 10
840.468
 11
840.429
 20
2879
 21
2878.81
  0
LINE
  8
0
 10
840.429
 11
840.375
 20
2878.81
 21
2878.62
  0
LINE
  8
0
 10
840.375
 11
840.305
 20
2878.62
 21
2878.43
  0
LINE
  8
0
 10
840.305
 11
840.221
 20
2878.43
 21
2878.25
  0
LINE
  8
0
 10
840.221
 11
840.122
 20
2878.25
 21
2878.08
  0
LINE
  8
0
 10
840.122
 11
840.011
 20
2878.08
 21
2877.91
  0
LINE
  8
0
 10
840.011
 11
839.886
 20
2877.91
 21
2877.76
  0
LINE
  8
0
 10
839.886
 11
839.75
 20
2877.76
 21
2877.62
  0
LINE
  8
0
 10
839.75
 11
839.603
 20
2877.62
 21
2877.48
  0
LINE
  8
0
 10
839.603
 11
839.445
 20
2877.48
 21
2877.36
  0
LINE
  8
0
 10
839.445
 11
839.279
 20
2877.36
 21
2877.25
  0
LINE
  8
0
 10
839.279
 11
839.104
 20
2877.25
 21
2877.16
  0
LINE
  8
0
 10
839.104
 11
838.922
 20
2877.16
 21
2877.08
  0
LINE
  8
0
 10
838.922
 11
838.735
 20
2877.08
 21
2877.01
  0
LINE
  8
0
 10
838.735
 11
838.542
 20
2877.01
 21
2876.96
  0
LINE
  8
0
 10
838.542
 11
838.347
 20
2876.96
 21
2876.92
  0
LINE
  8
0
 10
838.347
 11
838.149
 20
2876.92
 21
2876.9
  0
LINE
  8
0
 10
838.149
 11
837.95
 20
2876.9
 21
2876.9
  0
LINE
  8
0
 10
837.95
 11
837.752
 20
2876.9
 21
2876.91
  0
LINE
  8
0
 10
837.752
 11
837.555
 20
2876.91
 21
2876.94
  0
LINE
  8
0
 10
837.555
 11
837.361
 20
2876.94
 21
2876.98
  0
LINE
  8
0
 10
837.361
 11
837.171
 20
2876.98
 21
2877.04
  0
LINE
  8
0
 10
837.171
 11
836.986
 20
2877.04
 21
2877.12
  0
LINE
  8
0
 10
836.986
 11
836.808
 20
2877.12
 21
2877.2
  0
LINE
  8
0
 10
836.808
 11
836.637
 20
2877.2
 21
2877.3
  0
LINE
  8
0
 10
836.637
 11
836.475
 20
2877.3
 21
2877.42
  0
LINE
  8
0
 10
836.475
 11
836.322
 20
2877.42
 21
2877.55
  0
LINE
  8
0
 10
836.322
 11
836.18
 20
2877.55
 21
2877.69
  0
LINE
  8
0
 10
836.18
 11
836.05
 20
2877.69
 21
2877.84
  0
LINE
  8
0
 10
836.05
 11
835.932
 20
2877.84
 21
2878
  0
LINE
  8
0
 10
835.932
 11
835.827
 20
2878
 21
2878.16
  0
LINE
  8
0
 10
835.827
 11
835.735
 20
2878.16
 21
2878.34
  0
LINE
  8
0
 10
835.735
 11
835.658
 20
2878.34
 21
2878.52
  0
LINE
  8
0
 10
835.658
 11
835.596
 20
2878.52
 21
2878.71
  0
LINE
  8
0
 10
835.596
 11
835.549
 20
2878.71
 21
2878.91
  0
LINE
  8
0
 10
835.549
 11
835.518
 20
2878.91
 21
2879.1
  0
LINE
  8
0
 10
835.518
 11
835.502
 20
2879.1
 21
2879.3
  0
LINE
  8
0
 10
838.041
 11
838.041
 20
1169.4
 21
1225.4
  0
LINE
  8
0
 10
838.041
 11
838.139
 20
1225.4
 21
1226.02
  0
LINE
  8
0
 10
838.139
 11
838.423
 20
1226.02
 21
1226.58
  0
LINE
  8
0
 10
838.423
 11
838.865
 20
1226.58
 21
1227.02
  0
LINE
  8
0
 10
838.865
 11
839.423
 20
1227.02
 21
1227.3
  0
LINE
  8
0
 10
839.423
 11
840.041
 20
1227.3
 21
1227.4
  0
LINE
  8
0
 10
840.041
 11
840.659
 20
1227.4
 21
1227.3
  0
LINE
  8
0
 10
840.659
 11
841.217
 20
1227.3
 21
1227.02
  0
LINE
  8
0
 10
841.217
 11
841.659
 20
1227.02
 21
1226.58
  0
LINE
  8
0
 10
841.659
 11
841.943
 20
1226.58
 21
1226.02
  0
LINE
  8
0
 10
841.943
 11
842.041
 20
1226.02
 21
1225.4
  0
LINE
  8
0
 10
842.041
 11
842.041
 20
1225.4
 21
1169.4
  0
LINE
  8
0
 10
842.041
 11
841.943
 20
1169.4
 21
1168.78
  0
LINE
  8
0
 10
841.943
 11
841.659
 20
1168.78
 21
1168.22
  0
LINE
  8
0
 10
841.659
 11
841.217
 20
1168.22
 21
1167.78
  0
LINE
  8
0
 10
841.217
 11
840.659
 20
1167.78
 21
1167.5
  0
LINE
  8
0
 10
840.659
 11
840.041
 20
1167.5
 21
1167.4
  0
LINE
  8
0
 10
840.041
 11
839.423
 20
1167.4
 21
1167.5
  0
LINE
  8
0
 10
839.423
 11
838.865
 20
1167.5
 21
1167.78
  0
LINE
  8
0
 10
838.865
 11
838.423
 20
1167.78
 21
1168.22
  0
LINE
  8
0
 10
838.423
 11
838.139
 20
1168.22
 21
1168.78
  0
LINE
  8
0
 10
838.139
 11
838.041
 20
1168.78
 21
1169.4
  0
LINE
  8
0
 10
868.351
 11
868.351
 20
1169.4
 21
1225.4
  0
LINE
  8
0
 10
868.351
 11
868.449
 20
1225.4
 21
1226.02
  0
LINE
  8
0
 10
868.449
 11
868.733
 20
1226.02
 21
1226.58
  0
LINE
  8
0
 10
868.733
 11
869.175
 20
1226.58
 21
1227.02
  0
LINE
  8
0
 10
869.175
 11
869.733
 20
1227.02
 21
1227.3
  0
LINE
  8
0
 10
869.733
 11
870.351
 20
1227.3
 21
1227.4
  0
LINE
  8
0
 10
870.351
 11
870.969
 20
1227.4
 21
1227.3
  0
LINE
  8
0
 10
870.969
 11
871.527
 20
1227.3
 21
1227.02
  0
LINE
  8
0
 10
871.527
 11
871.969
 20
1227.02
 21
1226.58
  0
LINE
  8
0
 10
871.969
 11
872.253
 20
1226.58
 21
1226.02
  0
LINE
  8
0
 10
872.253
 11
872.351
 20
1226.02
 21
1225.4
  0
LINE
  8
0
 10
872.351
 11
872.351
 20
1225.4
 21
1169.4
  0
LINE
  8
0
 10
872.351
 11
872.253
 20
1169.4
 21
1168.78
  0
LINE
  8
0
 10
872.253
 11
871.969
 20
1168.78
 21
1168.22
  0
LINE
  8
0
 10
871.969
 11
871.527
 20
1168.22
 21
1167.78
  0
LINE
  8
0
 10
871.527
 11
870.969
 20
1167.78
 21
1167.5
  0
LINE
  8
0
 10
870.969
 11
870.351
 20
1167.5
 21
1167.4
  0
LINE
  8
0
 10
870.351
 11
869.733
 20
1167.4
 21
1167.5
  0
LINE
  8
0
 10
869.733
 11
869.175
 20
1167.5
 21
1167.78
  0
LINE
  8
0
 10
869.175
 11
868.733
 20
1167.78
 21
1168.22
  0
LINE
  8
0
 10
868.733
 11
868.449
 20
1168.22
 21
1168.78
  0
LINE
  8
0
 10
868.449
 11
868.351
 20
1168.78
 21
1169.4
  0
LINE
  8
0
 10
893.95
 11
893.95
 20
7.55
 21
10.45
  0
LINE
  8
0
 10
893.95
 11
894.075
 20
10.45
 21
11.238
  0
LINE
  8
0
 10
894.075
 11
894.437
 20
11.238
 21
11.949
  0
LINE
  8
0
 10
894.437
 11
895.001
 20
11.949
 21
12.513
  0
LINE
  8
0
 10
895.001
 11
895.712
 20
12.513
 21
12.875
  0
LINE
  8
0
 10
895.712
 11
896.5
 20
12.875
 21
13
  0
LINE
  8
0
 10
896.5
 11
897.288
 20
13
 21
12.875
  0
LINE
  8
0
 10
897.288
 11
897.999
 20
12.875
 21
12.513
  0
LINE
  8
0
 10
897.999
 11
898.563
 20
12.513
 21
11.949
  0
LINE
  8
0
 10
898.563
 11
898.925
 20
11.949
 21
11.238
  0
LINE
  8
0
 10
898.925
 11
899.05
 20
11.238
 21
10.45
  0
LINE
  8
0
 10
899.05
 11
899.05
 20
10.45
 21
7.55
  0
LINE
  8
0
 10
899.05
 11
898.925
 20
7.55
 21
6.762
  0
LINE
  8
0
 10
898.925
 11
898.563
 20
6.762
 21
6.051
  0
LINE
  8
0
 10
898.563
 11
897.999
 20
6.051
 21
5.487
  0
LINE
  8
0
 10
897.999
 11
897.288
 20
5.487
 21
5.125
  0
LINE
  8
0
 10
897.288
 11
896.5
 20
5.125
 21
5
  0
LINE
  8
0
 10
896.5
 11
895.712
 20
5
 21
5.125
  0
LINE
  8
0
 10
895.712
 11
895.001
 20
5.125
 21
5.487
  0
LINE
  8
0
 10
895.001
 11
894.437
 20
5.487
 21
6.051
  0
LINE
  8
0
 10
894.437
 11
894.075
 20
6.051
 21
6.762
  0
LINE
  8
0
 10
894.075
 11
893.95
 20
6.762
 21
7.55
  0
LINE
  8
0
 10
893.95
 11
893.95
 20
927.55
 21
930.45
  0
LINE
  8
0
 10
893.95
 11
894.075
 20
930.45
 21
931.238
  0
LINE
  8
0
 10
894.075
 11
894.437
 20
931.238
 21
931.949
  0
LINE
  8
0
 10
894.437
 11
895.001
 20
931.949
 21
932.513
  0
LINE
  8
0
 10
895.001
 11
895.712
 20
932.513
 21
932.875
  0
LINE
  8
0
 10
895.712
 11
896.5
 20
932.875
 21
933
  0
LINE
  8
0
 10
896.5
 11
897.288
 20
933
 21
932.875
  0
LINE
  8
0
 10
897.288
 11
897.999
 20
932.875
 21
932.513
  0
LINE
  8
0
 10
897.999
 11
898.563
 20
932.513
 21
931.949
  0
LINE
  8
0
 10
898.563
 11
898.925
 20
931.949
 21
931.238
  0
LINE
  8
0
 10
898.925
 11
899.05
 20
931.238
 21
930.45
  0
LINE
  8
0
 10
899.05
 11
899.05
 20
930.45
 21
927.55
  0
LINE
  8
0
 10
899.05
 11
898.925
 20
927.55
 21
926.762
  0
LINE
  8
0
 10
898.925
 11
898.563
 20
926.762
 21
926.051
  0
LINE
  8
0
 10
898.563
 11
897.999
 20
926.051
 21
925.487
  0
LINE
  8
0
 10
897.999
 11
897.288
 20
925.487
 21
925.125
  0
LINE
  8
0
 10
897.288
 11
896.5
 20
925.125
 21
925
  0
LINE
  8
0
 10
896.5
 11
895.712
 20
925
 21
925.125
  0
LINE
  8
0
 10
895.712
 11
895.001
 20
925.125
 21
925.487
  0
LINE
  8
0
 10
895.001
 11
894.437
 20
925.487
 21
926.051
  0
LINE
  8
0
 10
894.437
 11
894.075
 20
926.051
 21
926.762
  0
LINE
  8
0
 10
894.075
 11
893.95
 20
926.762
 21
927.55
  0
LINE
  8
0
 10
893.98
 11
893.98
 20
1306.32
 21
1309.28
  0
LINE
  8
0
 10
893.98
 11
894.103
 20
1309.28
 21
1310.06
  0
LINE
  8
0
 10
894.103
 11
894.461
 20
1310.06
 21
1310.76
  0
LINE
  8
0
 10
894.461
 11
895.019
 20
1310.76
 21
1311.32
  0
LINE
  8
0
 10
895.019
 11
895.721
 20
1311.32
 21
1311.68
  0
LINE
  8
0
 10
895.721
 11
896.5
 20
1311.68
 21
1311.8
  0
LINE
  8
0
 10
896.5
 11
897.279
 20
1311.8
 21
1311.68
  0
LINE
  8
0
 10
897.279
 11
897.981
 20
1311.68
 21
1311.32
  0
LINE
  8
0
 10
897.981
 11
898.539
 20
1311.32
 21
1310.76
  0
LINE
  8
0
 10
898.539
 11
898.897
 20
1310.76
 21
1310.06
  0
LINE
  8
0
 10
898.897
 11
899.02
 20
1310.06
 21
1309.28
  0
LINE
  8
0
 10
899.02
 11
899.02
 20
1309.28
 21
1306.32
  0
LINE
  8
0
 10
899.02
 11
898.897
 20
1306.32
 21
1305.54
  0
LINE
  8
0
 10
898.897
 11
898.539
 20
1305.54
 21
1304.84
  0
LINE
  8
0
 10
898.539
 11
897.981
 20
1304.84
 21
1304.28
  0
LINE
  8
0
 10
897.981
 11
897.279
 20
1304.28
 21
1303.92
  0
LINE
  8
0
 10
897.279
 11
896.5
 20
1303.92
 21
1303.8
  0
LINE
  8
0
 10
896.5
 11
895.721
 20
1303.8
 21
1303.92
  0
LINE
  8
0
 10
895.721
 11
895.019
 20
1303.92
 21
1304.28
  0
LINE
  8
0
 10
895.019
 11
894.461
 20
1304.28
 21
1304.84
  0
LINE
  8
0
 10
894.461
 11
894.103
 20
1304.84
 21
1305.54
  0
LINE
  8
0
 10
894.103
 11
893.98
 20
1305.54
 21
1306.32
  0
LINE
  8
0
 10
893.98
 11
893.98
 20
1598.32
 21
1601.28
  0
LINE
  8
0
 10
893.98
 11
894.103
 20
1601.28
 21
1602.06
  0
LINE
  8
0
 10
894.103
 11
894.461
 20
1602.06
 21
1602.76
  0
LINE
  8
0
 10
894.461
 11
895.019
 20
1602.76
 21
1603.32
  0
LINE
  8
0
 10
895.019
 11
895.721
 20
1603.32
 21
1603.68
  0
LINE
  8
0
 10
895.721
 11
896.5
 20
1603.68
 21
1603.8
  0
LINE
  8
0
 10
896.5
 11
897.279
 20
1603.8
 21
1603.68
  0
LINE
  8
0
 10
897.279
 11
897.981
 20
1603.68
 21
1603.32
  0
LINE
  8
0
 10
897.981
 11
898.539
 20
1603.32
 21
1602.76
  0
LINE
  8
0
 10
898.539
 11
898.897
 20
1602.76
 21
1602.06
  0
LINE
  8
0
 10
898.897
 11
899.02
 20
1602.06
 21
1601.28
  0
LINE
  8
0
 10
899.02
 11
899.02
 20
1601.28
 21
1598.32
  0
LINE
  8
0
 10
899.02
 11
898.897
 20
1598.32
 21
1597.54
  0
LINE
  8
0
 10
898.897
 11
898.539
 20
1597.54
 21
1596.84
  0
LINE
  8
0
 10
898.539
 11
897.981
 20
1596.84
 21
1596.28
  0
LINE
  8
0
 10
897.981
 11
897.279
 20
1596.28
 21
1595.92
  0
LINE
  8
0
 10
897.279
 11
896.5
 20
1595.92
 21
1595.8
  0
LINE
  8
0
 10
896.5
 11
895.721
 20
1595.8
 21
1595.92
  0
LINE
  8
0
 10
895.721
 11
895.019
 20
1595.92
 21
1596.28
  0
LINE
  8
0
 10
895.019
 11
894.461
 20
1596.28
 21
1596.84
  0
LINE
  8
0
 10
894.461
 11
894.103
 20
1596.84
 21
1597.54
  0
LINE
  8
0
 10
894.103
 11
893.98
 20
1597.54
 21
1598.32
  0
LINE
  8
0
 10
894.002
 11
894.002
 20
972.301
 21
972.499
  0
LINE
  8
0
 10
894.002
 11
894.018
 20
972.499
 21
972.698
  0
LINE
  8
0
 10
894.018
 11
894.049
 20
972.698
 21
972.894
  0
LINE
  8
0
 10
894.049
 11
894.096
 20
972.894
 21
973.087
  0
LINE
  8
0
 10
894.096
 11
894.158
 20
973.087
 21
973.276
  0
LINE
  8
0
 10
894.158
 11
894.235
 20
973.276
 21
973.459
  0
LINE
  8
0
 10
894.235
 11
894.327
 20
973.459
 21
973.636
  0
LINE
  8
0
 10
894.327
 11
894.432
 20
973.636
 21
973.804
  0
LINE
  8
0
 10
894.432
 11
894.55
 20
973.804
 21
973.964
  0
LINE
  8
0
 10
894.55
 11
894.68
 20
973.964
 21
974.114
  0
LINE
  8
0
 10
894.68
 11
894.822
 20
974.114
 21
974.253
  0
LINE
  8
0
 10
894.822
 11
894.975
 20
974.253
 21
974.381
  0
LINE
  8
0
 10
894.975
 11
895.137
 20
974.381
 21
974.496
  0
LINE
  8
0
 10
895.137
 11
895.308
 20
974.496
 21
974.597
  0
LINE
  8
0
 10
895.308
 11
895.486
 20
974.597
 21
974.685
  0
LINE
  8
0
 10
895.486
 11
895.671
 20
974.685
 21
974.759
  0
LINE
  8
0
 10
895.671
 11
895.861
 20
974.759
 21
974.817
  0
LINE
  8
0
 10
895.861
 11
896.055
 20
974.817
 21
974.86
  0
LINE
  8
0
 10
896.055
 11
896.252
 20
974.86
 21
974.888
  0
LINE
  8
0
 10
896.252
 11
896.45
 20
974.888
 21
974.9
  0
LINE
  8
0
 10
896.45
 11
896.649
 20
974.9
 21
974.896
  0
LINE
  8
0
 10
896.649
 11
896.847
 20
974.896
 21
974.876
  0
LINE
  8
0
 10
896.847
 11
897.042
 20
974.876
 21
974.84
  0
LINE
  8
0
 10
897.042
 11
897.235
 20
974.84
 21
974.79
  0
LINE
  8
0
 10
897.235
 11
897.422
 20
974.79
 21
974.724
  0
LINE
  8
0
 10
897.422
 11
897.604
 20
974.724
 21
974.643
  0
LINE
  8
0
 10
897.604
 11
897.779
 20
974.643
 21
974.548
  0
LINE
  8
0
 10
897.779
 11
897.945
 20
974.548
 21
974.44
  0
LINE
  8
0
 10
897.945
 11
898.103
 20
974.44
 21
974.319
  0
LINE
  8
0
 10
898.103
 11
898.25
 20
974.319
 21
974.185
  0
LINE
  8
0
 10
898.25
 11
898.386
 20
974.185
 21
974.041
  0
LINE
  8
0
 10
898.386
 11
898.511
 20
974.041
 21
973.886
  0
LINE
  8
0
 10
898.511
 11
898.622
 20
973.886
 21
973.721
  0
LINE
  8
0
 10
898.622
 11
898.721
 20
973.721
 21
973.548
  0
LINE
  8
0
 10
898.721
 11
898.805
 20
973.548
 21
973.368
  0
LINE
  8
0
 10
898.805
 11
898.875
 20
973.368
 21
973.182
  0
LINE
  8
0
 10
898.875
 11
898.929
 20
973.182
 21
972.991
  0
LINE
  8
0
 10
898.929
 11
898.968
 20
972.991
 21
972.796
  0
LINE
  8
0
 10
898.968
 11
898.992
 20
972.796
 21
972.599
  0
LINE
  8
0
 10
898.992
 11
899
 20
972.599
 21
972.4
  0
LINE
  8
0
 10
899
 11
898.992
 20
972.4
 21
972.201
  0
LINE
  8
0
 10
898.992
 11
898.968
 20
972.201
 21
972.004
  0
LINE
  8
0
 10
898.968
 11
898.929
 20
972.004
 21
971.809
  0
LINE
  8
0
 10
898.929
 11
898.875
 20
971.809
 21
971.618
  0
LINE
  8
0
 10
898.875
 11
898.805
 20
971.618
 21
971.432
  0
LINE
  8
0
 10
898.805
 11
898.721
 20
971.432
 21
971.252
  0
LINE
  8
0
 10
898.721
 11
898.622
 20
971.252
 21
971.079
  0
LINE
  8
0
 10
898.622
 11
898.511
 20
971.079
 21
970.914
  0
LINE
  8
0
 10
898.511
 11
898.386
 20
970.914
 21
970.759
  0
LINE
  8
0
 10
898.386
 11
898.25
 20
970.759
 21
970.615
  0
LINE
  8
0
 10
898.25
 11
898.103
 20
970.615
 21
970.481
  0
LINE
  8
0
 10
898.103
 11
897.945
 20
970.481
 21
970.36
  0
LINE
  8
0
 10
897.945
 11
897.779
 20
970.36
 21
970.252
  0
LINE
  8
0
 10
897.779
 11
897.604
 20
970.252
 21
970.157
  0
LINE
  8
0
 10
897.604
 11
897.422
 20
970.157
 21
970.076
  0
LINE
  8
0
 10
897.422
 11
897.235
 20
970.076
 21
970.01
  0
LINE
  8
0
 10
897.235
 11
897.042
 20
970.01
 21
969.96
  0
LINE
  8
0
 10
897.042
 11
896.847
 20
969.96
 21
969.924
  0
LINE
  8
0
 10
896.847
 11
896.649
 20
969.924
 21
969.904
  0
LINE
  8
0
 10
896.649
 11
896.45
 20
969.904
 21
969.9
  0
LINE
  8
0
 10
896.45
 11
896.252
 20
969.9
 21
969.912
  0
LINE
  8
0
 10
896.252
 11
896.055
 20
969.912
 21
969.94
  0
LINE
  8
0
 10
896.055
 11
895.861
 20
969.94
 21
969.983
  0
LINE
  8
0
 10
895.861
 11
895.671
 20
969.983
 21
970.041
  0
LINE
  8
0
 10
895.671
 11
895.486
 20
970.041
 21
970.115
  0
LINE
  8
0
 10
895.486
 11
895.308
 20
970.115
 21
970.203
  0
LINE
  8
0
 10
895.308
 11
895.137
 20
970.203
 21
970.304
  0
LINE
  8
0
 10
895.137
 11
894.975
 20
970.304
 21
970.419
  0
LINE
  8
0
 10
894.975
 11
894.822
 20
970.419
 21
970.547
  0
LINE
  8
0
 10
894.822
 11
894.68
 20
970.547
 21
970.686
  0
LINE
  8
0
 10
894.68
 11
894.55
 20
970.686
 21
970.836
  0
LINE
  8
0
 10
894.55
 11
894.432
 20
970.836
 21
970.996
  0
LINE
  8
0
 10
894.432
 11
894.327
 20
970.996
 21
971.164
  0
LINE
  8
0
 10
894.327
 11
894.235
 20
971.164
 21
971.341
  0
LINE
  8
0
 10
894.235
 11
894.158
 20
971.341
 21
971.524
  0
LINE
  8
0
 10
894.158
 11
894.096
 20
971.524
 21
971.713
  0
LINE
  8
0
 10
894.096
 11
894.049
 20
971.713
 21
971.906
  0
LINE
  8
0
 10
894.049
 11
894.018
 20
971.906
 21
972.102
  0
LINE
  8
0
 10
894.018
 11
894.002
 20
972.102
 21
972.301
  0
LINE
  8
0
 10
898.66
 11
898.66
 20
1169.4
 21
1225.4
  0
LINE
  8
0
 10
898.66
 11
898.758
 20
1225.4
 21
1226.02
  0
LINE
  8
0
 10
898.758
 11
899.042
 20
1226.02
 21
1226.58
  0
LINE
  8
0
 10
899.042
 11
899.484
 20
1226.58
 21
1227.02
  0
LINE
  8
0
 10
899.484
 11
900.042
 20
1227.02
 21
1227.3
  0
LINE
  8
0
 10
900.042
 11
900.66
 20
1227.3
 21
1227.4
  0
LINE
  8
0
 10
900.66
 11
901.278
 20
1227.4
 21
1227.3
  0
LINE
  8
0
 10
901.278
 11
901.836
 20
1227.3
 21
1227.02
  0
LINE
  8
0
 10
901.836
 11
902.278
 20
1227.02
 21
1226.58
  0
LINE
  8
0
 10
902.278
 11
902.562
 20
1226.58
 21
1226.02
  0
LINE
  8
0
 10
902.562
 11
902.66
 20
1226.02
 21
1225.4
  0
LINE
  8
0
 10
902.66
 11
902.66
 20
1225.4
 21
1169.4
  0
LINE
  8
0
 10
902.66
 11
902.562
 20
1169.4
 21
1168.78
  0
LINE
  8
0
 10
902.562
 11
902.278
 20
1168.78
 21
1168.22
  0
LINE
  8
0
 10
902.278
 11
901.836
 20
1168.22
 21
1167.78
  0
LINE
  8
0
 10
901.836
 11
901.278
 20
1167.78
 21
1167.5
  0
LINE
  8
0
 10
901.278
 11
900.66
 20
1167.5
 21
1167.4
  0
LINE
  8
0
 10
900.66
 11
900.042
 20
1167.4
 21
1167.5
  0
LINE
  8
0
 10
900.042
 11
899.484
 20
1167.5
 21
1167.78
  0
LINE
  8
0
 10
899.484
 11
899.042
 20
1167.78
 21
1168.22
  0
LINE
  8
0
 10
899.042
 11
898.758
 20
1168.22
 21
1168.78
  0
LINE
  8
0
 10
898.758
 11
898.66
 20
1168.78
 21
1169.4
  0
LINE
  8
0
 10
925
 11
925.123
 20
1789.2
 21
1789.97
  0
LINE
  8
0
 10
925.123
 11
925.478
 20
1789.97
 21
1790.67
  0
LINE
  8
0
 10
925.478
 11
926.033
 20
1790.67
 21
1791.23
  0
LINE
  8
0
 10
926.033
 11
926.731
 20
1791.23
 21
1791.58
  0
LINE
  8
0
 10
926.731
 11
927.505
 20
1791.58
 21
1791.7
  0
LINE
  8
0
 10
927.505
 11
930.495
 20
1791.7
 21
1791.7
  0
LINE
  8
0
 10
930.495
 11
931.269
 20
1791.7
 21
1791.58
  0
LINE
  8
0
 10
931.269
 11
931.967
 20
1791.58
 21
1791.23
  0
LINE
  8
0
 10
931.967
 11
932.522
 20
1791.23
 21
1790.67
  0
LINE
  8
0
 10
932.522
 11
932.877
 20
1790.67
 21
1789.97
  0
LINE
  8
0
 10
932.877
 11
933
 20
1789.97
 21
1789.2
  0
LINE
  8
0
 10
933
 11
932.877
 20
1789.2
 21
1788.43
  0
LINE
  8
0
 10
932.877
 11
932.522
 20
1788.43
 21
1787.73
  0
LINE
  8
0
 10
932.522
 11
931.967
 20
1787.73
 21
1787.17
  0
LINE
  8
0
 10
931.967
 11
931.269
 20
1787.17
 21
1786.82
  0
LINE
  8
0
 10
931.269
 11
930.495
 20
1786.82
 21
1786.69
  0
LINE
  8
0
 10
930.495
 11
927.505
 20
1786.69
 21
1786.69
  0
LINE
  8
0
 10
927.505
 11
926.731
 20
1786.69
 21
1786.82
  0
LINE
  8
0
 10
926.731
 11
926.033
 20
1786.82
 21
1787.17
  0
LINE
  8
0
 10
926.033
 11
925.478
 20
1787.17
 21
1787.73
  0
LINE
  8
0
 10
925.478
 11
925.123
 20
1787.73
 21
1788.43
  0
LINE
  8
0
 10
925.123
 11
925
 20
1788.43
 21
1789.2
  0
LINE
  8
0
 10
925
 11
925.123
 20
2124.6
 21
2125.37
  0
LINE
  8
0
 10
925.123
 11
925.478
 20
2125.37
 21
2126.07
  0
LINE
  8
0
 10
925.478
 11
926.033
 20
2126.07
 21
2126.63
  0
LINE
  8
0
 10
926.033
 11
926.731
 20
2126.63
 21
2126.98
  0
LINE
  8
0
 10
926.731
 11
927.505
 20
2126.98
 21
2127.11
  0
LINE
  8
0
 10
927.505
 11
930.495
 20
2127.11
 21
2127.11
  0
LINE
  8
0
 10
930.495
 11
931.269
 20
2127.11
 21
2126.98
  0
LINE
  8
0
 10
931.269
 11
931.967
 20
2126.98
 21
2126.63
  0
LINE
  8
0
 10
931.967
 11
932.522
 20
2126.63
 21
2126.07
  0
LINE
  8
0
 10
932.522
 11
932.877
 20
2126.07
 21
2125.37
  0
LINE
  8
0
 10
932.877
 11
933
 20
2125.37
 21
2124.6
  0
LINE
  8
0
 10
933
 11
932.877
 20
2124.6
 21
2123.83
  0
LINE
  8
0
 10
932.877
 11
932.522
 20
2123.83
 21
2123.13
  0
LINE
  8
0
 10
932.522
 11
931.967
 20
2123.13
 21
2122.57
  0
LINE
  8
0
 10
931.967
 11
931.269
 20
2122.57
 21
2122.22
  0
LINE
  8
0
 10
931.269
 11
930.495
 20
2122.22
 21
2122.1
  0
LINE
  8
0
 10
930.495
 11
927.505
 20
2122.1
 21
2122.1
  0
LINE
  8
0
 10
927.505
 11
926.731
 20
2122.1
 21
2122.22
  0
LINE
  8
0
 10
926.731
 11
926.033
 20
2122.22
 21
2122.57
  0
LINE
  8
0
 10
926.033
 11
925.478
 20
2122.57
 21
2123.13
  0
LINE
  8
0
 10
925.478
 11
925.123
 20
2123.13
 21
2123.83
  0
LINE
  8
0
 10
925.123
 11
925
 20
2123.83
 21
2124.6
  0
LINE
  8
0
 10
928.969
 11
928.969
 20
1169.4
 21
1225.4
  0
LINE
  8
0
 10
928.969
 11
929.067
 20
1225.4
 21
1226.02
  0
LINE
  8
0
 10
929.067
 11
929.351
 20
1226.02
 21
1226.58
  0
LINE
  8
0
 10
929.351
 11
929.793
 20
1226.58
 21
1227.02
  0
LINE
  8
0
 10
929.793
 11
930.351
 20
1227.02
 21
1227.3
  0
LINE
  8
0
 10
930.351
 11
930.969
 20
1227.3
 21
1227.4
  0
LINE
  8
0
 10
930.969
 11
931.587
 20
1227.4
 21
1227.3
  0
LINE
  8
0
 10
931.587
 11
932.145
 20
1227.3
 21
1227.02
  0
LINE
  8
0
 10
932.145
 11
932.587
 20
1227.02
 21
1226.58
  0
LINE
  8
0
 10
932.587
 11
932.871
 20
1226.58
 21
1226.02
  0
LINE
  8
0
 10
932.871
 11
932.969
 20
1226.02
 21
1225.4
  0
LINE
  8
0
 10
932.969
 11
932.969
 20
1225.4
 21
1169.4
  0
LINE
  8
0
 10
932.969
 11
932.871
 20
1169.4
 21
1168.78
  0
LINE
  8
0
 10
932.871
 11
932.587
 20
1168.78
 21
1168.22
  0
LINE
  8
0
 10
932.587
 11
932.145
 20
1168.22
 21
1167.78
  0
LINE
  8
0
 10
932.145
 11
931.587
 20
1167.78
 21
1167.5
  0
LINE
  8
0
 10
931.587
 11
930.969
 20
1167.5
 21
1167.4
  0
LINE
  8
0
 10
930.969
 11
930.351
 20
1167.4
 21
1167.5
  0
LINE
  8
0
 10
930.351
 11
929.793
 20
1167.5
 21
1167.78
  0
LINE
  8
0
 10
929.793
 11
929.351
 20
1167.78
 21
1168.22
  0
LINE
  8
0
 10
929.351
 11
929.067
 20
1168.22
 21
1168.78
  0
LINE
  8
0
 10
929.067
 11
928.969
 20
1168.78
 21
1169.4
  0
LINE
  8
0
 10
940
 11
940.127
 20
1391.4
 21
1392.2
  0
LINE
  8
0
 10
940.127
 11
940.498
 20
1392.2
 21
1392.93
  0
LINE
  8
0
 10
940.498
 11
941.072
 20
1392.93
 21
1393.5
  0
LINE
  8
0
 10
941.072
 11
941.797
 20
1393.5
 21
1393.87
  0
LINE
  8
0
 10
941.797
 11
942.6
 20
1393.87
 21
1394
  0
LINE
  8
0
 10
942.6
 11
949.4
 20
1394
 21
1394
  0
LINE
  8
0
 10
949.4
 11
950.203
 20
1394
 21
1393.87
  0
LINE
  8
0
 10
950.203
 11
950.928
 20
1393.87
 21
1393.5
  0
LINE
  8
0
 10
950.928
 11
951.503
 20
1393.5
 21
1392.93
  0
LINE
  8
0
 10
951.503
 11
951.873
 20
1392.93
 21
1392.2
  0
LINE
  8
0
 10
951.873
 11
951.999
 20
1392.2
 21
1391.4
  0
LINE
  8
0
 10
951.999
 11
951.873
 20
1391.4
 21
1390.6
  0
LINE
  8
0
 10
951.873
 11
951.503
 20
1390.6
 21
1389.87
  0
LINE
  8
0
 10
951.503
 11
950.929
 20
1389.87
 21
1389.3
  0
LINE
  8
0
 10
950.929
 11
950.203
 20
1389.3
 21
1388.93
  0
LINE
  8
0
 10
950.203
 11
949.4
 20
1388.93
 21
1388.8
  0
LINE
  8
0
 10
949.4
 11
942.6
 20
1388.8
 21
1388.8
  0
LINE
  8
0
 10
942.6
 11
941.797
 20
1388.8
 21
1388.93
  0
LINE
  8
0
 10
941.797
 11
941.072
 20
1388.93
 21
1389.3
  0
LINE
  8
0
 10
941.072
 11
940.497
 20
1389.3
 21
1389.87
  0
LINE
  8
0
 10
940.497
 11
940.127
 20
1389.87
 21
1390.6
  0
LINE
  8
0
 10
940.127
 11
940
 20
1390.6
 21
1391.4
  0
LINE
  8
0
 10
959.278
 11
959.278
 20
1169.4
 21
1225.4
  0
LINE
  8
0
 10
959.278
 11
959.376
 20
1225.4
 21
1226.02
  0
LINE
  8
0
 10
959.376
 11
959.66
 20
1226.02
 21
1226.58
  0
LINE
  8
0
 10
959.66
 11
960.102
 20
1226.58
 21
1227.02
  0
LINE
  8
0
 10
960.102
 11
960.66
 20
1227.02
 21
1227.3
  0
LINE
  8
0
 10
960.66
 11
961.278
 20
1227.3
 21
1227.4
  0
LINE
  8
0
 10
961.278
 11
961.896
 20
1227.4
 21
1227.3
  0
LINE
  8
0
 10
961.896
 11
962.454
 20
1227.3
 21
1227.02
  0
LINE
  8
0
 10
962.454
 11
962.896
 20
1227.02
 21
1226.58
  0
LINE
  8
0
 10
962.896
 11
963.18
 20
1226.58
 21
1226.02
  0
LINE
  8
0
 10
963.18
 11
963.278
 20
1226.02
 21
1225.4
  0
LINE
  8
0
 10
963.278
 11
963.278
 20
1225.4
 21
1169.4
  0
LINE
  8
0
 10
963.278
 11
963.18
 20
1169.4
 21
1168.78
  0
LINE
  8
0
 10
963.18
 11
962.896
 20
1168.78
 21
1168.22
  0
LINE
  8
0
 10
962.896
 11
962.454
 20
1168.22
 21
1167.78
  0
LINE
  8
0
 10
962.454
 11
961.896
 20
1167.78
 21
1167.5
  0
LINE
  8
0
 10
961.896
 11
961.278
 20
1167.5
 21
1167.4
  0
LINE
  8
0
 10
961.278
 11
960.66
 20
1167.4
 21
1167.5
  0
LINE
  8
0
 10
960.66
 11
960.102
 20
1167.5
 21
1167.78
  0
LINE
  8
0
 10
960.102
 11
959.66
 20
1167.78
 21
1168.22
  0
LINE
  8
0
 10
959.66
 11
959.376
 20
1168.22
 21
1168.78
  0
LINE
  8
0
 10
959.376
 11
959.278
 20
1168.78
 21
1169.4
  0
LINE
  8
0
 10
960.7
 11
960.731
 20
1388.8
 21
1390.57
  0
LINE
  8
0
 10
960.731
 11
960.824
 20
1390.57
 21
1392.34
  0
LINE
  8
0
 10
960.824
 11
960.978
 20
1392.34
 21
1394.11
  0
LINE
  8
0
 10
960.978
 11
961.194
 20
1394.11
 21
1395.87
  0
LINE
  8
0
 10
961.194
 11
961.472
 20
1395.87
 21
1397.62
  0
LINE
  8
0
 10
961.472
 11
961.81
 20
1397.62
 21
1399.36
  0
LINE
  8
0
 10
961.81
 11
962.209
 20
1399.36
 21
1401.09
  0
LINE
  8
0
 10
962.209
 11
962.668
 20
1401.09
 21
1402.8
  0
LINE
  8
0
 10
962.668
 11
963.186
 20
1402.8
 21
1404.5
  0
LINE
  8
0
 10
963.186
 11
963.764
 20
1404.5
 21
1406.17
  0
LINE
  8
0
 10
963.764
 11
964.399
 20
1406.17
 21
1407.83
  0
LINE
  8
0
 10
964.399
 11
965.092
 20
1407.83
 21
1409.46
  0
LINE
  8
0
 10
965.092
 11
965.841
 20
1409.46
 21
1411.07
  0
LINE
  8
0
 10
965.841
 11
966.646
 20
1411.07
 21
1412.65
  0
LINE
  8
0
 10
966.646
 11
967.506
 20
1412.65
 21
1414.2
  0
LINE
  8
0
 10
967.506
 11
968.419
 20
1414.2
 21
1415.72
  0
LINE
  8
0
 10
968.419
 11
969.385
 20
1415.72
 21
1417.21
  0
LINE
  8
0
 10
969.385
 11
970.402
 20
1417.21
 21
1418.66
  0
LINE
  8
0
 10
970.402
 11
971.469
 20
1418.66
 21
1420.08
  0
LINE
  8
0
 10
971.469
 11
972.585
 20
1420.08
 21
1421.45
  0
LINE
  8
0
 10
972.585
 11
973.748
 20
1421.45
 21
1422.79
  0
LINE
  8
0
 10
973.748
 11
974.958
 20
1422.79
 21
1424.09
  0
LINE
  8
0
 10
974.958
 11
976.211
 20
1424.09
 21
1425.34
  0
LINE
  8
0
 10
976.211
 11
977.508
 20
1425.34
 21
1426.55
  0
LINE
  8
0
 10
977.508
 11
978.846
 20
1426.55
 21
1427.71
  0
LINE
  8
0
 10
978.846
 11
980.224
 20
1427.71
 21
1428.83
  0
LINE
  8
0
 10
980.224
 11
981.641
 20
1428.83
 21
1429.9
  0
LINE
  8
0
 10
981.641
 11
983.093
 20
1429.9
 21
1430.91
  0
LINE
  8
0
 10
983.093
 11
984.58
 20
1430.91
 21
1431.88
  0
LINE
  8
0
 10
984.58
 11
986.1
 20
1431.88
 21
1432.79
  0
LINE
  8
0
 10
986.1
 11
987.651
 20
1432.79
 21
1433.65
  0
LINE
  8
0
 10
987.651
 11
989.231
 20
1433.65
 21
1434.46
  0
LINE
  8
0
 10
989.231
 11
990.838
 20
1434.46
 21
1435.21
  0
LINE
  8
0
 10
990.838
 11
992.47
 20
1435.21
 21
1435.9
  0
LINE
  8
0
 10
992.47
 11
994.125
 20
1435.9
 21
1436.54
  0
LINE
  8
0
 10
994.125
 11
995.802
 20
1436.54
 21
1437.11
  0
LINE
  8
0
 10
995.802
 11
997.498
 20
1437.11
 21
1437.63
  0
LINE
  8
0
 10
997.498
 11
999.21
 20
1437.63
 21
1438.09
  0
LINE
  8
0
 10
999.21
 11
1000.94
 20
1438.09
 21
1438.49
  0
LINE
  8
0
 10
1000.94
 11
1002.68
 20
1438.49
 21
1438.83
  0
LINE
  8
0
 10
1002.68
 11
1004.43
 20
1438.83
 21
1439.11
  0
LINE
  8
0
 10
1004.43
 11
1006.19
 20
1439.11
 21
1439.32
  0
LINE
  8
0
 10
1006.19
 11
1007.96
 20
1439.32
 21
1439.48
  0
LINE
  8
0
 10
1007.96
 11
1009.73
 20
1439.48
 21
1439.57
  0
LINE
  8
0
 10
1009.73
 11
1011.5
 20
1439.57
 21
1439.6
  0
LINE
  8
0
 10
1011.5
 11
1013.27
 20
1439.6
 21
1439.57
  0
LINE
  8
0
 10
1013.27
 11
1015.04
 20
1439.57
 21
1439.48
  0
LINE
  8
0
 10
1015.04
 11
1016.81
 20
1439.48
 21
1439.32
  0
LINE
  8
0
 10
1016.81
 11
1018.57
 20
1439.32
 21
1439.11
  0
LINE
  8
0
 10
1018.57
 11
1020.32
 20
1439.11
 21
1438.83
  0
LINE
  8
0
 10
1020.32
 11
1022.06
 20
1438.83
 21
1438.49
  0
LINE
  8
0
 10
1022.06
 11
1023.79
 20
1438.49
 21
1438.09
  0
LINE
  8
0
 10
1023.79
 11
1025.5
 20
1438.09
 21
1437.63
  0
LINE
  8
0
 10
1025.5
 11
1027.2
 20
1437.63
 21
1437.11
  0
LINE
  8
0
 10
1027.2
 11
1028.88
 20
1437.11
 21
1436.54
  0
LINE
  8
0
 10
1028.88
 11
1030.53
 20
1436.54
 21
1435.9
  0
LINE
  8
0
 10
1030.53
 11
1032.16
 20
1435.9
 21
1435.21
  0
LINE
  8
0
 10
1032.16
 11
1033.77
 20
1435.21
 21
1434.46
  0
LINE
  8
0
 10
1033.77
 11
1035.35
 20
1434.46
 21
1433.65
  0
LINE
  8
0
 10
1035.35
 11
1036.9
 20
1433.65
 21
1432.79
  0
LINE
  8
0
 10
1036.9
 11
1038.42
 20
1432.79
 21
1431.88
  0
LINE
  8
0
 10
1038.42
 11
1039.91
 20
1431.88
 21
1430.91
  0
LINE
  8
0
 10
1039.91
 11
1041.36
 20
1430.91
 21
1429.9
  0
LINE
  8
0
 10
1041.36
 11
1042.78
 20
1429.9
 21
1428.83
  0
LINE
  8
0
 10
1042.78
 11
1044.15
 20
1428.83
 21
1427.71
  0
LINE
  8
0
 10
1044.15
 11
1045.49
 20
1427.71
 21
1426.55
  0
LINE
  8
0
 10
1045.49
 11
1046.79
 20
1426.55
 21
1425.34
  0
LINE
  8
0
 10
1046.79
 11
1048.04
 20
1425.34
 21
1424.09
  0
LINE
  8
0
 10
1048.04
 11
1049.25
 20
1424.09
 21
1422.79
  0
LINE
  8
0
 10
1049.25
 11
1050.41
 20
1422.79
 21
1421.45
  0
LINE
  8
0
 10
1050.41
 11
1051.53
 20
1421.45
 21
1420.08
  0
LINE
  8
0
 10
1051.53
 11
1052.6
 20
1420.08
 21
1418.66
  0
LINE
  8
0
 10
1052.6
 11
1053.62
 20
1418.66
 21
1417.21
  0
LINE
  8
0
 10
1053.62
 11
1054.58
 20
1417.21
 21
1415.72
  0
LINE
  8
0
 10
1054.58
 11
1055.49
 20
1415.72
 21
1414.2
  0
LINE
  8
0
 10
1055.49
 11
1056.35
 20
1414.2
 21
1412.65
  0
LINE
  8
0
 10
1056.35
 11
1057.16
 20
1412.65
 21
1411.07
  0
LINE
  8
0
 10
1057.16
 11
1057.91
 20
1411.07
 21
1409.46
  0
LINE
  8
0
 10
1057.91
 11
1058.6
 20
1409.46
 21
1407.83
  0
LINE
  8
0
 10
1058.6
 11
1059.24
 20
1407.83
 21
1406.17
  0
LINE
  8
0
 10
1059.24
 11
1059.81
 20
1406.17
 21
1404.5
  0
LINE
  8
0
 10
1059.81
 11
1060.33
 20
1404.5
 21
1402.8
  0
LINE
  8
0
 10
1060.33
 11
1060.79
 20
1402.8
 21
1401.09
  0
LINE
  8
0
 10
1060.79
 11
1061.19
 20
1401.09
 21
1399.36
  0
LINE
  8
0
 10
1061.19
 11
1061.53
 20
1399.36
 21
1397.62
  0
LINE
  8
0
 10
1061.53
 11
1061.81
 20
1397.62
 21
1395.87
  0
LINE
  8
0
 10
1061.81
 11
1062.02
 20
1395.87
 21
1394.11
  0
LINE
  8
0
 10
1062.02
 11
1062.18
 20
1394.11
 21
1392.34
  0
LINE
  8
0
 10
1062.18
 11
1062.27
 20
1392.34
 21
1390.57
  0
LINE
  8
0
 10
1062.27
 11
1062.3
 20
1390.57
 21
1388.8
  0
LINE
  8
0
 10
1062.3
 11
1062.27
 20
1388.8
 21
1387.03
  0
LINE
  8
0
 10
1062.27
 11
1062.18
 20
1387.03
 21
1385.26
  0
LINE
  8
0
 10
1062.18
 11
1062.02
 20
1385.26
 21
1383.49
  0
LINE
  8
0
 10
1062.02
 11
1061.81
 20
1383.49
 21
1381.73
  0
LINE
  8
0
 10
1061.81
 11
1061.53
 20
1381.73
 21
1379.98
  0
LINE
  8
0
 10
1061.53
 11
1061.19
 20
1379.98
 21
1378.24
  0
LINE
  8
0
 10
1061.19
 11
1060.79
 20
1378.24
 21
1376.51
  0
LINE
  8
0
 10
1060.79
 11
1060.33
 20
1376.51
 21
1374.8
  0
LINE
  8
0
 10
1060.33
 11
1059.81
 20
1374.8
 21
1373.1
  0
LINE
  8
0
 10
1059.81
 11
1059.24
 20
1373.1
 21
1371.42
  0
LINE
  8
0
 10
1059.24
 11
1058.6
 20
1371.42
 21
1369.77
  0
LINE
  8
0
 10
1058.6
 11
1057.91
 20
1369.77
 21
1368.14
  0
LINE
  8
0
 10
1057.91
 11
1057.16
 20
1368.14
 21
1366.53
  0
LINE
  8
0
 10
1057.16
 11
1056.35
 20
1366.53
 21
1364.95
  0
LINE
  8
0
 10
1056.35
 11
1055.49
 20
1364.95
 21
1363.4
  0
LINE
  8
0
 10
1055.49
 11
1054.58
 20
1363.4
 21
1361.88
  0
LINE
  8
0
 10
1054.58
 11
1053.62
 20
1361.88
 21
1360.39
  0
LINE
  8
0
 10
1053.62
 11
1052.6
 20
1360.39
 21
1358.94
  0
LINE
  8
0
 10
1052.6
 11
1051.53
 20
1358.94
 21
1357.52
  0
LINE
  8
0
 10
1051.53
 11
1050.41
 20
1357.52
 21
1356.15
  0
LINE
  8
0
 10
1050.41
 11
1049.25
 20
1356.15
 21
1354.81
  0
LINE
  8
0
 10
1049.25
 11
1048.04
 20
1354.81
 21
1353.51
  0
LINE
  8
0
 10
1048.04
 11
1046.79
 20
1353.51
 21
1352.26
  0
LINE
  8
0
 10
1046.79
 11
1045.49
 20
1352.26
 21
1351.05
  0
LINE
  8
0
 10
1045.49
 11
1044.15
 20
1351.05
 21
1349.88
  0
LINE
  8
0
 10
1044.15
 11
1042.78
 20
1349.88
 21
1348.77
  0
LINE
  8
0
 10
1042.78
 11
1041.36
 20
1348.77
 21
1347.7
  0
LINE
  8
0
 10
1041.36
 11
1039.91
 20
1347.7
 21
1346.68
  0
LINE
  8
0
 10
1039.91
 11
1038.42
 20
1346.68
 21
1345.72
  0
LINE
  8
0
 10
1038.42
 11
1036.9
 20
1345.72
 21
1344.81
  0
LINE
  8
0
 10
1036.9
 11
1035.35
 20
1344.81
 21
1343.95
  0
LINE
  8
0
 10
1035.35
 11
1033.77
 20
1343.95
 21
1343.14
  0
LINE
  8
0
 10
1033.77
 11
1032.16
 20
1343.14
 21
1342.39
  0
LINE
  8
0
 10
1032.16
 11
1030.53
 20
1342.39
 21
1341.7
  0
LINE
  8
0
 10
1030.53
 11
1028.88
 20
1341.7
 21
1341.06
  0
LINE
  8
0
 10
1028.88
 11
1027.2
 20
1341.06
 21
1340.49
  0
LINE
  8
0
 10
1027.2
 11
1025.5
 20
1340.49
 21
1339.97
  0
LINE
  8
0
 10
1025.5
 11
1023.79
 20
1339.97
 21
1339.51
  0
LINE
  8
0
 10
1023.79
 11
1022.06
 20
1339.51
 21
1339.11
  0
LINE
  8
0
 10
1022.06
 11
1020.32
 20
1339.11
 21
1338.77
  0
LINE
  8
0
 10
1020.32
 11
1018.57
 20
1338.77
 21
1338.49
  0
LINE
  8
0
 10
1018.57
 11
1016.81
 20
1338.49
 21
1338.28
  0
LINE
  8
0
 10
1016.81
 11
1015.04
 20
1338.28
 21
1338.12
  0
LINE
  8
0
 10
1015.04
 11
1013.27
 20
1338.12
 21
1338.03
  0
LINE
  8
0
 10
1013.27
 11
1011.5
 20
1338.03
 21
1338
  0
LINE
  8
0
 10
1011.5
 11
1009.73
 20
1338
 21
1338.03
  0
LINE
  8
0
 10
1009.73
 11
1007.96
 20
1338.03
 21
1338.12
  0
LINE
  8
0
 10
1007.96
 11
1006.19
 20
1338.12
 21
1338.28
  0
LINE
  8
0
 10
1006.19
 11
1004.43
 20
1338.28
 21
1338.49
  0
LINE
  8
0
 10
1004.43
 11
1002.68
 20
1338.49
 21
1338.77
  0
LINE
  8
0
 10
1002.68
 11
1000.94
 20
1338.77
 21
1339.11
  0
LINE
  8
0
 10
1000.94
 11
999.21
 20
1339.11
 21
1339.51
  0
LINE
  8
0
 10
999.21
 11
997.498
 20
1339.51
 21
1339.97
  0
LINE
  8
0
 10
997.498
 11
995.802
 20
1339.97
 21
1340.49
  0
LINE
  8
0
 10
995.802
 11
994.125
 20
1340.49
 21
1341.06
  0
LINE
  8
0
 10
994.125
 11
992.47
 20
1341.06
 21
1341.7
  0
LINE
  8
0
 10
992.47
 11
990.838
 20
1341.7
 21
1342.39
  0
LINE
  8
0
 10
990.838
 11
989.231
 20
1342.39
 21
1343.14
  0
LINE
  8
0
 10
989.231
 11
987.651
 20
1343.14
 21
1343.95
  0
LINE
  8
0
 10
987.651
 11
986.1
 20
1343.95
 21
1344.81
  0
LINE
  8
0
 10
986.1
 11
984.58
 20
1344.81
 21
1345.72
  0
LINE
  8
0
 10
984.58
 11
983.093
 20
1345.72
 21
1346.68
  0
LINE
  8
0
 10
983.093
 11
981.641
 20
1346.68
 21
1347.7
  0
LINE
  8
0
 10
981.641
 11
980.224
 20
1347.7
 21
1348.77
  0
LINE
  8
0
 10
980.224
 11
978.846
 20
1348.77
 21
1349.88
  0
LINE
  8
0
 10
978.846
 11
977.508
 20
1349.88
 21
1351.05
  0
LINE
  8
0
 10
977.508
 11
976.211
 20
1351.05
 21
1352.26
  0
LINE
  8
0
 10
976.211
 11
974.958
 20
1352.26
 21
1353.51
  0
LINE
  8
0
 10
974.958
 11
973.748
 20
1353.51
 21
1354.81
  0
LINE
  8
0
 10
973.748
 11
972.585
 20
1354.81
 21
1356.15
  0
LINE
  8
0
 10
972.585
 11
971.469
 20
1356.15
 21
1357.52
  0
LINE
  8
0
 10
971.469
 11
970.402
 20
1357.52
 21
1358.94
  0
LINE
  8
0
 10
970.402
 11
969.385
 20
1358.94
 21
1360.39
  0
LINE
  8
0
 10
969.385
 11
968.419
 20
1360.39
 21
1361.88
  0
LINE
  8
0
 10
968.419
 11
967.506
 20
1361.88
 21
1363.4
  0
LINE
  8
0
 10
967.506
 11
966.646
 20
1363.4
 21
1364.95
  0
LINE
  8
0
 10
966.646
 11
965.841
 20
1364.95
 21
1366.53
  0
LINE
  8
0
 10
965.841
 11
965.092
 20
1366.53
 21
1368.14
  0
LINE
  8
0
 10
965.092
 11
964.399
 20
1368.14
 21
1369.77
  0
LINE
  8
0
 10
964.399
 11
963.764
 20
1369.77
 21
1371.42
  0
LINE
  8
0
 10
963.764
 11
963.186
 20
1371.42
 21
1373.1
  0
LINE
  8
0
 10
963.186
 11
962.668
 20
1373.1
 21
1374.8
  0
LINE
  8
0
 10
962.668
 11
962.209
 20
1374.8
 21
1376.51
  0
LINE
  8
0
 10
962.209
 11
961.81
 20
1376.51
 21
1378.24
  0
LINE
  8
0
 10
961.81
 11
961.472
 20
1378.24
 21
1379.98
  0
LINE
  8
0
 10
961.472
 11
961.194
 20
1379.98
 21
1381.73
  0
LINE
  8
0
 10
961.194
 11
960.978
 20
1381.73
 21
1383.49
  0
LINE
  8
0
 10
960.978
 11
960.824
 20
1383.49
 21
1385.26
  0
LINE
  8
0
 10
960.824
 11
960.731
 20
1385.26
 21
1387.03
  0
LINE
  8
0
 10
960.731
 11
960.7
 20
1387.03
 21
1388.8
  0
LINE
  8
0
 10
972.213
 11
972.255
 20
1330.16
 21
1330.97
  0
LINE
  8
0
 10
972.255
 11
972.547
 20
1330.97
 21
1331.73
  0
LINE
  8
0
 10
972.547
 11
975.947
 20
1331.73
 21
1337.62
  0
LINE
  8
0
 10
975.947
 11
976.458
 20
1337.62
 21
1338.25
  0
LINE
  8
0
 10
976.458
 11
977.141
 20
1338.25
 21
1338.69
  0
LINE
  8
0
 10
977.141
 11
977.927
 20
1338.69
 21
1338.9
  0
LINE
  8
0
 10
977.927
 11
978.739
 20
1338.9
 21
1338.86
  0
LINE
  8
0
 10
978.739
 11
979.498
 20
1338.86
 21
1338.57
  0
LINE
  8
0
 10
979.498
 11
980.13
 20
1338.57
 21
1338.06
  0
LINE
  8
0
 10
980.13
 11
980.573
 20
1338.06
 21
1337.38
  0
LINE
  8
0
 10
980.573
 11
980.784
 20
1337.38
 21
1336.59
  0
LINE
  8
0
 10
980.784
 11
980.742
 20
1336.59
 21
1335.78
  0
LINE
  8
0
 10
980.742
 11
980.45
 20
1335.78
 21
1335.02
  0
LINE
  8
0
 10
980.45
 11
977.05
 20
1335.02
 21
1329.13
  0
LINE
  8
0
 10
977.05
 11
976.539
 20
1329.13
 21
1328.5
  0
LINE
  8
0
 10
976.539
 11
975.856
 20
1328.5
 21
1328.06
  0
LINE
  8
0
 10
975.856
 11
975.07
 20
1328.06
 21
1327.85
  0
LINE
  8
0
 10
975.07
 11
974.257
 20
1327.85
 21
1327.89
  0
LINE
  8
0
 10
974.257
 11
973.498
 20
1327.89
 21
1328.18
  0
LINE
  8
0
 10
973.498
 11
972.866
 20
1328.18
 21
1328.69
  0
LINE
  8
0
 10
972.866
 11
972.424
 20
1328.69
 21
1329.37
  0
LINE
  8
0
 10
972.424
 11
972.213
 20
1329.37
 21
1330.16
  0
LINE
  8
0
 10
976.716
 11
976.927
 20
1450.04
 21
1450.83
  0
LINE
  8
0
 10
976.927
 11
977.37
 20
1450.83
 21
1451.51
  0
LINE
  8
0
 10
977.37
 11
978.002
 20
1451.51
 21
1452.02
  0
LINE
  8
0
 10
978.002
 11
978.761
 20
1452.02
 21
1452.31
  0
LINE
  8
0
 10
978.761
 11
979.573
 20
1452.31
 21
1452.35
  0
LINE
  8
0
 10
979.573
 11
980.359
 20
1452.35
 21
1452.14
  0
LINE
  8
0
 10
980.359
 11
981.042
 20
1452.14
 21
1451.7
  0
LINE
  8
0
 10
981.042
 11
981.553
 20
1451.7
 21
1451.07
  0
LINE
  8
0
 10
981.553
 11
984.953
 20
1451.07
 21
1445.18
  0
LINE
  8
0
 10
984.953
 11
985.245
 20
1445.18
 21
1444.42
  0
LINE
  8
0
 10
985.245
 11
985.287
 20
1444.42
 21
1443.61
  0
LINE
  8
0
 10
985.287
 11
985.076
 20
1443.61
 21
1442.82
  0
LINE
  8
0
 10
985.076
 11
984.634
 20
1442.82
 21
1442.14
  0
LINE
  8
0
 10
984.634
 11
984.002
 20
1442.14
 21
1441.63
  0
LINE
  8
0
 10
984.002
 11
983.243
 20
1441.63
 21
1441.34
  0
LINE
  8
0
 10
983.243
 11
982.43
 20
1441.34
 21
1441.3
  0
LINE
  8
0
 10
982.43
 11
981.644
 20
1441.3
 21
1441.51
  0
LINE
  8
0
 10
981.644
 11
980.961
 20
1441.51
 21
1441.95
  0
LINE
  8
0
 10
980.961
 11
980.45
 20
1441.95
 21
1442.58
  0
LINE
  8
0
 10
980.45
 11
977.05
 20
1442.58
 21
1448.47
  0
LINE
  8
0
 10
977.05
 11
976.758
 20
1448.47
 21
1449.23
  0
LINE
  8
0
 10
976.758
 11
976.716
 20
1449.23
 21
1450.04
  0
LINE
  8
0
 10
989.588
 11
989.588
 20
1169.4
 21
1225.4
  0
LINE
  8
0
 10
989.588
 11
989.686
 20
1225.4
 21
1226.02
  0
LINE
  8
0
 10
989.686
 11
989.97
 20
1226.02
 21
1226.58
  0
LINE
  8
0
 10
989.97
 11
990.412
 20
1226.58
 21
1227.02
  0
LINE
  8
0
 10
990.412
 11
990.97
 20
1227.02
 21
1227.3
  0
LINE
  8
0
 10
990.97
 11
991.588
 20
1227.3
 21
1227.4
  0
LINE
  8
0
 10
991.588
 11
992.206
 20
1227.4
 21
1227.3
  0
LINE
  8
0
 10
992.206
 11
992.764
 20
1227.3
 21
1227.02
  0
LINE
  8
0
 10
992.764
 11
993.206
 20
1227.02
 21
1226.58
  0
LINE
  8
0
 10
993.206
 11
993.49
 20
1226.58
 21
1226.02
  0
LINE
  8
0
 10
993.49
 11
993.588
 20
1226.02
 21
1225.4
  0
LINE
  8
0
 10
993.588
 11
993.588
 20
1225.4
 21
1169.4
  0
LINE
  8
0
 10
993.588
 11
993.49
 20
1169.4
 21
1168.78
  0
LINE
  8
0
 10
993.49
 11
993.206
 20
1168.78
 21
1168.22
  0
LINE
  8
0
 10
993.206
 11
992.764
 20
1168.22
 21
1167.78
  0
LINE
  8
0
 10
992.764
 11
992.206
 20
1167.78
 21
1167.5
  0
LINE
  8
0
 10
992.206
 11
991.588
 20
1167.5
 21
1167.4
  0
LINE
  8
0
 10
991.588
 11
990.97
 20
1167.4
 21
1167.5
  0
LINE
  8
0
 10
990.97
 11
990.412
 20
1167.5
 21
1167.78
  0
LINE
  8
0
 10
990.412
 11
989.97
 20
1167.78
 21
1168.22
  0
LINE
  8
0
 10
989.97
 11
989.686
 20
1168.22
 21
1168.78
  0
LINE
  8
0
 10
989.686
 11
989.588
 20
1168.78
 21
1169.4
  0
LINE
  8
0
 10
1019.9
 11
1019.9
 20
1169.4
 21
1225.4
  0
LINE
  8
0
 10
1019.9
 11
1020
 20
1225.4
 21
1226.02
  0
LINE
  8
0
 10
1020
 11
1020.28
 20
1226.02
 21
1226.58
  0
LINE
  8
0
 10
1020.28
 11
1020.72
 20
1226.58
 21
1227.02
  0
LINE
  8
0
 10
1020.72
 11
1021.28
 20
1227.02
 21
1227.3
  0
LINE
  8
0
 10
1021.28
 11
1021.9
 20
1227.3
 21
1227.4
  0
LINE
  8
0
 10
1021.9
 11
1022.51
 20
1227.4
 21
1227.3
  0
LINE
  8
0
 10
1022.51
 11
1023.07
 20
1227.3
 21
1227.02
  0
LINE
  8
0
 10
1023.07
 11
1023.51
 20
1227.02
 21
1226.58
  0
LINE
  8
0
 10
1023.51
 11
1023.8
 20
1226.58
 21
1226.02
  0
LINE
  8
0
 10
1023.8
 11
1023.9
 20
1226.02
 21
1225.4
  0
LINE
  8
0
 10
1023.9
 11
1023.9
 20
1225.4
 21
1169.4
  0
LINE
  8
0
 10
1023.9
 11
1023.8
 20
1169.4
 21
1168.78
  0
LINE
  8
0
 10
1023.8
 11
1023.51
 20
1168.78
 21
1168.22
  0
LINE
  8
0
 10
1023.51
 11
1023.07
 20
1168.22
 21
1167.78
  0
LINE
  8
0
 10
1023.07
 11
1022.51
 20
1167.78
 21
1167.5
  0
LINE
  8
0
 10
1022.51
 11
1021.9
 20
1167.5
 21
1167.4
  0
LINE
  8
0
 10
1021.9
 11
1021.28
 20
1167.4
 21
1167.5
  0
LINE
  8
0
 10
1021.28
 11
1020.72
 20
1167.5
 21
1167.78
  0
LINE
  8
0
 10
1020.72
 11
1020.28
 20
1167.78
 21
1168.22
  0
LINE
  8
0
 10
1020.28
 11
1020
 20
1168.22
 21
1168.78
  0
LINE
  8
0
 10
1020
 11
1019.9
 20
1168.78
 21
1169.4
  0
LINE
  8
0
 10
1037.71
 11
1037.92
 20
1333.99
 21
1334.78
  0
LINE
  8
0
 10
1037.92
 11
1038.37
 20
1334.78
 21
1335.46
  0
LINE
  8
0
 10
1038.37
 11
1039
 20
1335.46
 21
1335.97
  0
LINE
  8
0
 10
1039
 11
1039.76
 20
1335.97
 21
1336.26
  0
LINE
  8
0
 10
1039.76
 11
1040.57
 20
1336.26
 21
1336.31
  0
LINE
  8
0
 10
1040.57
 11
1041.36
 20
1336.31
 21
1336.1
  0
LINE
  8
0
 10
1041.36
 11
1042.04
 20
1336.1
 21
1335.65
  0
LINE
  8
0
 10
1042.04
 11
1042.55
 20
1335.65
 21
1335.02
  0
LINE
  8
0
 10
1042.55
 11
1045.95
 20
1335.02
 21
1329.13
  0
LINE
  8
0
 10
1045.95
 11
1046.24
 20
1329.13
 21
1328.37
  0
LINE
  8
0
 10
1046.24
 11
1046.28
 20
1328.37
 21
1327.56
  0
LINE
  8
0
 10
1046.28
 11
1046.07
 20
1327.56
 21
1326.77
  0
LINE
  8
0
 10
1046.07
 11
1045.63
 20
1326.77
 21
1326.09
  0
LINE
  8
0
 10
1045.63
 11
1045
 20
1326.09
 21
1325.58
  0
LINE
  8
0
 10
1045
 11
1044.24
 20
1325.58
 21
1325.29
  0
LINE
  8
0
 10
1044.24
 11
1043.43
 20
1325.29
 21
1325.25
  0
LINE
  8
0
 10
1043.43
 11
1042.64
 20
1325.25
 21
1325.46
  0
LINE
  8
0
 10
1042.64
 11
1041.96
 20
1325.46
 21
1325.9
  0
LINE
  8
0
 10
1041.96
 11
1041.45
 20
1325.9
 21
1326.53
  0
LINE
  8
0
 10
1041.45
 11
1038.05
 20
1326.53
 21
1332.42
  0
LINE
  8
0
 10
1038.05
 11
1037.76
 20
1332.42
 21
1333.18
  0
LINE
  8
0
 10
1037.76
 11
1037.71
 20
1333.18
 21
1333.99
  0
LINE
  8
0
 10
1042.22
 11
1042.26
 20
1441.01
 21
1441.82
  0
LINE
  8
0
 10
1042.26
 11
1042.55
 20
1441.82
 21
1442.58
  0
LINE
  8
0
 10
1042.55
 11
1045.95
 20
1442.58
 21
1448.47
  0
LINE
  8
0
 10
1045.95
 11
1046.46
 20
1448.47
 21
1449.1
  0
LINE
  8
0
 10
1046.46
 11
1047.14
 20
1449.1
 21
1449.54
  0
LINE
  8
0
 10
1047.14
 11
1047.93
 20
1449.54
 21
1449.75
  0
LINE
  8
0
 10
1047.93
 11
1048.74
 20
1449.75
 21
1449.71
  0
LINE
  8
0
 10
1048.74
 11
1049.5
 20
1449.71
 21
1449.42
  0
LINE
  8
0
 10
1049.5
 11
1050.13
 20
1449.42
 21
1448.91
  0
LINE
  8
0
 10
1050.13
 11
1050.58
 20
1448.91
 21
1448.23
  0
LINE
  8
0
 10
1050.58
 11
1050.79
 20
1448.23
 21
1447.44
  0
LINE
  8
0
 10
1050.79
 11
1050.75
 20
1447.44
 21
1446.63
  0
LINE
  8
0
 10
1050.75
 11
1050.45
 20
1446.63
 21
1445.87
  0
LINE
  8
0
 10
1050.45
 11
1047.05
 20
1445.87
 21
1439.98
  0
LINE
  8
0
 10
1047.05
 11
1046.54
 20
1439.98
 21
1439.35
  0
LINE
  8
0
 10
1046.54
 11
1045.86
 20
1439.35
 21
1438.9
  0
LINE
  8
0
 10
1045.86
 11
1045.07
 20
1438.9
 21
1438.69
  0
LINE
  8
0
 10
1045.07
 11
1044.26
 20
1438.69
 21
1438.74
  0
LINE
  8
0
 10
1044.26
 11
1043.5
 20
1438.74
 21
1439.03
  0
LINE
  8
0
 10
1043.5
 11
1042.87
 20
1439.03
 21
1439.54
  0
LINE
  8
0
 10
1042.87
 11
1042.43
 20
1439.54
 21
1440.22
  0
LINE
  8
0
 10
1042.43
 11
1042.22
 20
1440.22
 21
1441.01
  0
LINE
  8
0
 10
1050.21
 11
1050.21
 20
1169.4
 21
1225.4
  0
LINE
  8
0
 10
1050.21
 11
1050.3
 20
1225.4
 21
1226.02
  0
LINE
  8
0
 10
1050.3
 11
1050.59
 20
1226.02
 21
1226.58
  0
LINE
  8
0
 10
1050.59
 11
1051.03
 20
1226.58
 21
1227.02
  0
LINE
  8
0
 10
1051.03
 11
1051.59
 20
1227.02
 21
1227.3
  0
LINE
  8
0
 10
1051.59
 11
1052.21
 20
1227.3
 21
1227.4
  0
LINE
  8
0
 10
1052.21
 11
1052.82
 20
1227.4
 21
1227.3
  0
LINE
  8
0
 10
1052.82
 11
1053.38
 20
1227.3
 21
1227.02
  0
LINE
  8
0
 10
1053.38
 11
1053.82
 20
1227.02
 21
1226.58
  0
LINE
  8
0
 10
1053.82
 11
1054.11
 20
1226.58
 21
1226.02
  0
LINE
  8
0
 10
1054.11
 11
1054.21
 20
1226.02
 21
1225.4
  0
LINE
  8
0
 10
1054.21
 11
1054.21
 20
1225.4
 21
1169.4
  0
LINE
  8
0
 10
1054.21
 11
1054.11
 20
1169.4
 21
1168.78
  0
LINE
  8
0
 10
1054.11
 11
1053.82
 20
1168.78
 21
1168.22
  0
LINE
  8
0
 10
1053.82
 11
1053.38
 20
1168.22
 21
1167.78
  0
LINE
  8
0
 10
1053.38
 11
1052.82
 20
1167.78
 21
1167.5
  0
LINE
  8
0
 10
1052.82
 11
1052.21
 20
1167.5
 21
1167.4
  0
LINE
  8
0
 10
1052.21
 11
1051.59
 20
1167.4
 21
1167.5
  0
LINE
  8
0
 10
1051.59
 11
1051.03
 20
1167.5
 21
1167.78
  0
LINE
  8
0
 10
1051.03
 11
1050.59
 20
1167.78
 21
1168.22
  0
LINE
  8
0
 10
1050.59
 11
1050.3
 20
1168.22
 21
1168.78
  0
LINE
  8
0
 10
1050.3
 11
1050.21
 20
1168.78
 21
1169.4
  0
LINE
  8
0
 10
1071
 11
1071.13
 20
1386.2
 21
1387
  0
LINE
  8
0
 10
1071.13
 11
1071.5
 20
1387
 21
1387.73
  0
LINE
  8
0
 10
1071.5
 11
1072.07
 20
1387.73
 21
1388.3
  0
LINE
  8
0
 10
1072.07
 11
1072.8
 20
1388.3
 21
1388.67
  0
LINE
  8
0
 10
1072.8
 11
1073.6
 20
1388.67
 21
1388.8
  0
LINE
  8
0
 10
1073.6
 11
1080.4
 20
1388.8
 21
1388.8
  0
LINE
  8
0
 10
1080.4
 11
1081.2
 20
1388.8
 21
1388.67
  0
LINE
  8
0
 10
1081.2
 11
1081.93
 20
1388.67
 21
1388.3
  0
LINE
  8
0
 10
1081.93
 11
1082.5
 20
1388.3
 21
1387.73
  0
LINE
  8
0
 10
1082.5
 11
1082.87
 20
1387.73
 21
1387
  0
LINE
  8
0
 10
1082.87
 11
1083
 20
1387
 21
1386.2
  0
LINE
  8
0
 10
1083
 11
1082.87
 20
1386.2
 21
1385.4
  0
LINE
  8
0
 10
1082.87
 11
1082.5
 20
1385.4
 21
1384.67
  0
LINE
  8
0
 10
1082.5
 11
1081.93
 20
1384.67
 21
1384.1
  0
LINE
  8
0
 10
1081.93
 11
1081.2
 20
1384.1
 21
1383.73
  0
LINE
  8
0
 10
1081.2
 11
1080.4
 20
1383.73
 21
1383.6
  0
LINE
  8
0
 10
1080.4
 11
1073.6
 20
1383.6
 21
1383.6
  0
LINE
  8
0
 10
1073.6
 11
1072.8
 20
1383.6
 21
1383.73
  0
LINE
  8
0
 10
1072.8
 11
1072.07
 20
1383.73
 21
1384.1
  0
LINE
  8
0
 10
1072.07
 11
1071.5
 20
1384.1
 21
1384.67
  0
LINE
  8
0
 10
1071.5
 11
1071.13
 20
1384.67
 21
1385.4
  0
LINE
  8
0
 10
1071.13
 11
1071
 20
1385.4
 21
1386.2
  0
LINE
  8
0
 10
1080.52
 11
1080.52
 20
1169.4
 21
1225.4
  0
LINE
  8
0
 10
1080.52
 11
1080.61
 20
1225.4
 21
1226.02
  0
LINE
  8
0
 10
1080.61
 11
1080.9
 20
1226.02
 21
1226.58
  0
LINE
  8
0
 10
1080.9
 11
1081.34
 20
1226.58
 21
1227.02
  0
LINE
  8
0
 10
1081.34
 11
1081.9
 20
1227.02
 21
1227.3
  0
LINE
  8
0
 10
1081.9
 11
1082.52
 20
1227.3
 21
1227.4
  0
LINE
  8
0
 10
1082.52
 11
1083.13
 20
1227.4
 21
1227.3
  0
LINE
  8
0
 10
1083.13
 11
1083.69
 20
1227.3
 21
1227.02
  0
LINE
  8
0
 10
1083.69
 11
1084.13
 20
1227.02
 21
1226.58
  0
LINE
  8
0
 10
1084.13
 11
1084.42
 20
1226.58
 21
1226.02
  0
LINE
  8
0
 10
1084.42
 11
1084.52
 20
1226.02
 21
1225.4
  0
LINE
  8
0
 10
1084.52
 11
1084.52
 20
1225.4
 21
1169.4
  0
LINE
  8
0
 10
1084.52
 11
1084.42
 20
1169.4
 21
1168.78
  0
LINE
  8
0
 10
1084.42
 11
1084.13
 20
1168.78
 21
1168.22
  0
LINE
  8
0
 10
1084.13
 11
1083.69
 20
1168.22
 21
1167.78
  0
LINE
  8
0
 10
1083.69
 11
1083.13
 20
1167.78
 21
1167.5
  0
LINE
  8
0
 10
1083.13
 11
1082.52
 20
1167.5
 21
1167.4
  0
LINE
  8
0
 10
1082.52
 11
1081.9
 20
1167.4
 21
1167.5
  0
LINE
  8
0
 10
1081.9
 11
1081.34
 20
1167.5
 21
1167.78
  0
LINE
  8
0
 10
1081.34
 11
1080.9
 20
1167.78
 21
1168.22
  0
LINE
  8
0
 10
1080.9
 11
1080.61
 20
1168.22
 21
1168.78
  0
LINE
  8
0
 10
1080.61
 11
1080.52
 20
1168.78
 21
1169.4
  0
LINE
  8
0
 10
1110.83
 11
1110.83
 20
1169.4
 21
1225.4
  0
LINE
  8
0
 10
1110.83
 11
1110.92
 20
1225.4
 21
1226.02
  0
LINE
  8
0
 10
1110.92
 11
1111.21
 20
1226.02
 21
1226.58
  0
LINE
  8
0
 10
1111.21
 11
1111.65
 20
1226.58
 21
1227.02
  0
LINE
  8
0
 10
1111.65
 11
1112.21
 20
1227.02
 21
1227.3
  0
LINE
  8
0
 10
1112.21
 11
1112.83
 20
1227.3
 21
1227.4
  0
LINE
  8
0
 10
1112.83
 11
1113.44
 20
1227.4
 21
1227.3
  0
LINE
  8
0
 10
1113.44
 11
1114
 20
1227.3
 21
1227.02
  0
LINE
  8
0
 10
1114
 11
1114.44
 20
1227.02
 21
1226.58
  0
LINE
  8
0
 10
1114.44
 11
1114.73
 20
1226.58
 21
1226.02
  0
LINE
  8
0
 10
1114.73
 11
1114.83
 20
1226.02
 21
1225.4
  0
LINE
  8
0
 10
1114.83
 11
1114.83
 20
1225.4
 21
1169.4
  0
LINE
  8
0
 10
1114.83
 11
1114.73
 20
1169.4
 21
1168.78
  0
LINE
  8
0
 10
1114.73
 11
1114.44
 20
1168.78
 21
1168.22
  0
LINE
  8
0
 10
1114.44
 11
1114
 20
1168.22
 21
1167.78
  0
LINE
  8
0
 10
1114
 11
1113.44
 20
1167.78
 21
1167.5
  0
LINE
  8
0
 10
1113.44
 11
1112.83
 20
1167.5
 21
1167.4
  0
LINE
  8
0
 10
1112.83
 11
1112.21
 20
1167.4
 21
1167.5
  0
LINE
  8
0
 10
1112.21
 11
1111.65
 20
1167.5
 21
1167.78
  0
LINE
  8
0
 10
1111.65
 11
1111.21
 20
1167.78
 21
1168.22
  0
LINE
  8
0
 10
1111.21
 11
1110.92
 20
1168.22
 21
1168.78
  0
LINE
  8
0
 10
1110.92
 11
1110.83
 20
1168.78
 21
1169.4
  0
LINE
  8
0
 10
1125.29
 11
1125.29
 20
1244.3
 21
1244.5
  0
LINE
  8
0
 10
1125.29
 11
1125.31
 20
1244.5
 21
1244.7
  0
LINE
  8
0
 10
1125.31
 11
1125.34
 20
1244.7
 21
1244.89
  0
LINE
  8
0
 10
1125.34
 11
1125.38
 20
1244.89
 21
1245.09
  0
LINE
  8
0
 10
1125.38
 11
1125.44
 20
1245.09
 21
1245.28
  0
LINE
  8
0
 10
1125.44
 11
1125.52
 20
1245.28
 21
1245.46
  0
LINE
  8
0
 10
1125.52
 11
1125.61
 20
1245.46
 21
1245.64
  0
LINE
  8
0
 10
1125.61
 11
1125.72
 20
1245.64
 21
1245.8
  0
LINE
  8
0
 10
1125.72
 11
1125.84
 20
1245.8
 21
1245.96
  0
LINE
  8
0
 10
1125.84
 11
1125.97
 20
1245.96
 21
1246.11
  0
LINE
  8
0
 10
1125.97
 11
1126.11
 20
1246.11
 21
1246.25
  0
LINE
  8
0
 10
1126.11
 11
1126.26
 20
1246.25
 21
1246.38
  0
LINE
  8
0
 10
1126.26
 11
1126.42
 20
1246.38
 21
1246.5
  0
LINE
  8
0
 10
1126.42
 11
1126.6
 20
1246.5
 21
1246.6
  0
LINE
  8
0
 10
1126.6
 11
1126.77
 20
1246.6
 21
1246.68
  0
LINE
  8
0
 10
1126.77
 11
1126.96
 20
1246.68
 21
1246.76
  0
LINE
  8
0
 10
1126.96
 11
1127.15
 20
1246.76
 21
1246.82
  0
LINE
  8
0
 10
1127.15
 11
1127.34
 20
1246.82
 21
1246.86
  0
LINE
  8
0
 10
1127.34
 11
1127.54
 20
1246.86
 21
1246.89
  0
LINE
  8
0
 10
1127.54
 11
1127.74
 20
1246.89
 21
1246.9
  0
LINE
  8
0
 10
1127.74
 11
1127.94
 20
1246.9
 21
1246.9
  0
LINE
  8
0
 10
1127.94
 11
1128.13
 20
1246.9
 21
1246.88
  0
LINE
  8
0
 10
1128.13
 11
1128.33
 20
1246.88
 21
1246.84
  0
LINE
  8
0
 10
1128.33
 11
1128.52
 20
1246.84
 21
1246.79
  0
LINE
  8
0
 10
1128.52
 11
1128.71
 20
1246.79
 21
1246.72
  0
LINE
  8
0
 10
1128.71
 11
1128.89
 20
1246.72
 21
1246.64
  0
LINE
  8
0
 10
1128.89
 11
1129.07
 20
1246.64
 21
1246.55
  0
LINE
  8
0
 10
1129.07
 11
1129.23
 20
1246.55
 21
1246.44
  0
LINE
  8
0
 10
1129.23
 11
1129.39
 20
1246.44
 21
1246.32
  0
LINE
  8
0
 10
1129.39
 11
1129.54
 20
1246.32
 21
1246.18
  0
LINE
  8
0
 10
1129.54
 11
1129.67
 20
1246.18
 21
1246.04
  0
LINE
  8
0
 10
1129.67
 11
1129.8
 20
1246.04
 21
1245.89
  0
LINE
  8
0
 10
1129.8
 11
1129.91
 20
1245.89
 21
1245.72
  0
LINE
  8
0
 10
1129.91
 11
1130.01
 20
1245.72
 21
1245.55
  0
LINE
  8
0
 10
1130.01
 11
1130.09
 20
1245.55
 21
1245.37
  0
LINE
  8
0
 10
1130.09
 11
1130.16
 20
1245.37
 21
1245.18
  0
LINE
  8
0
 10
1130.16
 11
1130.22
 20
1245.18
 21
1244.99
  0
LINE
  8
0
 10
1130.22
 11
1130.26
 20
1244.99
 21
1244.8
  0
LINE
  8
0
 10
1130.26
 11
1130.28
 20
1244.8
 21
1244.6
  0
LINE
  8
0
 10
1130.28
 11
1130.29
 20
1244.6
 21
1244.4
  0
LINE
  8
0
 10
1130.29
 11
1130.28
 20
1244.4
 21
1244.2
  0
LINE
  8
0
 10
1130.28
 11
1130.26
 20
1244.2
 21
1244
  0
LINE
  8
0
 10
1130.26
 11
1130.22
 20
1244
 21
1243.81
  0
LINE
  8
0
 10
1130.22
 11
1130.16
 20
1243.81
 21
1243.62
  0
LINE
  8
0
 10
1130.16
 11
1130.09
 20
1243.62
 21
1243.43
  0
LINE
  8
0
 10
1130.09
 11
1130.01
 20
1243.43
 21
1243.25
  0
LINE
  8
0
 10
1130.01
 11
1129.91
 20
1243.25
 21
1243.08
  0
LINE
  8
0
 10
1129.91
 11
1129.8
 20
1243.08
 21
1242.91
  0
LINE
  8
0
 10
1129.8
 11
1129.67
 20
1242.91
 21
1242.76
  0
LINE
  8
0
 10
1129.67
 11
1129.54
 20
1242.76
 21
1242.62
  0
LINE
  8
0
 10
1129.54
 11
1129.39
 20
1242.62
 21
1242.48
  0
LINE
  8
0
 10
1129.39
 11
1129.23
 20
1242.48
 21
1242.36
  0
LINE
  8
0
 10
1129.23
 11
1129.07
 20
1242.36
 21
1242.25
  0
LINE
  8
0
 10
1129.07
 11
1128.89
 20
1242.25
 21
1242.16
  0
LINE
  8
0
 10
1128.89
 11
1128.71
 20
1242.16
 21
1242.08
  0
LINE
  8
0
 10
1128.71
 11
1128.52
 20
1242.08
 21
1242.01
  0
LINE
  8
0
 10
1128.52
 11
1128.33
 20
1242.01
 21
1241.96
  0
LINE
  8
0
 10
1128.33
 11
1128.13
 20
1241.96
 21
1241.92
  0
LINE
  8
0
 10
1128.13
 11
1127.94
 20
1241.92
 21
1241.9
  0
LINE
  8
0
 10
1127.94
 11
1127.74
 20
1241.9
 21
1241.9
  0
LINE
  8
0
 10
1127.74
 11
1127.54
 20
1241.9
 21
1241.91
  0
LINE
  8
0
 10
1127.54
 11
1127.34
 20
1241.91
 21
1241.94
  0
LINE
  8
0
 10
1127.34
 11
1127.15
 20
1241.94
 21
1241.98
  0
LINE
  8
0
 10
1127.15
 11
1126.96
 20
1241.98
 21
1242.04
  0
LINE
  8
0
 10
1126.96
 11
1126.77
 20
1242.04
 21
1242.12
  0
LINE
  8
0
 10
1126.77
 11
1126.6
 20
1242.12
 21
1242.2
  0
LINE
  8
0
 10
1126.6
 11
1126.42
 20
1242.2
 21
1242.3
  0
LINE
  8
0
 10
1126.42
 11
1126.26
 20
1242.3
 21
1242.42
  0
LINE
  8
0
 10
1126.26
 11
1126.11
 20
1242.42
 21
1242.55
  0
LINE
  8
0
 10
1126.11
 11
1125.97
 20
1242.55
 21
1242.69
  0
LINE
  8
0
 10
1125.97
 11
1125.84
 20
1242.69
 21
1242.84
  0
LINE
  8
0
 10
1125.84
 11
1125.72
 20
1242.84
 21
1243
  0
LINE
  8
0
 10
1125.72
 11
1125.61
 20
1243
 21
1243.16
  0
LINE
  8
0
 10
1125.61
 11
1125.52
 20
1243.16
 21
1243.34
  0
LINE
  8
0
 10
1125.52
 11
1125.44
 20
1243.34
 21
1243.52
  0
LINE
  8
0
 10
1125.44
 11
1125.38
 20
1243.52
 21
1243.71
  0
LINE
  8
0
 10
1125.38
 11
1125.34
 20
1243.71
 21
1243.91
  0
LINE
  8
0
 10
1125.34
 11
1125.31
 20
1243.91
 21
1244.1
  0
LINE
  8
0
 10
1125.31
 11
1125.29
 20
1244.1
 21
1244.3
  0
LINE
  8
0
 10
1141.13
 11
1141.13
 20
1169.4
 21
1225.4
  0
LINE
  8
0
 10
1141.13
 11
1141.23
 20
1225.4
 21
1226.02
  0
LINE
  8
0
 10
1141.23
 11
1141.52
 20
1226.02
 21
1226.58
  0
LINE
  8
0
 10
1141.52
 11
1141.96
 20
1226.58
 21
1227.02
  0
LINE
  8
0
 10
1141.96
 11
1142.52
 20
1227.02
 21
1227.3
  0
LINE
  8
0
 10
1142.52
 11
1143.13
 20
1227.3
 21
1227.4
  0
LINE
  8
0
 10
1143.13
 11
1143.75
 20
1227.4
 21
1227.3
  0
LINE
  8
0
 10
1143.75
 11
1144.31
 20
1227.3
 21
1227.02
  0
LINE
  8
0
 10
1144.31
 11
1144.75
 20
1227.02
 21
1226.58
  0
LINE
  8
0
 10
1144.75
 11
1145.04
 20
1226.58
 21
1226.02
  0
LINE
  8
0
 10
1145.04
 11
1145.13
 20
1226.02
 21
1225.4
  0
LINE
  8
0
 10
1145.13
 11
1145.13
 20
1225.4
 21
1169.4
  0
LINE
  8
0
 10
1145.13
 11
1145.04
 20
1169.4
 21
1168.78
  0
LINE
  8
0
 10
1145.04
 11
1144.75
 20
1168.78
 21
1168.22
  0
LINE
  8
0
 10
1144.75
 11
1144.31
 20
1168.22
 21
1167.78
  0
LINE
  8
0
 10
1144.31
 11
1143.75
 20
1167.78
 21
1167.5
  0
LINE
  8
0
 10
1143.75
 11
1143.13
 20
1167.5
 21
1167.4
  0
LINE
  8
0
 10
1143.13
 11
1142.52
 20
1167.4
 21
1167.5
  0
LINE
  8
0
 10
1142.52
 11
1141.96
 20
1167.5
 21
1167.78
  0
LINE
  8
0
 10
1141.96
 11
1141.52
 20
1167.78
 21
1168.22
  0
LINE
  8
0
 10
1141.52
 11
1141.23
 20
1168.22
 21
1168.78
  0
LINE
  8
0
 10
1141.23
 11
1141.13
 20
1168.78
 21
1169.4
  0
LINE
  8
0
 10
1171.44
 11
1171.44
 20
1169.4
 21
1225.4
  0
LINE
  8
0
 10
1171.44
 11
1171.54
 20
1225.4
 21
1226.02
  0
LINE
  8
0
 10
1171.54
 11
1171.83
 20
1226.02
 21
1226.58
  0
LINE
  8
0
 10
1171.83
 11
1172.27
 20
1226.58
 21
1227.02
  0
LINE
  8
0
 10
1172.27
 11
1172.83
 20
1227.02
 21
1227.3
  0
LINE
  8
0
 10
1172.83
 11
1173.44
 20
1227.3
 21
1227.4
  0
LINE
  8
0
 10
1173.44
 11
1174.06
 20
1227.4
 21
1227.3
  0
LINE
  8
0
 10
1174.06
 11
1174.62
 20
1227.3
 21
1227.02
  0
LINE
  8
0
 10
1174.62
 11
1175.06
 20
1227.02
 21
1226.58
  0
LINE
  8
0
 10
1175.06
 11
1175.35
 20
1226.58
 21
1226.02
  0
LINE
  8
0
 10
1175.35
 11
1175.44
 20
1226.02
 21
1225.4
  0
LINE
  8
0
 10
1175.44
 11
1175.44
 20
1225.4
 21
1169.4
  0
LINE
  8
0
 10
1175.44
 11
1175.35
 20
1169.4
 21
1168.78
  0
LINE
  8
0
 10
1175.35
 11
1175.06
 20
1168.78
 21
1168.22
  0
LINE
  8
0
 10
1175.06
 11
1174.62
 20
1168.22
 21
1167.78
  0
LINE
  8
0
 10
1174.62
 11
1174.06
 20
1167.78
 21
1167.5
  0
LINE
  8
0
 10
1174.06
 11
1173.44
 20
1167.5
 21
1167.4
  0
LINE
  8
0
 10
1173.44
 11
1172.83
 20
1167.4
 21
1167.5
  0
LINE
  8
0
 10
1172.83
 11
1172.27
 20
1167.5
 21
1167.78
  0
LINE
  8
0
 10
1172.27
 11
1171.83
 20
1167.78
 21
1168.22
  0
LINE
  8
0
 10
1171.83
 11
1171.54
 20
1168.22
 21
1168.78
  0
LINE
  8
0
 10
1171.54
 11
1171.44
 20
1168.78
 21
1169.4
  0
LINE
  8
0
 10
1201.75
 11
1201.75
 20
1169.4
 21
1225.4
  0
LINE
  8
0
 10
1201.75
 11
1201.85
 20
1225.4
 21
1226.02
  0
LINE
  8
0
 10
1201.85
 11
1202.13
 20
1226.02
 21
1226.58
  0
LINE
  8
0
 10
1202.13
 11
1202.58
 20
1226.58
 21
1227.02
  0
LINE
  8
0
 10
1202.58
 11
1203.13
 20
1227.02
 21
1227.3
  0
LINE
  8
0
 10
1203.13
 11
1203.75
 20
1227.3
 21
1227.4
  0
LINE
  8
0
 10
1203.75
 11
1204.37
 20
1227.4
 21
1227.3
  0
LINE
  8
0
 10
1204.37
 11
1204.93
 20
1227.3
 21
1227.02
  0
LINE
  8
0
 10
1204.93
 11
1205.37
 20
1227.02
 21
1226.58
  0
LINE
  8
0
 10
1205.37
 11
1205.65
 20
1226.58
 21
1226.02
  0
LINE
  8
0
 10
1205.65
 11
1205.75
 20
1226.02
 21
1225.4
  0
LINE
  8
0
 10
1205.75
 11
1205.75
 20
1225.4
 21
1169.4
  0
LINE
  8
0
 10
1205.75
 11
1205.65
 20
1169.4
 21
1168.78
  0
LINE
  8
0
 10
1205.65
 11
1205.37
 20
1168.78
 21
1168.22
  0
LINE
  8
0
 10
1205.37
 11
1204.93
 20
1168.22
 21
1167.78
  0
LINE
  8
0
 10
1204.93
 11
1204.37
 20
1167.78
 21
1167.5
  0
LINE
  8
0
 10
1204.37
 11
1203.75
 20
1167.5
 21
1167.4
  0
LINE
  8
0
 10
1203.75
 11
1203.13
 20
1167.4
 21
1167.5
  0
LINE
  8
0
 10
1203.13
 11
1202.58
 20
1167.5
 21
1167.78
  0
LINE
  8
0
 10
1202.58
 11
1202.13
 20
1167.78
 21
1168.22
  0
LINE
  8
0
 10
1202.13
 11
1201.85
 20
1168.22
 21
1168.78
  0
LINE
  8
0
 10
1201.85
 11
1201.75
 20
1168.78
 21
1169.4
  0
LINE
  8
0
 10
1232.06
 11
1232.06
 20
1169.4
 21
1225.4
  0
LINE
  8
0
 10
1232.06
 11
1232.16
 20
1225.4
 21
1226.02
  0
LINE
  8
0
 10
1232.16
 11
1232.44
 20
1226.02
 21
1226.58
  0
LINE
  8
0
 10
1232.44
 11
1232.89
 20
1226.58
 21
1227.02
  0
LINE
  8
0
 10
1232.89
 11
1233.44
 20
1227.02
 21
1227.3
  0
LINE
  8
0
 10
1233.44
 11
1234.06
 20
1227.3
 21
1227.4
  0
LINE
  8
0
 10
1234.06
 11
1234.68
 20
1227.4
 21
1227.3
  0
LINE
  8
0
 10
1234.68
 11
1235.24
 20
1227.3
 21
1227.02
  0
LINE
  8
0
 10
1235.24
 11
1235.68
 20
1227.02
 21
1226.58
  0
LINE
  8
0
 10
1235.68
 11
1235.96
 20
1226.58
 21
1226.02
  0
LINE
  8
0
 10
1235.96
 11
1236.06
 20
1226.02
 21
1225.4
  0
LINE
  8
0
 10
1236.06
 11
1236.06
 20
1225.4
 21
1169.4
  0
LINE
  8
0
 10
1236.06
 11
1235.96
 20
1169.4
 21
1168.78
  0
LINE
  8
0
 10
1235.96
 11
1235.68
 20
1168.78
 21
1168.22
  0
LINE
  8
0
 10
1235.68
 11
1235.24
 20
1168.22
 21
1167.78
  0
LINE
  8
0
 10
1235.24
 11
1234.68
 20
1167.78
 21
1167.5
  0
LINE
  8
0
 10
1234.68
 11
1234.06
 20
1167.5
 21
1167.4
  0
LINE
  8
0
 10
1234.06
 11
1233.44
 20
1167.4
 21
1167.5
  0
LINE
  8
0
 10
1233.44
 11
1232.89
 20
1167.5
 21
1167.78
  0
LINE
  8
0
 10
1232.89
 11
1232.44
 20
1167.78
 21
1168.22
  0
LINE
  8
0
 10
1232.44
 11
1232.16
 20
1168.22
 21
1168.78
  0
LINE
  8
0
 10
1232.16
 11
1232.06
 20
1168.78
 21
1169.4
  0
LINE
  8
0
 10
1250.2
 11
1250.2
 20
2413.9
 21
2414.1
  0
LINE
  8
0
 10
1250.2
 11
1250.22
 20
2414.1
 21
2414.3
  0
LINE
  8
0
 10
1250.22
 11
1250.25
 20
2414.3
 21
2414.49
  0
LINE
  8
0
 10
1250.25
 11
1250.3
 20
2414.49
 21
2414.69
  0
LINE
  8
0
 10
1250.3
 11
1250.36
 20
2414.69
 21
2414.88
  0
LINE
  8
0
 10
1250.36
 11
1250.43
 20
2414.88
 21
2415.06
  0
LINE
  8
0
 10
1250.43
 11
1250.53
 20
2415.06
 21
2415.24
  0
LINE
  8
0
 10
1250.53
 11
1250.63
 20
2415.24
 21
2415.4
  0
LINE
  8
0
 10
1250.63
 11
1250.75
 20
2415.4
 21
2415.56
  0
LINE
  8
0
 10
1250.75
 11
1250.88
 20
2415.56
 21
2415.71
  0
LINE
  8
0
 10
1250.88
 11
1251.02
 20
2415.71
 21
2415.85
  0
LINE
  8
0
 10
1251.02
 11
1251.17
 20
2415.85
 21
2415.98
  0
LINE
  8
0
 10
1251.17
 11
1251.34
 20
2415.98
 21
2416.1
  0
LINE
  8
0
 10
1251.34
 11
1251.51
 20
2416.1
 21
2416.2
  0
LINE
  8
0
 10
1251.51
 11
1251.69
 20
2416.2
 21
2416.28
  0
LINE
  8
0
 10
1251.69
 11
1251.87
 20
2416.28
 21
2416.36
  0
LINE
  8
0
 10
1251.87
 11
1252.06
 20
2416.36
 21
2416.42
  0
LINE
  8
0
 10
1252.06
 11
1252.26
 20
2416.42
 21
2416.46
  0
LINE
  8
0
 10
1252.26
 11
1252.45
 20
2416.46
 21
2416.49
  0
LINE
  8
0
 10
1252.45
 11
1252.65
 20
2416.49
 21
2416.5
  0
LINE
  8
0
 10
1252.65
 11
1252.85
 20
2416.5
 21
2416.5
  0
LINE
  8
0
 10
1252.85
 11
1253.05
 20
2416.5
 21
2416.48
  0
LINE
  8
0
 10
1253.05
 11
1253.24
 20
2416.48
 21
2416.44
  0
LINE
  8
0
 10
1253.24
 11
1253.43
 20
2416.44
 21
2416.39
  0
LINE
  8
0
 10
1253.43
 11
1253.62
 20
2416.39
 21
2416.32
  0
LINE
  8
0
 10
1253.62
 11
1253.8
 20
2416.32
 21
2416.24
  0
LINE
  8
0
 10
1253.8
 11
1253.98
 20
2416.24
 21
2416.15
  0
LINE
  8
0
 10
1253.98
 11
1254.14
 20
2416.15
 21
2416.04
  0
LINE
  8
0
 10
1254.14
 11
1254.3
 20
2416.04
 21
2415.92
  0
LINE
  8
0
 10
1254.3
 11
1254.45
 20
2415.92
 21
2415.78
  0
LINE
  8
0
 10
1254.45
 11
1254.59
 20
2415.78
 21
2415.64
  0
LINE
  8
0
 10
1254.59
 11
1254.71
 20
2415.64
 21
2415.49
  0
LINE
  8
0
 10
1254.71
 11
1254.82
 20
2415.49
 21
2415.32
  0
LINE
  8
0
 10
1254.82
 11
1254.92
 20
2415.32
 21
2415.15
  0
LINE
  8
0
 10
1254.92
 11
1255.01
 20
2415.15
 21
2414.97
  0
LINE
  8
0
 10
1255.01
 11
1255.08
 20
2414.97
 21
2414.78
  0
LINE
  8
0
 10
1255.08
 11
1255.13
 20
2414.78
 21
2414.59
  0
LINE
  8
0
 10
1255.13
 11
1255.17
 20
2414.59
 21
2414.4
  0
LINE
  8
0
 10
1255.17
 11
1255.19
 20
2414.4
 21
2414.2
  0
LINE
  8
0
 10
1255.19
 11
1255.2
 20
2414.2
 21
2414
  0
LINE
  8
0
 10
1255.2
 11
1255.19
 20
2414
 21
2413.8
  0
LINE
  8
0
 10
1255.19
 11
1255.17
 20
2413.8
 21
2413.6
  0
LINE
  8
0
 10
1255.17
 11
1255.13
 20
2413.6
 21
2413.41
  0
LINE
  8
0
 10
1255.13
 11
1255.08
 20
2413.41
 21
2413.22
  0
LINE
  8
0
 10
1255.08
 11
1255.01
 20
2413.22
 21
2413.03
  0
LINE
  8
0
 10
1255.01
 11
1254.92
 20
2413.03
 21
2412.85
  0
LINE
  8
0
 10
1254.92
 11
1254.82
 20
2412.85
 21
2412.68
  0
LINE
  8
0
 10
1254.82
 11
1254.71
 20
2412.68
 21
2412.51
  0
LINE
  8
0
 10
1254.71
 11
1254.59
 20
2412.51
 21
2412.36
  0
LINE
  8
0
 10
1254.59
 11
1254.45
 20
2412.36
 21
2412.22
  0
LINE
  8
0
 10
1254.45
 11
1254.3
 20
2412.22
 21
2412.08
  0
LINE
  8
0
 10
1254.3
 11
1254.14
 20
2412.08
 21
2411.96
  0
LINE
  8
0
 10
1254.14
 11
1253.98
 20
2411.96
 21
2411.85
  0
LINE
  8
0
 10
1253.98
 11
1253.8
 20
2411.85
 21
2411.76
  0
LINE
  8
0
 10
1253.8
 11
1253.62
 20
2411.76
 21
2411.68
  0
LINE
  8
0
 10
1253.62
 11
1253.43
 20
2411.68
 21
2411.61
  0
LINE
  8
0
 10
1253.43
 11
1253.24
 20
2411.61
 21
2411.56
  0
LINE
  8
0
 10
1253.24
 11
1253.05
 20
2411.56
 21
2411.52
  0
LINE
  8
0
 10
1253.05
 11
1252.85
 20
2411.52
 21
2411.5
  0
LINE
  8
0
 10
1252.85
 11
1252.65
 20
2411.5
 21
2411.5
  0
LINE
  8
0
 10
1252.65
 11
1252.45
 20
2411.5
 21
2411.51
  0
LINE
  8
0
 10
1252.45
 11
1252.26
 20
2411.51
 21
2411.54
  0
LINE
  8
0
 10
1252.26
 11
1252.06
 20
2411.54
 21
2411.58
  0
LINE
  8
0
 10
1252.06
 11
1251.87
 20
2411.58
 21
2411.64
  0
LINE
  8
0
 10
1251.87
 11
1251.69
 20
2411.64
 21
2411.72
  0
LINE
  8
0
 10
1251.69
 11
1251.51
 20
2411.72
 21
2411.8
  0
LINE
  8
0
 10
1251.51
 11
1251.34
 20
2411.8
 21
2411.9
  0
LINE
  8
0
 10
1251.34
 11
1251.17
 20
2411.9
 21
2412.02
  0
LINE
  8
0
 10
1251.17
 11
1251.02
 20
2412.02
 21
2412.15
  0
LINE
  8
0
 10
1251.02
 11
1250.88
 20
2412.15
 21
2412.29
  0
LINE
  8
0
 10
1250.88
 11
1250.75
 20
2412.29
 21
2412.44
  0
LINE
  8
0
 10
1250.75
 11
1250.63
 20
2412.44
 21
2412.6
  0
LINE
  8
0
 10
1250.63
 11
1250.53
 20
2412.6
 21
2412.76
  0
LINE
  8
0
 10
1250.53
 11
1250.43
 20
2412.76
 21
2412.94
  0
LINE
  8
0
 10
1250.43
 11
1250.36
 20
2412.94
 21
2413.12
  0
LINE
  8
0
 10
1250.36
 11
1250.3
 20
2413.12
 21
2413.31
  0
LINE
  8
0
 10
1250.3
 11
1250.25
 20
2413.31
 21
2413.51
  0
LINE
  8
0
 10
1250.25
 11
1250.22
 20
2413.51
 21
2413.7
  0
LINE
  8
0
 10
1250.22
 11
1250.2
 20
2413.7
 21
2413.9
  0
LINE
  8
0
 10
1262.37
 11
1262.37
 20
1169.4
 21
1225.4
  0
LINE
  8
0
 10
1262.37
 11
1262.47
 20
1225.4
 21
1226.02
  0
LINE
  8
0
 10
1262.47
 11
1262.75
 20
1226.02
 21
1226.58
  0
LINE
  8
0
 10
1262.75
 11
1263.19
 20
1226.58
 21
1227.02
  0
LINE
  8
0
 10
1263.19
 11
1263.75
 20
1227.02
 21
1227.3
  0
LINE
  8
0
 10
1263.75
 11
1264.37
 20
1227.3
 21
1227.4
  0
LINE
  8
0
 10
1264.37
 11
1264.99
 20
1227.4
 21
1227.3
  0
LINE
  8
0
 10
1264.99
 11
1265.55
 20
1227.3
 21
1227.02
  0
LINE
  8
0
 10
1265.55
 11
1265.99
 20
1227.02
 21
1226.58
  0
LINE
  8
0
 10
1265.99
 11
1266.27
 20
1226.58
 21
1226.02
  0
LINE
  8
0
 10
1266.27
 11
1266.37
 20
1226.02
 21
1225.4
  0
LINE
  8
0
 10
1266.37
 11
1266.37
 20
1225.4
 21
1169.4
  0
LINE
  8
0
 10
1266.37
 11
1266.27
 20
1169.4
 21
1168.78
  0
LINE
  8
0
 10
1266.27
 11
1265.99
 20
1168.78
 21
1168.22
  0
LINE
  8
0
 10
1265.99
 11
1265.55
 20
1168.22
 21
1167.78
  0
LINE
  8
0
 10
1265.55
 11
1264.99
 20
1167.78
 21
1167.5
  0
LINE
  8
0
 10
1264.99
 11
1264.37
 20
1167.5
 21
1167.4
  0
LINE
  8
0
 10
1264.37
 11
1263.75
 20
1167.4
 21
1167.5
  0
LINE
  8
0
 10
1263.75
 11
1263.19
 20
1167.5
 21
1167.78
  0
LINE
  8
0
 10
1263.19
 11
1262.75
 20
1167.78
 21
1168.22
  0
LINE
  8
0
 10
1262.75
 11
1262.47
 20
1168.22
 21
1168.78
  0
LINE
  8
0
 10
1262.47
 11
1262.37
 20
1168.78
 21
1169.4
  0
LINE
  8
0
 10
1292.68
 11
1292.68
 20
1169.4
 21
1225.4
  0
LINE
  8
0
 10
1292.68
 11
1292.78
 20
1225.4
 21
1226.02
  0
LINE
  8
0
 10
1292.78
 11
1293.06
 20
1226.02
 21
1226.58
  0
LINE
  8
0
 10
1293.06
 11
1293.5
 20
1226.58
 21
1227.02
  0
LINE
  8
0
 10
1293.5
 11
1294.06
 20
1227.02
 21
1227.3
  0
LINE
  8
0
 10
1294.06
 11
1294.68
 20
1227.3
 21
1227.4
  0
LINE
  8
0
 10
1294.68
 11
1295.3
 20
1227.4
 21
1227.3
  0
LINE
  8
0
 10
1295.3
 11
1295.86
 20
1227.3
 21
1227.02
  0
LINE
  8
0
 10
1295.86
 11
1296.3
 20
1227.02
 21
1226.58
  0
LINE
  8
0
 10
1296.3
 11
1296.58
 20
1226.58
 21
1226.02
  0
LINE
  8
0
 10
1296.58
 11
1296.68
 20
1226.02
 21
1225.4
  0
LINE
  8
0
 10
1296.68
 11
1296.68
 20
1225.4
 21
1169.4
  0
LINE
  8
0
 10
1296.68
 11
1296.58
 20
1169.4
 21
1168.78
  0
LINE
  8
0
 10
1296.58
 11
1296.3
 20
1168.78
 21
1168.22
  0
LINE
  8
0
 10
1296.3
 11
1295.86
 20
1168.22
 21
1167.78
  0
LINE
  8
0
 10
1295.86
 11
1295.3
 20
1167.78
 21
1167.5
  0
LINE
  8
0
 10
1295.3
 11
1294.68
 20
1167.5
 21
1167.4
  0
LINE
  8
0
 10
1294.68
 11
1294.06
 20
1167.4
 21
1167.5
  0
LINE
  8
0
 10
1294.06
 11
1293.5
 20
1167.5
 21
1167.78
  0
LINE
  8
0
 10
1293.5
 11
1293.06
 20
1167.78
 21
1168.22
  0
LINE
  8
0
 10
1293.06
 11
1292.78
 20
1168.22
 21
1168.78
  0
LINE
  8
0
 10
1292.78
 11
1292.68
 20
1168.78
 21
1169.4
  0
LINE
  8
0
 10
1322.99
 11
1322.99
 20
1169.4
 21
1225.4
  0
LINE
  8
0
 10
1322.99
 11
1323.09
 20
1225.4
 21
1226.02
  0
LINE
  8
0
 10
1323.09
 11
1323.37
 20
1226.02
 21
1226.58
  0
LINE
  8
0
 10
1323.37
 11
1323.81
 20
1226.58
 21
1227.02
  0
LINE
  8
0
 10
1323.81
 11
1324.37
 20
1227.02
 21
1227.3
  0
LINE
  8
0
 10
1324.37
 11
1324.99
 20
1227.3
 21
1227.4
  0
LINE
  8
0
 10
1324.99
 11
1325.61
 20
1227.4
 21
1227.3
  0
LINE
  8
0
 10
1325.61
 11
1326.17
 20
1227.3
 21
1227.02
  0
LINE
  8
0
 10
1326.17
 11
1326.61
 20
1227.02
 21
1226.58
  0
LINE
  8
0
 10
1326.61
 11
1326.89
 20
1226.58
 21
1226.02
  0
LINE
  8
0
 10
1326.89
 11
1326.99
 20
1226.02
 21
1225.4
  0
LINE
  8
0
 10
1326.99
 11
1326.99
 20
1225.4
 21
1169.4
  0
LINE
  8
0
 10
1326.99
 11
1326.89
 20
1169.4
 21
1168.78
  0
LINE
  8
0
 10
1326.89
 11
1326.61
 20
1168.78
 21
1168.22
  0
LINE
  8
0
 10
1326.61
 11
1326.17
 20
1168.22
 21
1167.78
  0
LINE
  8
0
 10
1326.17
 11
1325.61
 20
1167.78
 21
1167.5
  0
LINE
  8
0
 10
1325.61
 11
1324.99
 20
1167.5
 21
1167.4
  0
LINE
  8
0
 10
1324.99
 11
1324.37
 20
1167.4
 21
1167.5
  0
LINE
  8
0
 10
1324.37
 11
1323.81
 20
1167.5
 21
1167.78
  0
LINE
  8
0
 10
1323.81
 11
1323.37
 20
1167.78
 21
1168.22
  0
LINE
  8
0
 10
1323.37
 11
1323.09
 20
1168.22
 21
1168.78
  0
LINE
  8
0
 10
1323.09
 11
1322.99
 20
1168.78
 21
1169.4
  0
LINE
  8
0
 10
1353.3
 11
1353.3
 20
1169.4
 21
1225.4
  0
LINE
  8
0
 10
1353.3
 11
1353.4
 20
1225.4
 21
1226.02
  0
LINE
  8
0
 10
1353.4
 11
1353.68
 20
1226.02
 21
1226.58
  0
LINE
  8
0
 10
1353.68
 11
1354.12
 20
1226.58
 21
1227.02
  0
LINE
  8
0
 10
1354.12
 11
1354.68
 20
1227.02
 21
1227.3
  0
LINE
  8
0
 10
1354.68
 11
1355.3
 20
1227.3
 21
1227.4
  0
LINE
  8
0
 10
1355.3
 11
1355.92
 20
1227.4
 21
1227.3
  0
LINE
  8
0
 10
1355.92
 11
1356.48
 20
1227.3
 21
1227.02
  0
LINE
  8
0
 10
1356.48
 11
1356.92
 20
1227.02
 21
1226.58
  0
LINE
  8
0
 10
1356.92
 11
1357.2
 20
1226.58
 21
1226.02
  0
LINE
  8
0
 10
1357.2
 11
1357.3
 20
1226.02
 21
1225.4
  0
LINE
  8
0
 10
1357.3
 11
1357.3
 20
1225.4
 21
1169.4
  0
LINE
  8
0
 10
1357.3
 11
1357.2
 20
1169.4
 21
1168.78
  0
LINE
  8
0
 10
1357.2
 11
1356.92
 20
1168.78
 21
1168.22
  0
LINE
  8
0
 10
1356.92
 11
1356.48
 20
1168.22
 21
1167.78
  0
LINE
  8
0
 10
1356.48
 11
1355.92
 20
1167.78
 21
1167.5
  0
LINE
  8
0
 10
1355.92
 11
1355.3
 20
1167.5
 21
1167.4
  0
LINE
  8
0
 10
1355.3
 11
1354.68
 20
1167.4
 21
1167.5
  0
LINE
  8
0
 10
1354.68
 11
1354.12
 20
1167.5
 21
1167.78
  0
LINE
  8
0
 10
1354.12
 11
1353.68
 20
1167.78
 21
1168.22
  0
LINE
  8
0
 10
1353.68
 11
1353.4
 20
1168.22
 21
1168.78
  0
LINE
  8
0
 10
1353.4
 11
1353.3
 20
1168.78
 21
1169.4
  0
LINE
  8
0
 10
1383.61
 11
1383.61
 20
1169.4
 21
1225.4
  0
LINE
  8
0
 10
1383.61
 11
1383.71
 20
1225.4
 21
1226.02
  0
LINE
  8
0
 10
1383.71
 11
1383.99
 20
1226.02
 21
1226.58
  0
LINE
  8
0
 10
1383.99
 11
1384.43
 20
1226.58
 21
1227.02
  0
LINE
  8
0
 10
1384.43
 11
1384.99
 20
1227.02
 21
1227.3
  0
LINE
  8
0
 10
1384.99
 11
1385.61
 20
1227.3
 21
1227.4
  0
LINE
  8
0
 10
1385.61
 11
1386.23
 20
1227.4
 21
1227.3
  0
LINE
  8
0
 10
1386.23
 11
1386.78
 20
1227.3
 21
1227.02
  0
LINE
  8
0
 10
1386.78
 11
1387.23
 20
1227.02
 21
1226.58
  0
LINE
  8
0
 10
1387.23
 11
1387.51
 20
1226.58
 21
1226.02
  0
LINE
  8
0
 10
1387.51
 11
1387.61
 20
1226.02
 21
1225.4
  0
LINE
  8
0
 10
1387.61
 11
1387.61
 20
1225.4
 21
1169.4
  0
LINE
  8
0
 10
1387.61
 11
1387.51
 20
1169.4
 21
1168.78
  0
LINE
  8
0
 10
1387.51
 11
1387.23
 20
1168.78
 21
1168.22
  0
LINE
  8
0
 10
1387.23
 11
1386.78
 20
1168.22
 21
1167.78
  0
LINE
  8
0
 10
1386.78
 11
1386.23
 20
1167.78
 21
1167.5
  0
LINE
  8
0
 10
1386.23
 11
1385.61
 20
1167.5
 21
1167.4
  0
LINE
  8
0
 10
1385.61
 11
1384.99
 20
1167.4
 21
1167.5
  0
LINE
  8
0
 10
1384.99
 11
1384.43
 20
1167.5
 21
1167.78
  0
LINE
  8
0
 10
1384.43
 11
1383.99
 20
1167.78
 21
1168.22
  0
LINE
  8
0
 10
1383.99
 11
1383.71
 20
1168.22
 21
1168.78
  0
LINE
  8
0
 10
1383.71
 11
1383.61
 20
1168.78
 21
1169.4
  0
LINE
  8
0
 10
1413.92
 11
1413.92
 20
1169.4
 21
1225.4
  0
LINE
  8
0
 10
1413.92
 11
1414.02
 20
1225.4
 21
1226.02
  0
LINE
  8
0
 10
1414.02
 11
1414.3
 20
1226.02
 21
1226.58
  0
LINE
  8
0
 10
1414.3
 11
1414.74
 20
1226.58
 21
1227.02
  0
LINE
  8
0
 10
1414.74
 11
1415.3
 20
1227.02
 21
1227.3
  0
LINE
  8
0
 10
1415.3
 11
1415.92
 20
1227.3
 21
1227.4
  0
LINE
  8
0
 10
1415.92
 11
1416.54
 20
1227.4
 21
1227.3
  0
LINE
  8
0
 10
1416.54
 11
1417.09
 20
1227.3
 21
1227.02
  0
LINE
  8
0
 10
1417.09
 11
1417.54
 20
1227.02
 21
1226.58
  0
LINE
  8
0
 10
1417.54
 11
1417.82
 20
1226.58
 21
1226.02
  0
LINE
  8
0
 10
1417.82
 11
1417.92
 20
1226.02
 21
1225.4
  0
LINE
  8
0
 10
1417.92
 11
1417.92
 20
1225.4
 21
1169.4
  0
LINE
  8
0
 10
1417.92
 11
1417.82
 20
1169.4
 21
1168.78
  0
LINE
  8
0
 10
1417.82
 11
1417.54
 20
1168.78
 21
1168.22
  0
LINE
  8
0
 10
1417.54
 11
1417.09
 20
1168.22
 21
1167.78
  0
LINE
  8
0
 10
1417.09
 11
1416.54
 20
1167.78
 21
1167.5
  0
LINE
  8
0
 10
1416.54
 11
1415.92
 20
1167.5
 21
1167.4
  0
LINE
  8
0
 10
1415.92
 11
1415.3
 20
1167.4
 21
1167.5
  0
LINE
  8
0
 10
1415.3
 11
1414.74
 20
1167.5
 21
1167.78
  0
LINE
  8
0
 10
1414.74
 11
1414.3
 20
1167.78
 21
1168.22
  0
LINE
  8
0
 10
1414.3
 11
1414.02
 20
1168.22
 21
1168.78
  0
LINE
  8
0
 10
1414.02
 11
1413.92
 20
1168.78
 21
1169.4
  0
LINE
  8
0
 10
1444.23
 11
1444.23
 20
1169.4
 21
1225.4
  0
LINE
  8
0
 10
1444.23
 11
1444.33
 20
1225.4
 21
1226.02
  0
LINE
  8
0
 10
1444.33
 11
1444.61
 20
1226.02
 21
1226.58
  0
LINE
  8
0
 10
1444.61
 11
1445.05
 20
1226.58
 21
1227.02
  0
LINE
  8
0
 10
1445.05
 11
1445.61
 20
1227.02
 21
1227.3
  0
LINE
  8
0
 10
1445.61
 11
1446.23
 20
1227.3
 21
1227.4
  0
LINE
  8
0
 10
1446.23
 11
1446.85
 20
1227.4
 21
1227.3
  0
LINE
  8
0
 10
1446.85
 11
1447.4
 20
1227.3
 21
1227.02
  0
LINE
  8
0
 10
1447.4
 11
1447.85
 20
1227.02
 21
1226.58
  0
LINE
  8
0
 10
1447.85
 11
1448.13
 20
1226.58
 21
1226.02
  0
LINE
  8
0
 10
1448.13
 11
1448.23
 20
1226.02
 21
1225.4
  0
LINE
  8
0
 10
1448.23
 11
1448.23
 20
1225.4
 21
1169.4
  0
LINE
  8
0
 10
1448.23
 11
1448.13
 20
1169.4
 21
1168.78
  0
LINE
  8
0
 10
1448.13
 11
1447.85
 20
1168.78
 21
1168.22
  0
LINE
  8
0
 10
1447.85
 11
1447.4
 20
1168.22
 21
1167.78
  0
LINE
  8
0
 10
1447.4
 11
1446.85
 20
1167.78
 21
1167.5
  0
LINE
  8
0
 10
1446.85
 11
1446.23
 20
1167.5
 21
1167.4
  0
LINE
  8
0
 10
1446.23
 11
1445.61
 20
1167.4
 21
1167.5
  0
LINE
  8
0
 10
1445.61
 11
1445.05
 20
1167.5
 21
1167.78
  0
LINE
  8
0
 10
1445.05
 11
1444.61
 20
1167.78
 21
1168.22
  0
LINE
  8
0
 10
1444.61
 11
1444.33
 20
1168.22
 21
1168.78
  0
LINE
  8
0
 10
1444.33
 11
1444.23
 20
1168.78
 21
1169.4
  0
LINE
  8
0
 10
1474.54
 11
1474.54
 20
1169.4
 21
1225.4
  0
LINE
  8
0
 10
1474.54
 11
1474.63
 20
1225.4
 21
1226.02
  0
LINE
  8
0
 10
1474.63
 11
1474.92
 20
1226.02
 21
1226.58
  0
LINE
  8
0
 10
1474.92
 11
1475.36
 20
1226.58
 21
1227.02
  0
LINE
  8
0
 10
1475.36
 11
1475.92
 20
1227.02
 21
1227.3
  0
LINE
  8
0
 10
1475.92
 11
1476.54
 20
1227.3
 21
1227.4
  0
LINE
  8
0
 10
1476.54
 11
1477.15
 20
1227.4
 21
1227.3
  0
LINE
  8
0
 10
1477.15
 11
1477.71
 20
1227.3
 21
1227.02
  0
LINE
  8
0
 10
1477.71
 11
1478.15
 20
1227.02
 21
1226.58
  0
LINE
  8
0
 10
1478.15
 11
1478.44
 20
1226.58
 21
1226.02
  0
LINE
  8
0
 10
1478.44
 11
1478.54
 20
1226.02
 21
1225.4
  0
LINE
  8
0
 10
1478.54
 11
1478.54
 20
1225.4
 21
1169.4
  0
LINE
  8
0
 10
1478.54
 11
1478.44
 20
1169.4
 21
1168.78
  0
LINE
  8
0
 10
1478.44
 11
1478.15
 20
1168.78
 21
1168.22
  0
LINE
  8
0
 10
1478.15
 11
1477.71
 20
1168.22
 21
1167.78
  0
LINE
  8
0
 10
1477.71
 11
1477.15
 20
1167.78
 21
1167.5
  0
LINE
  8
0
 10
1477.15
 11
1476.54
 20
1167.5
 21
1167.4
  0
LINE
  8
0
 10
1476.54
 11
1475.92
 20
1167.4
 21
1167.5
  0
LINE
  8
0
 10
1475.92
 11
1475.36
 20
1167.5
 21
1167.78
  0
LINE
  8
0
 10
1475.36
 11
1474.92
 20
1167.78
 21
1168.22
  0
LINE
  8
0
 10
1474.92
 11
1474.63
 20
1168.22
 21
1168.78
  0
LINE
  8
0
 10
1474.63
 11
1474.54
 20
1168.78
 21
1169.4
  0
LINE
  8
0
 10
1504.85
 11
1504.85
 20
1169.4
 21
1225.4
  0
LINE
  8
0
 10
1504.85
 11
1504.94
 20
1225.4
 21
1226.02
  0
LINE
  8
0
 10
1504.94
 11
1505.23
 20
1226.02
 21
1226.58
  0
LINE
  8
0
 10
1505.23
 11
1505.67
 20
1226.58
 21
1227.02
  0
LINE
  8
0
 10
1505.67
 11
1506.23
 20
1227.02
 21
1227.3
  0
LINE
  8
0
 10
1506.23
 11
1506.85
 20
1227.3
 21
1227.4
  0
LINE
  8
0
 10
1506.85
 11
1507.46
 20
1227.4
 21
1227.3
  0
LINE
  8
0
 10
1507.46
 11
1508.02
 20
1227.3
 21
1227.02
  0
LINE
  8
0
 10
1508.02
 11
1508.46
 20
1227.02
 21
1226.58
  0
LINE
  8
0
 10
1508.46
 11
1508.75
 20
1226.58
 21
1226.02
  0
LINE
  8
0
 10
1508.75
 11
1508.85
 20
1226.02
 21
1225.4
  0
LINE
  8
0
 10
1508.85
 11
1508.85
 20
1225.4
 21
1169.4
  0
LINE
  8
0
 10
1508.85
 11
1508.75
 20
1169.4
 21
1168.78
  0
LINE
  8
0
 10
1508.75
 11
1508.46
 20
1168.78
 21
1168.22
  0
LINE
  8
0
 10
1508.46
 11
1508.02
 20
1168.22
 21
1167.78
  0
LINE
  8
0
 10
1508.02
 11
1507.46
 20
1167.78
 21
1167.5
  0
LINE
  8
0
 10
1507.46
 11
1506.85
 20
1167.5
 21
1167.4
  0
LINE
  8
0
 10
1506.85
 11
1506.23
 20
1167.4
 21
1167.5
  0
LINE
  8
0
 10
1506.23
 11
1505.67
 20
1167.5
 21
1167.78
  0
LINE
  8
0
 10
1505.67
 11
1505.23
 20
1167.78
 21
1168.22
  0
LINE
  8
0
 10
1505.23
 11
1504.94
 20
1168.22
 21
1168.78
  0
LINE
  8
0
 10
1504.94
 11
1504.85
 20
1168.78
 21
1169.4
  0
LINE
  8
0
 10
1505.41
 11
1505.42
 20
299.766
 21
299.965
  0
LINE
  8
0
 10
1505.42
 11
1505.46
 20
299.965
 21
300.161
  0
LINE
  8
0
 10
1505.46
 11
1505.52
 20
300.161
 21
300.35
  0
LINE
  8
0
 10
1505.52
 11
1505.61
 20
300.35
 21
300.531
  0
LINE
  8
0
 10
1505.61
 11
1505.72
 20
300.531
 21
300.699
  0
LINE
  8
0
 10
1505.72
 11
1505.84
 20
300.699
 21
300.853
  0
LINE
  8
0
 10
1505.84
 11
1505.99
 20
300.853
 21
300.989
  0
LINE
  8
0
 10
1505.99
 11
1506.15
 20
300.989
 21
301.106
  0
LINE
  8
0
 10
1506.15
 11
1506.32
 20
301.106
 21
301.202
  0
LINE
  8
0
 10
1506.32
 11
1506.51
 20
301.202
 21
301.276
  0
LINE
  8
0
 10
1506.51
 11
1506.7
 20
301.276
 21
301.325
  0
LINE
  8
0
 10
1506.7
 11
1506.9
 20
301.325
 21
301.35
  0
LINE
  8
0
 10
1506.9
 11
1507.1
 20
301.35
 21
301.35
  0
LINE
  8
0
 10
1507.1
 11
1507.3
 20
301.35
 21
301.325
  0
LINE
  8
0
 10
1507.3
 11
1507.49
 20
301.325
 21
301.276
  0
LINE
  8
0
 10
1507.49
 11
1507.68
 20
301.276
 21
301.202
  0
LINE
  8
0
 10
1507.68
 11
1507.85
 20
301.202
 21
301.106
  0
LINE
  8
0
 10
1507.85
 11
1508.01
 20
301.106
 21
300.989
  0
LINE
  8
0
 10
1508.01
 11
1508.16
 20
300.989
 21
300.853
  0
LINE
  8
0
 10
1508.16
 11
1508.28
 20
300.853
 21
300.699
  0
LINE
  8
0
 10
1508.28
 11
1508.39
 20
300.699
 21
300.531
  0
LINE
  8
0
 10
1508.39
 11
1508.48
 20
300.531
 21
300.35
  0
LINE
  8
0
 10
1508.48
 11
1508.54
 20
300.35
 21
300.161
  0
LINE
  8
0
 10
1508.54
 11
1508.58
 20
300.161
 21
299.965
  0
LINE
  8
0
 10
1508.58
 11
1508.59
 20
299.965
 21
299.766
  0
LINE
  8
0
 10
1508.59
 11
1508.58
 20
299.766
 21
299.567
  0
LINE
  8
0
 10
1508.58
 11
1508.54
 20
299.567
 21
299.371
  0
LINE
  8
0
 10
1508.54
 11
1508.48
 20
299.371
 21
299.182
  0
LINE
  8
0
 10
1508.48
 11
1508.39
 20
299.182
 21
299.001
  0
LINE
  8
0
 10
1508.39
 11
1508.28
 20
299.001
 21
298.833
  0
LINE
  8
0
 10
1508.28
 11
1508.16
 20
298.833
 21
298.679
  0
LINE
  8
0
 10
1508.16
 11
1508.01
 20
298.679
 21
298.543
  0
LINE
  8
0
 10
1508.01
 11
1507.85
 20
298.543
 21
298.426
  0
LINE
  8
0
 10
1507.85
 11
1507.68
 20
298.426
 21
298.33
  0
LINE
  8
0
 10
1507.68
 11
1507.49
 20
298.33
 21
298.256
  0
LINE
  8
0
 10
1507.49
 11
1507.3
 20
298.256
 21
298.207
  0
LINE
  8
0
 10
1507.3
 11
1507.1
 20
298.207
 21
298.182
  0
LINE
  8
0
 10
1507.1
 11
1506.9
 20
298.182
 21
298.182
  0
LINE
  8
0
 10
1506.9
 11
1506.7
 20
298.182
 21
298.207
  0
LINE
  8
0
 10
1506.7
 11
1506.51
 20
298.207
 21
298.256
  0
LINE
  8
0
 10
1506.51
 11
1506.32
 20
298.256
 21
298.33
  0
LINE
  8
0
 10
1506.32
 11
1506.15
 20
298.33
 21
298.426
  0
LINE
  8
0
 10
1506.15
 11
1505.99
 20
298.426
 21
298.543
  0
LINE
  8
0
 10
1505.99
 11
1505.84
 20
298.543
 21
298.679
  0
LINE
  8
0
 10
1505.84
 11
1505.72
 20
298.679
 21
298.833
  0
LINE
  8
0
 10
1505.72
 11
1505.61
 20
298.833
 21
299.001
  0
LINE
  8
0
 10
1505.61
 11
1505.52
 20
299.001
 21
299.182
  0
LINE
  8
0
 10
1505.52
 11
1505.46
 20
299.182
 21
299.371
  0
LINE
  8
0
 10
1505.46
 11
1505.42
 20
299.371
 21
299.567
  0
LINE
  8
0
 10
1505.42
 11
1505.41
 20
299.567
 21
299.766
  0
LINE
  8
0
 10
1505.41
 11
1505.42
 20
307.766
 21
307.965
  0
LINE
  8
0
 10
1505.42
 11
1505.46
 20
307.965
 21
308.161
  0
LINE
  8
0
 10
1505.46
 11
1505.52
 20
308.161
 21
308.35
  0
LINE
  8
0
 10
1505.52
 11
1505.61
 20
308.35
 21
308.531
  0
LINE
  8
0
 10
1505.61
 11
1505.72
 20
308.531
 21
308.699
  0
LINE
  8
0
 10
1505.72
 11
1505.84
 20
308.699
 21
308.853
  0
LINE
  8
0
 10
1505.84
 11
1505.99
 20
308.853
 21
308.989
  0
LINE
  8
0
 10
1505.99
 11
1506.15
 20
308.989
 21
309.106
  0
LINE
  8
0
 10
1506.15
 11
1506.32
 20
309.106
 21
309.202
  0
LINE
  8
0
 10
1506.32
 11
1506.51
 20
309.202
 21
309.276
  0
LINE
  8
0
 10
1506.51
 11
1506.7
 20
309.276
 21
309.325
  0
LINE
  8
0
 10
1506.7
 11
1506.9
 20
309.325
 21
309.35
  0
LINE
  8
0
 10
1506.9
 11
1507.1
 20
309.35
 21
309.35
  0
LINE
  8
0
 10
1507.1
 11
1507.3
 20
309.35
 21
309.325
  0
LINE
  8
0
 10
1507.3
 11
1507.49
 20
309.325
 21
309.276
  0
LINE
  8
0
 10
1507.49
 11
1507.68
 20
309.276
 21
309.202
  0
LINE
  8
0
 10
1507.68
 11
1507.85
 20
309.202
 21
309.106
  0
LINE
  8
0
 10
1507.85
 11
1508.01
 20
309.106
 21
308.989
  0
LINE
  8
0
 10
1508.01
 11
1508.16
 20
308.989
 21
308.853
  0
LINE
  8
0
 10
1508.16
 11
1508.28
 20
308.853
 21
308.699
  0
LINE
  8
0
 10
1508.28
 11
1508.39
 20
308.699
 21
308.531
  0
LINE
  8
0
 10
1508.39
 11
1508.48
 20
308.531
 21
308.35
  0
LINE
  8
0
 10
1508.48
 11
1508.54
 20
308.35
 21
308.161
  0
LINE
  8
0
 10
1508.54
 11
1508.58
 20
308.161
 21
307.965
  0
LINE
  8
0
 10
1508.58
 11
1508.59
 20
307.965
 21
307.766
  0
LINE
  8
0
 10
1508.59
 11
1508.58
 20
307.766
 21
307.567
  0
LINE
  8
0
 10
1508.58
 11
1508.54
 20
307.567
 21
307.371
  0
LINE
  8
0
 10
1508.54
 11
1508.48
 20
307.371
 21
307.182
  0
LINE
  8
0
 10
1508.48
 11
1508.39
 20
307.182
 21
307.001
  0
LINE
  8
0
 10
1508.39
 11
1508.28
 20
307.001
 21
306.833
  0
LINE
  8
0
 10
1508.28
 11
1508.16
 20
306.833
 21
306.679
  0
LINE
  8
0
 10
1508.16
 11
1508.01
 20
306.679
 21
306.543
  0
LINE
  8
0
 10
1508.01
 11
1507.85
 20
306.543
 21
306.426
  0
LINE
  8
0
 10
1507.85
 11
1507.68
 20
306.426
 21
306.33
  0
LINE
  8
0
 10
1507.68
 11
1507.49
 20
306.33
 21
306.256
  0
LINE
  8
0
 10
1507.49
 11
1507.3
 20
306.256
 21
306.207
  0
LINE
  8
0
 10
1507.3
 11
1507.1
 20
306.207
 21
306.182
  0
LINE
  8
0
 10
1507.1
 11
1506.9
 20
306.182
 21
306.182
  0
LINE
  8
0
 10
1506.9
 11
1506.7
 20
306.182
 21
306.207
  0
LINE
  8
0
 10
1506.7
 11
1506.51
 20
306.207
 21
306.256
  0
LINE
  8
0
 10
1506.51
 11
1506.32
 20
306.256
 21
306.33
  0
LINE
  8
0
 10
1506.32
 11
1506.15
 20
306.33
 21
306.426
  0
LINE
  8
0
 10
1506.15
 11
1505.99
 20
306.426
 21
306.543
  0
LINE
  8
0
 10
1505.99
 11
1505.84
 20
306.543
 21
306.679
  0
LINE
  8
0
 10
1505.84
 11
1505.72
 20
306.679
 21
306.833
  0
LINE
  8
0
 10
1505.72
 11
1505.61
 20
306.833
 21
307.001
  0
LINE
  8
0
 10
1505.61
 11
1505.52
 20
307.001
 21
307.182
  0
LINE
  8
0
 10
1505.52
 11
1505.46
 20
307.182
 21
307.371
  0
LINE
  8
0
 10
1505.46
 11
1505.42
 20
307.371
 21
307.567
  0
LINE
  8
0
 10
1505.42
 11
1505.41
 20
307.567
 21
307.766
  0
LINE
  8
0
 10
1505.41
 11
1505.42
 20
535.72
 21
535.919
  0
LINE
  8
0
 10
1505.42
 11
1505.46
 20
535.919
 21
536.115
  0
LINE
  8
0
 10
1505.46
 11
1505.52
 20
536.115
 21
536.304
  0
LINE
  8
0
 10
1505.52
 11
1505.61
 20
536.304
 21
536.485
  0
LINE
  8
0
 10
1505.61
 11
1505.72
 20
536.485
 21
536.653
  0
LINE
  8
0
 10
1505.72
 11
1505.84
 20
536.653
 21
536.807
  0
LINE
  8
0
 10
1505.84
 11
1505.99
 20
536.807
 21
536.943
  0
LINE
  8
0
 10
1505.99
 11
1506.15
 20
536.943
 21
537.06
  0
LINE
  8
0
 10
1506.15
 11
1506.32
 20
537.06
 21
537.156
  0
LINE
  8
0
 10
1506.32
 11
1506.51
 20
537.156
 21
537.23
  0
LINE
  8
0
 10
1506.51
 11
1506.7
 20
537.23
 21
537.279
  0
LINE
  8
0
 10
1506.7
 11
1506.9
 20
537.279
 21
537.304
  0
LINE
  8
0
 10
1506.9
 11
1507.1
 20
537.304
 21
537.304
  0
LINE
  8
0
 10
1507.1
 11
1507.3
 20
537.304
 21
537.279
  0
LINE
  8
0
 10
1507.3
 11
1507.49
 20
537.279
 21
537.23
  0
LINE
  8
0
 10
1507.49
 11
1507.68
 20
537.23
 21
537.156
  0
LINE
  8
0
 10
1507.68
 11
1507.85
 20
537.156
 21
537.06
  0
LINE
  8
0
 10
1507.85
 11
1508.01
 20
537.06
 21
536.943
  0
LINE
  8
0
 10
1508.01
 11
1508.16
 20
536.943
 21
536.807
  0
LINE
  8
0
 10
1508.16
 11
1508.28
 20
536.807
 21
536.653
  0
LINE
  8
0
 10
1508.28
 11
1508.39
 20
536.653
 21
536.485
  0
LINE
  8
0
 10
1508.39
 11
1508.48
 20
536.485
 21
536.304
  0
LINE
  8
0
 10
1508.48
 11
1508.54
 20
536.304
 21
536.115
  0
LINE
  8
0
 10
1508.54
 11
1508.58
 20
536.115
 21
535.919
  0
LINE
  8
0
 10
1508.58
 11
1508.59
 20
535.919
 21
535.72
  0
LINE
  8
0
 10
1508.59
 11
1508.58
 20
535.72
 21
535.521
  0
LINE
  8
0
 10
1508.58
 11
1508.54
 20
535.521
 21
535.325
  0
LINE
  8
0
 10
1508.54
 11
1508.48
 20
535.325
 21
535.136
  0
LINE
  8
0
 10
1508.48
 11
1508.39
 20
535.136
 21
534.955
  0
LINE
  8
0
 10
1508.39
 11
1508.28
 20
534.955
 21
534.787
  0
LINE
  8
0
 10
1508.28
 11
1508.16
 20
534.787
 21
534.633
  0
LINE
  8
0
 10
1508.16
 11
1508.01
 20
534.633
 21
534.497
  0
LINE
  8
0
 10
1508.01
 11
1507.85
 20
534.497
 21
534.38
  0
LINE
  8
0
 10
1507.85
 11
1507.68
 20
534.38
 21
534.284
  0
LINE
  8
0
 10
1507.68
 11
1507.49
 20
534.284
 21
534.21
  0
LINE
  8
0
 10
1507.49
 11
1507.3
 20
534.21
 21
534.161
  0
LINE
  8
0
 10
1507.3
 11
1507.1
 20
534.161
 21
534.136
  0
LINE
  8
0
 10
1507.1
 11
1506.9
 20
534.136
 21
534.136
  0
LINE
  8
0
 10
1506.9
 11
1506.7
 20
534.136
 21
534.161
  0
LINE
  8
0
 10
1506.7
 11
1506.51
 20
534.161
 21
534.21
  0
LINE
  8
0
 10
1506.51
 11
1506.32
 20
534.21
 21
534.284
  0
LINE
  8
0
 10
1506.32
 11
1506.15
 20
534.284
 21
534.38
  0
LINE
  8
0
 10
1506.15
 11
1505.99
 20
534.38
 21
534.497
  0
LINE
  8
0
 10
1505.99
 11
1505.84
 20
534.497
 21
534.633
  0
LINE
  8
0
 10
1505.84
 11
1505.72
 20
534.633
 21
534.787
  0
LINE
  8
0
 10
1505.72
 11
1505.61
 20
534.787
 21
534.955
  0
LINE
  8
0
 10
1505.61
 11
1505.52
 20
534.955
 21
535.136
  0
LINE
  8
0
 10
1505.52
 11
1505.46
 20
535.136
 21
535.325
  0
LINE
  8
0
 10
1505.46
 11
1505.42
 20
535.325
 21
535.521
  0
LINE
  8
0
 10
1505.42
 11
1505.41
 20
535.521
 21
535.72
  0
LINE
  8
0
 10
1505.41
 11
1505.42
 20
543.72
 21
543.919
  0
LINE
  8
0
 10
1505.42
 11
1505.46
 20
543.919
 21
544.115
  0
LINE
  8
0
 10
1505.46
 11
1505.52
 20
544.115
 21
544.304
  0
LINE
  8
0
 10
1505.52
 11
1505.61
 20
544.304
 21
544.485
  0
LINE
  8
0
 10
1505.61
 11
1505.72
 20
544.485
 21
544.653
  0
LINE
  8
0
 10
1505.72
 11
1505.84
 20
544.653
 21
544.807
  0
LINE
  8
0
 10
1505.84
 11
1505.99
 20
544.807
 21
544.943
  0
LINE
  8
0
 10
1505.99
 11
1506.15
 20
544.943
 21
545.06
  0
LINE
  8
0
 10
1506.15
 11
1506.32
 20
545.06
 21
545.156
  0
LINE
  8
0
 10
1506.32
 11
1506.51
 20
545.156
 21
545.23
  0
LINE
  8
0
 10
1506.51
 11
1506.7
 20
545.23
 21
545.279
  0
LINE
  8
0
 10
1506.7
 11
1506.9
 20
545.279
 21
545.304
  0
LINE
  8
0
 10
1506.9
 11
1507.1
 20
545.304
 21
545.304
  0
LINE
  8
0
 10
1507.1
 11
1507.3
 20
545.304
 21
545.279
  0
LINE
  8
0
 10
1507.3
 11
1507.49
 20
545.279
 21
545.23
  0
LINE
  8
0
 10
1507.49
 11
1507.68
 20
545.23
 21
545.156
  0
LINE
  8
0
 10
1507.68
 11
1507.85
 20
545.156
 21
545.06
  0
LINE
  8
0
 10
1507.85
 11
1508.01
 20
545.06
 21
544.943
  0
LINE
  8
0
 10
1508.01
 11
1508.16
 20
544.943
 21
544.807
  0
LINE
  8
0
 10
1508.16
 11
1508.28
 20
544.807
 21
544.653
  0
LINE
  8
0
 10
1508.28
 11
1508.39
 20
544.653
 21
544.485
  0
LINE
  8
0
 10
1508.39
 11
1508.48
 20
544.485
 21
544.304
  0
LINE
  8
0
 10
1508.48
 11
1508.54
 20
544.304
 21
544.115
  0
LINE
  8
0
 10
1508.54
 11
1508.58
 20
544.115
 21
543.919
  0
LINE
  8
0
 10
1508.58
 11
1508.59
 20
543.919
 21
543.72
  0
LINE
  8
0
 10
1508.59
 11
1508.58
 20
543.72
 21
543.521
  0
LINE
  8
0
 10
1508.58
 11
1508.54
 20
543.521
 21
543.325
  0
LINE
  8
0
 10
1508.54
 11
1508.48
 20
543.325
 21
543.136
  0
LINE
  8
0
 10
1508.48
 11
1508.39
 20
543.136
 21
542.955
  0
LINE
  8
0
 10
1508.39
 11
1508.28
 20
542.955
 21
542.787
  0
LINE
  8
0
 10
1508.28
 11
1508.16
 20
542.787
 21
542.633
  0
LINE
  8
0
 10
1508.16
 11
1508.01
 20
542.633
 21
542.497
  0
LINE
  8
0
 10
1508.01
 11
1507.85
 20
542.497
 21
542.38
  0
LINE
  8
0
 10
1507.85
 11
1507.68
 20
542.38
 21
542.284
  0
LINE
  8
0
 10
1507.68
 11
1507.49
 20
542.284
 21
542.21
  0
LINE
  8
0
 10
1507.49
 11
1507.3
 20
542.21
 21
542.161
  0
LINE
  8
0
 10
1507.3
 11
1507.1
 20
542.161
 21
542.136
  0
LINE
  8
0
 10
1507.1
 11
1506.9
 20
542.136
 21
542.136
  0
LINE
  8
0
 10
1506.9
 11
1506.7
 20
542.136
 21
542.161
  0
LINE
  8
0
 10
1506.7
 11
1506.51
 20
542.161
 21
542.21
  0
LINE
  8
0
 10
1506.51
 11
1506.32
 20
542.21
 21
542.284
  0
LINE
  8
0
 10
1506.32
 11
1506.15
 20
542.284
 21
542.38
  0
LINE
  8
0
 10
1506.15
 11
1505.99
 20
542.38
 21
542.497
  0
LINE
  8
0
 10
1505.99
 11
1505.84
 20
542.497
 21
542.633
  0
LINE
  8
0
 10
1505.84
 11
1505.72
 20
542.633
 21
542.787
  0
LINE
  8
0
 10
1505.72
 11
1505.61
 20
542.787
 21
542.955
  0
LINE
  8
0
 10
1505.61
 11
1505.52
 20
542.955
 21
543.136
  0
LINE
  8
0
 10
1505.52
 11
1505.46
 20
543.136
 21
543.325
  0
LINE
  8
0
 10
1505.46
 11
1505.42
 20
543.325
 21
543.521
  0
LINE
  8
0
 10
1505.42
 11
1505.41
 20
543.521
 21
543.72
  0
LINE
  8
0
 10
1550
 11
1550.12
 20
469
 21
469.788
  0
LINE
  8
0
 10
1550.12
 11
1550.49
 20
469.788
 21
470.499
  0
LINE
  8
0
 10
1550.49
 11
1551.05
 20
470.499
 21
471.063
  0
LINE
  8
0
 10
1551.05
 11
1551.76
 20
471.063
 21
471.425
  0
LINE
  8
0
 10
1551.76
 11
1552.55
 20
471.425
 21
471.55
  0
LINE
  8
0
 10
1552.55
 11
1555.45
 20
471.55
 21
471.55
  0
LINE
  8
0
 10
1555.45
 11
1556.24
 20
471.55
 21
471.425
  0
LINE
  8
0
 10
1556.24
 11
1556.95
 20
471.425
 21
471.063
  0
LINE
  8
0
 10
1556.95
 11
1557.51
 20
471.063
 21
470.499
  0
LINE
  8
0
 10
1557.51
 11
1557.88
 20
470.499
 21
469.788
  0
LINE
  8
0
 10
1557.88
 11
1558
 20
469.788
 21
469
  0
LINE
  8
0
 10
1558
 11
1557.88
 20
469
 21
468.212
  0
LINE
  8
0
 10
1557.88
 11
1557.51
 20
468.212
 21
467.501
  0
LINE
  8
0
 10
1557.51
 11
1556.95
 20
467.501
 21
466.937
  0
LINE
  8
0
 10
1556.95
 11
1556.24
 20
466.937
 21
466.575
  0
LINE
  8
0
 10
1556.24
 11
1555.45
 20
466.575
 21
466.45
  0
LINE
  8
0
 10
1555.45
 11
1552.55
 20
466.45
 21
466.45
  0
LINE
  8
0
 10
1552.55
 11
1551.76
 20
466.45
 21
466.575
  0
LINE
  8
0
 10
1551.76
 11
1551.05
 20
466.575
 21
466.937
  0
LINE
  8
0
 10
1551.05
 11
1550.49
 20
466.937
 21
467.501
  0
LINE
  8
0
 10
1550.49
 11
1550.12
 20
467.501
 21
468.212
  0
LINE
  8
0
 10
1550.12
 11
1550
 20
468.212
 21
469
  0
LINE
  8
0
 10
1579
 11
1579
 20
1187.9
 21
1232.9
  0
LINE
  8
0
 10
1579
 11
1579.01
 20
1232.9
 21
1233.25
  0
LINE
  8
0
 10
1579.01
 11
1579.02
 20
1233.25
 21
1233.6
  0
LINE
  8
0
 10
1579.02
 11
1579.06
 20
1233.6
 21
1233.94
  0
LINE
  8
0
 10
1579.06
 11
1579.1
 20
1233.94
 21
1234.29
  0
LINE
  8
0
 10
1579.1
 11
1579.15
 20
1234.29
 21
1234.64
  0
LINE
  8
0
 10
1579.15
 11
1579.22
 20
1234.64
 21
1234.98
  0
LINE
  8
0
 10
1579.22
 11
1579.3
 20
1234.98
 21
1235.32
  0
LINE
  8
0
 10
1579.3
 11
1579.39
 20
1235.32
 21
1235.66
  0
LINE
  8
0
 10
1579.39
 11
1579.49
 20
1235.66
 21
1235.99
  0
LINE
  8
0
 10
1579.49
 11
1579.6
 20
1235.99
 21
1236.32
  0
LINE
  8
0
 10
1579.6
 11
1579.73
 20
1236.32
 21
1236.65
  0
LINE
  8
0
 10
1579.73
 11
1579.87
 20
1236.65
 21
1236.97
  0
LINE
  8
0
 10
1579.87
 11
1580.01
 20
1236.97
 21
1237.28
  0
LINE
  8
0
 10
1580.01
 11
1580.17
 20
1237.28
 21
1237.6
  0
LINE
  8
0
 10
1580.17
 11
1580.34
 20
1237.6
 21
1237.9
  0
LINE
  8
0
 10
1580.34
 11
1580.52
 20
1237.9
 21
1238.2
  0
LINE
  8
0
 10
1580.52
 11
1580.71
 20
1238.2
 21
1238.49
  0
LINE
  8
0
 10
1580.71
 11
1580.91
 20
1238.49
 21
1238.78
  0
LINE
  8
0
 10
1580.91
 11
1581.12
 20
1238.78
 21
1239.06
  0
LINE
  8
0
 10
1581.12
 11
1581.34
 20
1239.06
 21
1239.33
  0
LINE
  8
0
 10
1581.34
 11
1581.57
 20
1239.33
 21
1239.59
  0
LINE
  8
0
 10
1581.57
 11
1581.81
 20
1239.59
 21
1239.85
  0
LINE
  8
0
 10
1581.81
 11
1582.05
 20
1239.85
 21
1240.09
  0
LINE
  8
0
 10
1582.05
 11
1582.31
 20
1240.09
 21
1240.33
  0
LINE
  8
0
 10
1582.31
 11
1582.57
 20
1240.33
 21
1240.56
  0
LINE
  8
0
 10
1582.57
 11
1582.84
 20
1240.56
 21
1240.78
  0
LINE
  8
0
 10
1582.84
 11
1583.12
 20
1240.78
 21
1240.99
  0
LINE
  8
0
 10
1583.12
 11
1583.41
 20
1240.99
 21
1241.19
  0
LINE
  8
0
 10
1583.41
 11
1583.7
 20
1241.19
 21
1241.38
  0
LINE
  8
0
 10
1583.7
 11
1584
 20
1241.38
 21
1241.56
  0
LINE
  8
0
 10
1584
 11
1584.31
 20
1241.56
 21
1241.73
  0
LINE
  8
0
 10
1584.31
 11
1584.62
 20
1241.73
 21
1241.89
  0
LINE
  8
0
 10
1584.62
 11
1584.93
 20
1241.89
 21
1242.04
  0
LINE
  8
0
 10
1584.93
 11
1585.25
 20
1242.04
 21
1242.17
  0
LINE
  8
0
 10
1585.25
 11
1585.58
 20
1242.17
 21
1242.3
  0
LINE
  8
0
 10
1585.58
 11
1585.91
 20
1242.3
 21
1242.41
  0
LINE
  8
0
 10
1585.91
 11
1586.24
 20
1242.41
 21
1242.51
  0
LINE
  8
0
 10
1586.24
 11
1586.58
 20
1242.51
 21
1242.6
  0
LINE
  8
0
 10
1586.58
 11
1586.92
 20
1242.6
 21
1242.68
  0
LINE
  8
0
 10
1586.92
 11
1587.26
 20
1242.68
 21
1242.75
  0
LINE
  8
0
 10
1587.26
 11
1587.61
 20
1242.75
 21
1242.8
  0
LINE
  8
0
 10
1587.61
 11
1587.95
 20
1242.8
 21
1242.85
  0
LINE
  8
0
 10
1587.95
 11
1588.3
 20
1242.85
 21
1242.88
  0
LINE
  8
0
 10
1588.3
 11
1588.65
 20
1242.88
 21
1242.89
  0
LINE
  8
0
 10
1588.65
 11
1589
 20
1242.89
 21
1242.9
  0
LINE
  8
0
 10
1589
 11
1739
 20
1242.9
 21
1242.9
  0
LINE
  8
0
 10
1739
 11
1739.35
 20
1242.9
 21
1242.89
  0
LINE
  8
0
 10
1739.35
 11
1739.7
 20
1242.89
 21
1242.88
  0
LINE
  8
0
 10
1739.7
 11
1740.05
 20
1242.88
 21
1242.85
  0
LINE
  8
0
 10
1740.05
 11
1740.39
 20
1242.85
 21
1242.8
  0
LINE
  8
0
 10
1740.39
 11
1740.74
 20
1242.8
 21
1242.75
  0
LINE
  8
0
 10
1740.74
 11
1741.08
 20
1242.75
 21
1242.68
  0
LINE
  8
0
 10
1741.08
 11
1741.42
 20
1242.68
 21
1242.6
  0
LINE
  8
0
 10
1741.42
 11
1741.76
 20
1242.6
 21
1242.51
  0
LINE
  8
0
 10
1741.76
 11
1742.09
 20
1242.51
 21
1242.41
  0
LINE
  8
0
 10
1742.09
 11
1742.42
 20
1242.41
 21
1242.3
  0
LINE
  8
0
 10
1742.42
 11
1742.75
 20
1242.3
 21
1242.17
  0
LINE
  8
0
 10
1742.75
 11
1743.07
 20
1242.17
 21
1242.04
  0
LINE
  8
0
 10
1743.07
 11
1743.38
 20
1242.04
 21
1241.89
  0
LINE
  8
0
 10
1743.38
 11
1743.69
 20
1241.89
 21
1241.73
  0
LINE
  8
0
 10
1743.69
 11
1744
 20
1241.73
 21
1241.56
  0
LINE
  8
0
 10
1744
 11
1744.3
 20
1241.56
 21
1241.38
  0
LINE
  8
0
 10
1744.3
 11
1744.59
 20
1241.38
 21
1241.19
  0
LINE
  8
0
 10
1744.59
 11
1744.88
 20
1241.19
 21
1240.99
  0
LINE
  8
0
 10
1744.88
 11
1745.16
 20
1240.99
 21
1240.78
  0
LINE
  8
0
 10
1745.16
 11
1745.43
 20
1240.78
 21
1240.56
  0
LINE
  8
0
 10
1745.43
 11
1745.69
 20
1240.56
 21
1240.33
  0
LINE
  8
0
 10
1745.69
 11
1745.95
 20
1240.33
 21
1240.09
  0
LINE
  8
0
 10
1745.95
 11
1746.19
 20
1240.09
 21
1239.85
  0
LINE
  8
0
 10
1746.19
 11
1746.43
 20
1239.85
 21
1239.59
  0
LINE
  8
0
 10
1746.43
 11
1746.66
 20
1239.59
 21
1239.33
  0
LINE
  8
0
 10
1746.66
 11
1746.88
 20
1239.33
 21
1239.06
  0
LINE
  8
0
 10
1746.88
 11
1747.09
 20
1239.06
 21
1238.78
  0
LINE
  8
0
 10
1747.09
 11
1747.29
 20
1238.78
 21
1238.49
  0
LINE
  8
0
 10
1747.29
 11
1747.48
 20
1238.49
 21
1238.2
  0
LINE
  8
0
 10
1747.48
 11
1747.66
 20
1238.2
 21
1237.9
  0
LINE
  8
0
 10
1747.66
 11
1747.83
 20
1237.9
 21
1237.6
  0
LINE
  8
0
 10
1747.83
 11
1747.99
 20
1237.6
 21
1237.28
  0
LINE
  8
0
 10
1747.99
 11
1748.13
 20
1237.28
 21
1236.97
  0
LINE
  8
0
 10
1748.13
 11
1748.27
 20
1236.97
 21
1236.65
  0
LINE
  8
0
 10
1748.27
 11
1748.4
 20
1236.65
 21
1236.32
  0
LINE
  8
0
 10
1748.4
 11
1748.51
 20
1236.32
 21
1235.99
  0
LINE
  8
0
 10
1748.51
 11
1748.61
 20
1235.99
 21
1235.66
  0
LINE
  8
0
 10
1748.61
 11
1748.7
 20
1235.66
 21
1235.32
  0
LINE
  8
0
 10
1748.7
 11
1748.78
 20
1235.32
 21
1234.98
  0
LINE
  8
0
 10
1748.78
 11
1748.85
 20
1234.98
 21
1234.64
  0
LINE
  8
0
 10
1748.85
 11
1748.9
 20
1234.64
 21
1234.29
  0
LINE
  8
0
 10
1748.9
 11
1748.94
 20
1234.29
 21
1233.94
  0
LINE
  8
0
 10
1748.94
 11
1748.98
 20
1233.94
 21
1233.6
  0
LINE
  8
0
 10
1748.98
 11
1748.99
 20
1233.6
 21
1233.25
  0
LINE
  8
0
 10
1748.99
 11
1749
 20
1233.25
 21
1232.9
  0
LINE
  8
0
 10
1749
 11
1749
 20
1232.9
 21
1187.9
  0
LINE
  8
0
 10
1749
 11
1748.99
 20
1187.9
 21
1187.55
  0
LINE
  8
0
 10
1748.99
 11
1748.98
 20
1187.55
 21
1187.2
  0
LINE
  8
0
 10
1748.98
 11
1748.94
 20
1187.2
 21
1186.86
  0
LINE
  8
0
 10
1748.94
 11
1748.9
 20
1186.86
 21
1186.51
  0
LINE
  8
0
 10
1748.9
 11
1748.85
 20
1186.51
 21
1186.16
  0
LINE
  8
0
 10
1748.85
 11
1748.78
 20
1186.16
 21
1185.82
  0
LINE
  8
0
 10
1748.78
 11
1748.7
 20
1185.82
 21
1185.48
  0
LINE
  8
0
 10
1748.7
 11
1748.61
 20
1185.48
 21
1185.14
  0
LINE
  8
0
 10
1748.61
 11
1748.51
 20
1185.14
 21
1184.81
  0
LINE
  8
0
 10
1748.51
 11
1748.4
 20
1184.81
 21
1184.48
  0
LINE
  8
0
 10
1748.4
 11
1748.27
 20
1184.48
 21
1184.15
  0
LINE
  8
0
 10
1748.27
 11
1748.13
 20
1184.15
 21
1183.83
  0
LINE
  8
0
 10
1748.13
 11
1747.99
 20
1183.83
 21
1183.52
  0
LINE
  8
0
 10
1747.99
 11
1747.83
 20
1183.52
 21
1183.2
  0
LINE
  8
0
 10
1747.83
 11
1747.66
 20
1183.2
 21
1182.9
  0
LINE
  8
0
 10
1747.66
 11
1747.48
 20
1182.9
 21
1182.6
  0
LINE
  8
0
 10
1747.48
 11
1747.29
 20
1182.6
 21
1182.31
  0
LINE
  8
0
 10
1747.29
 11
1747.09
 20
1182.31
 21
1182.02
  0
LINE
  8
0
 10
1747.09
 11
1746.88
 20
1182.02
 21
1181.74
  0
LINE
  8
0
 10
1746.88
 11
1746.66
 20
1181.74
 21
1181.47
  0
LINE
  8
0
 10
1746.66
 11
1746.43
 20
1181.47
 21
1181.21
  0
LINE
  8
0
 10
1746.43
 11
1746.19
 20
1181.21
 21
1180.95
  0
LINE
  8
0
 10
1746.19
 11
1745.95
 20
1180.95
 21
1180.71
  0
LINE
  8
0
 10
1745.95
 11
1745.69
 20
1180.71
 21
1180.47
  0
LINE
  8
0
 10
1745.69
 11
1745.43
 20
1180.47
 21
1180.24
  0
LINE
  8
0
 10
1745.43
 11
1745.16
 20
1180.24
 21
1180.02
  0
LINE
  8
0
 10
1745.16
 11
1744.88
 20
1180.02
 21
1179.81
  0
LINE
  8
0
 10
1744.88
 11
1744.59
 20
1179.81
 21
1179.61
  0
LINE
  8
0
 10
1744.59
 11
1744.3
 20
1179.61
 21
1179.42
  0
LINE
  8
0
 10
1744.3
 11
1744
 20
1179.42
 21
1179.24
  0
LINE
  8
0
 10
1744
 11
1743.69
 20
1179.24
 21
1179.07
  0
LINE
  8
0
 10
1743.69
 11
1743.38
 20
1179.07
 21
1178.91
  0
LINE
  8
0
 10
1743.38
 11
1743.07
 20
1178.91
 21
1178.77
  0
LINE
  8
0
 10
1743.07
 11
1742.75
 20
1178.77
 21
1178.63
  0
LINE
  8
0
 10
1742.75
 11
1742.42
 20
1178.63
 21
1178.5
  0
LINE
  8
0
 10
1742.42
 11
1742.09
 20
1178.5
 21
1178.39
  0
LINE
  8
0
 10
1742.09
 11
1741.76
 20
1178.39
 21
1178.29
  0
LINE
  8
0
 10
1741.76
 11
1741.42
 20
1178.29
 21
1178.2
  0
LINE
  8
0
 10
1741.42
 11
1741.08
 20
1178.2
 21
1178.12
  0
LINE
  8
0
 10
1741.08
 11
1740.74
 20
1178.12
 21
1178.05
  0
LINE
  8
0
 10
1740.74
 11
1740.39
 20
1178.05
 21
1178
  0
LINE
  8
0
 10
1740.39
 11
1740.05
 20
1178
 21
1177.95
  0
LINE
  8
0
 10
1740.05
 11
1739.7
 20
1177.95
 21
1177.92
  0
LINE
  8
0
 10
1739.7
 11
1739.35
 20
1177.92
 21
1177.91
  0
LINE
  8
0
 10
1739.35
 11
1739
 20
1177.91
 21
1177.9
  0
LINE
  8
0
 10
1739
 11
1589
 20
1177.9
 21
1177.9
  0
LINE
  8
0
 10
1589
 11
1588.65
 20
1177.9
 21
1177.91
  0
LINE
  8
0
 10
1588.65
 11
1588.3
 20
1177.91
 21
1177.92
  0
LINE
  8
0
 10
1588.3
 11
1587.95
 20
1177.92
 21
1177.95
  0
LINE
  8
0
 10
1587.95
 11
1587.61
 20
1177.95
 21
1178
  0
LINE
  8
0
 10
1587.61
 11
1587.26
 20
1178
 21
1178.05
  0
LINE
  8
0
 10
1587.26
 11
1586.92
 20
1178.05
 21
1178.12
  0
LINE
  8
0
 10
1586.92
 11
1586.58
 20
1178.12
 21
1178.2
  0
LINE
  8
0
 10
1586.58
 11
1586.24
 20
1178.2
 21
1178.29
  0
LINE
  8
0
 10
1586.24
 11
1585.91
 20
1178.29
 21
1178.39
  0
LINE
  8
0
 10
1585.91
 11
1585.58
 20
1178.39
 21
1178.5
  0
LINE
  8
0
 10
1585.58
 11
1585.25
 20
1178.5
 21
1178.63
  0
LINE
  8
0
 10
1585.25
 11
1584.93
 20
1178.63
 21
1178.77
  0
LINE
  8
0
 10
1584.93
 11
1584.62
 20
1178.77
 21
1178.91
  0
LINE
  8
0
 10
1584.62
 11
1584.31
 20
1178.91
 21
1179.07
  0
LINE
  8
0
 10
1584.31
 11
1584
 20
1179.07
 21
1179.24
  0
LINE
  8
0
 10
1584
 11
1583.7
 20
1179.24
 21
1179.42
  0
LINE
  8
0
 10
1583.7
 11
1583.41
 20
1179.42
 21
1179.61
  0
LINE
  8
0
 10
1583.41
 11
1583.12
 20
1179.61
 21
1179.81
  0
LINE
  8
0
 10
1583.12
 11
1582.84
 20
1179.81
 21
1180.02
  0
LINE
  8
0
 10
1582.84
 11
1582.57
 20
1180.02
 21
1180.24
  0
LINE
  8
0
 10
1582.57
 11
1582.31
 20
1180.24
 21
1180.47
  0
LINE
  8
0
 10
1582.31
 11
1582.05
 20
1180.47
 21
1180.71
  0
LINE
  8
0
 10
1582.05
 11
1581.81
 20
1180.71
 21
1180.95
  0
LINE
  8
0
 10
1581.81
 11
1581.57
 20
1180.95
 21
1181.21
  0
LINE
  8
0
 10
1581.57
 11
1581.34
 20
1181.21
 21
1181.47
  0
LINE
  8
0
 10
1581.34
 11
1581.12
 20
1181.47
 21
1181.74
  0
LINE
  8
0
 10
1581.12
 11
1580.91
 20
1181.74
 21
1182.02
  0
LINE
  8
0
 10
1580.91
 11
1580.71
 20
1182.02
 21
1182.31
  0
LINE
  8
0
 10
1580.71
 11
1580.52
 20
1182.31
 21
1182.6
  0
LINE
  8
0
 10
1580.52
 11
1580.34
 20
1182.6
 21
1182.9
  0
LINE
  8
0
 10
1580.34
 11
1580.17
 20
1182.9
 21
1183.2
  0
LINE
  8
0
 10
1580.17
 11
1580.01
 20
1183.2
 21
1183.52
  0
LINE
  8
0
 10
1580.01
 11
1579.87
 20
1183.52
 21
1183.83
  0
LINE
  8
0
 10
1579.87
 11
1579.73
 20
1183.83
 21
1184.15
  0
LINE
  8
0
 10
1579.73
 11
1579.6
 20
1184.15
 21
1184.48
  0
LINE
  8
0
 10
1579.6
 11
1579.49
 20
1184.48
 21
1184.81
  0
LINE
  8
0
 10
1579.49
 11
1579.39
 20
1184.81
 21
1185.14
  0
LINE
  8
0
 10
1579.39
 11
1579.3
 20
1185.14
 21
1185.48
  0
LINE
  8
0
 10
1579.3
 11
1579.22
 20
1185.48
 21
1185.82
  0
LINE
  8
0
 10
1579.22
 11
1579.15
 20
1185.82
 21
1186.16
  0
LINE
  8
0
 10
1579.15
 11
1579.1
 20
1186.16
 21
1186.51
  0
LINE
  8
0
 10
1579.1
 11
1579.06
 20
1186.51
 21
1186.86
  0
LINE
  8
0
 10
1579.06
 11
1579.02
 20
1186.86
 21
1187.2
  0
LINE
  8
0
 10
1579.02
 11
1579.01
 20
1187.2
 21
1187.55
  0
LINE
  8
0
 10
1579.01
 11
1579
 20
1187.55
 21
1187.9
  0
LINE
  8
0
 10
1592.5
 11
1592.5
 20
1264.3
 21
1264.5
  0
LINE
  8
0
 10
1592.5
 11
1592.52
 20
1264.5
 21
1264.7
  0
LINE
  8
0
 10
1592.52
 11
1592.55
 20
1264.7
 21
1264.89
  0
LINE
  8
0
 10
1592.55
 11
1592.6
 20
1264.89
 21
1265.09
  0
LINE
  8
0
 10
1592.6
 11
1592.66
 20
1265.09
 21
1265.28
  0
LINE
  8
0
 10
1592.66
 11
1592.74
 20
1265.28
 21
1265.46
  0
LINE
  8
0
 10
1592.74
 11
1592.83
 20
1265.46
 21
1265.64
  0
LINE
  8
0
 10
1592.83
 11
1592.93
 20
1265.64
 21
1265.8
  0
LINE
  8
0
 10
1592.93
 11
1593.05
 20
1265.8
 21
1265.96
  0
LINE
  8
0
 10
1593.05
 11
1593.18
 20
1265.96
 21
1266.11
  0
LINE
  8
0
 10
1593.18
 11
1593.32
 20
1266.11
 21
1266.25
  0
LINE
  8
0
 10
1593.32
 11
1593.48
 20
1266.25
 21
1266.38
  0
LINE
  8
0
 10
1593.48
 11
1593.64
 20
1266.38
 21
1266.5
  0
LINE
  8
0
 10
1593.64
 11
1593.81
 20
1266.5
 21
1266.6
  0
LINE
  8
0
 10
1593.81
 11
1593.99
 20
1266.6
 21
1266.68
  0
LINE
  8
0
 10
1593.99
 11
1594.17
 20
1266.68
 21
1266.76
  0
LINE
  8
0
 10
1594.17
 11
1594.36
 20
1266.76
 21
1266.82
  0
LINE
  8
0
 10
1594.36
 11
1594.56
 20
1266.82
 21
1266.86
  0
LINE
  8
0
 10
1594.56
 11
1594.75
 20
1266.86
 21
1266.89
  0
LINE
  8
0
 10
1594.75
 11
1594.95
 20
1266.89
 21
1266.9
  0
LINE
  8
0
 10
1594.95
 11
1595.15
 20
1266.9
 21
1266.9
  0
LINE
  8
0
 10
1595.15
 11
1595.35
 20
1266.9
 21
1266.88
  0
LINE
  8
0
 10
1595.35
 11
1595.54
 20
1266.88
 21
1266.84
  0
LINE
  8
0
 10
1595.54
 11
1595.74
 20
1266.84
 21
1266.79
  0
LINE
  8
0
 10
1595.74
 11
1595.92
 20
1266.79
 21
1266.72
  0
LINE
  8
0
 10
1595.92
 11
1596.1
 20
1266.72
 21
1266.64
  0
LINE
  8
0
 10
1596.1
 11
1596.28
 20
1266.64
 21
1266.55
  0
LINE
  8
0
 10
1596.28
 11
1596.44
 20
1266.55
 21
1266.44
  0
LINE
  8
0
 10
1596.44
 11
1596.6
 20
1266.44
 21
1266.32
  0
LINE
  8
0
 10
1596.6
 11
1596.75
 20
1266.32
 21
1266.18
  0
LINE
  8
0
 10
1596.75
 11
1596.89
 20
1266.18
 21
1266.04
  0
LINE
  8
0
 10
1596.89
 11
1597.01
 20
1266.04
 21
1265.89
  0
LINE
  8
0
 10
1597.01
 11
1597.12
 20
1265.89
 21
1265.72
  0
LINE
  8
0
 10
1597.12
 11
1597.22
 20
1265.72
 21
1265.55
  0
LINE
  8
0
 10
1597.22
 11
1597.31
 20
1265.55
 21
1265.37
  0
LINE
  8
0
 10
1597.31
 11
1597.38
 20
1265.37
 21
1265.18
  0
LINE
  8
0
 10
1597.38
 11
1597.43
 20
1265.18
 21
1264.99
  0
LINE
  8
0
 10
1597.43
 11
1597.47
 20
1264.99
 21
1264.8
  0
LINE
  8
0
 10
1597.47
 11
1597.49
 20
1264.8
 21
1264.6
  0
LINE
  8
0
 10
1597.49
 11
1597.5
 20
1264.6
 21
1264.4
  0
LINE
  8
0
 10
1597.5
 11
1597.49
 20
1264.4
 21
1264.2
  0
LINE
  8
0
 10
1597.49
 11
1597.47
 20
1264.2
 21
1264
  0
LINE
  8
0
 10
1597.47
 11
1597.43
 20
1264
 21
1263.81
  0
LINE
  8
0
 10
1597.43
 11
1597.38
 20
1263.81
 21
1263.62
  0
LINE
  8
0
 10
1597.38
 11
1597.31
 20
1263.62
 21
1263.43
  0
LINE
  8
0
 10
1597.31
 11
1597.22
 20
1263.43
 21
1263.25
  0
LINE
  8
0
 10
1597.22
 11
1597.12
 20
1263.25
 21
1263.08
  0
LINE
  8
0
 10
1597.12
 11
1597.01
 20
1263.08
 21
1262.91
  0
LINE
  8
0
 10
1597.01
 11
1596.89
 20
1262.91
 21
1262.76
  0
LINE
  8
0
 10
1596.89
 11
1596.75
 20
1262.76
 21
1262.62
  0
LINE
  8
0
 10
1596.75
 11
1596.6
 20
1262.62
 21
1262.48
  0
LINE
  8
0
 10
1596.6
 11
1596.44
 20
1262.48
 21
1262.36
  0
LINE
  8
0
 10
1596.44
 11
1596.28
 20
1262.36
 21
1262.25
  0
LINE
  8
0
 10
1596.28
 11
1596.1
 20
1262.25
 21
1262.16
  0
LINE
  8
0
 10
1596.1
 11
1595.92
 20
1262.16
 21
1262.08
  0
LINE
  8
0
 10
1595.92
 11
1595.74
 20
1262.08
 21
1262.01
  0
LINE
  8
0
 10
1595.74
 11
1595.54
 20
1262.01
 21
1261.96
  0
LINE
  8
0
 10
1595.54
 11
1595.35
 20
1261.96
 21
1261.92
  0
LINE
  8
0
 10
1595.35
 11
1595.15
 20
1261.92
 21
1261.9
  0
LINE
  8
0
 10
1595.15
 11
1594.95
 20
1261.9
 21
1261.9
  0
LINE
  8
0
 10
1594.95
 11
1594.75
 20
1261.9
 21
1261.91
  0
LINE
  8
0
 10
1594.75
 11
1594.56
 20
1261.91
 21
1261.94
  0
LINE
  8
0
 10
1594.56
 11
1594.36
 20
1261.94
 21
1261.98
  0
LINE
  8
0
 10
1594.36
 11
1594.17
 20
1261.98
 21
1262.04
  0
LINE
  8
0
 10
1594.17
 11
1593.99
 20
1262.04
 21
1262.12
  0
LINE
  8
0
 10
1593.99
 11
1593.81
 20
1262.12
 21
1262.2
  0
LINE
  8
0
 10
1593.81
 11
1593.64
 20
1262.2
 21
1262.3
  0
LINE
  8
0
 10
1593.64
 11
1593.48
 20
1262.3
 21
1262.42
  0
LINE
  8
0
 10
1593.48
 11
1593.32
 20
1262.42
 21
1262.55
  0
LINE
  8
0
 10
1593.32
 11
1593.18
 20
1262.55
 21
1262.69
  0
LINE
  8
0
 10
1593.18
 11
1593.05
 20
1262.69
 21
1262.84
  0
LINE
  8
0
 10
1593.05
 11
1592.93
 20
1262.84
 21
1263
  0
LINE
  8
0
 10
1592.93
 11
1592.83
 20
1263
 21
1263.16
  0
LINE
  8
0
 10
1592.83
 11
1592.74
 20
1263.16
 21
1263.34
  0
LINE
  8
0
 10
1592.74
 11
1592.66
 20
1263.34
 21
1263.52
  0
LINE
  8
0
 10
1592.66
 11
1592.6
 20
1263.52
 21
1263.71
  0
LINE
  8
0
 10
1592.6
 11
1592.55
 20
1263.71
 21
1263.91
  0
LINE
  8
0
 10
1592.55
 11
1592.52
 20
1263.91
 21
1264.1
  0
LINE
  8
0
 10
1592.52
 11
1592.5
 20
1264.1
 21
1264.3
  0
LINE
  8
0
 10
1611.5
 11
1611.5
 20
1172.8
 21
1173
  0
LINE
  8
0
 10
1611.5
 11
1611.52
 20
1173
 21
1173.2
  0
LINE
  8
0
 10
1611.52
 11
1611.55
 20
1173.2
 21
1173.39
  0
LINE
  8
0
 10
1611.55
 11
1611.6
 20
1173.39
 21
1173.59
  0
LINE
  8
0
 10
1611.6
 11
1611.66
 20
1173.59
 21
1173.78
  0
LINE
  8
0
 10
1611.66
 11
1611.74
 20
1173.78
 21
1173.96
  0
LINE
  8
0
 10
1611.74
 11
1611.83
 20
1173.96
 21
1174.14
  0
LINE
  8
0
 10
1611.83
 11
1611.93
 20
1174.14
 21
1174.3
  0
LINE
  8
0
 10
1611.93
 11
1612.05
 20
1174.3
 21
1174.46
  0
LINE
  8
0
 10
1612.05
 11
1612.18
 20
1174.46
 21
1174.61
  0
LINE
  8
0
 10
1612.18
 11
1612.32
 20
1174.61
 21
1174.75
  0
LINE
  8
0
 10
1612.32
 11
1612.48
 20
1174.75
 21
1174.88
  0
LINE
  8
0
 10
1612.48
 11
1612.64
 20
1174.88
 21
1175
  0
LINE
  8
0
 10
1612.64
 11
1612.81
 20
1175
 21
1175.1
  0
LINE
  8
0
 10
1612.81
 11
1612.99
 20
1175.1
 21
1175.18
  0
LINE
  8
0
 10
1612.99
 11
1613.17
 20
1175.18
 21
1175.26
  0
LINE
  8
0
 10
1613.17
 11
1613.36
 20
1175.26
 21
1175.32
  0
LINE
  8
0
 10
1613.36
 11
1613.56
 20
1175.32
 21
1175.36
  0
LINE
  8
0
 10
1613.56
 11
1613.75
 20
1175.36
 21
1175.39
  0
LINE
  8
0
 10
1613.75
 11
1613.95
 20
1175.39
 21
1175.4
  0
LINE
  8
0
 10
1613.95
 11
1614.15
 20
1175.4
 21
1175.4
  0
LINE
  8
0
 10
1614.15
 11
1614.35
 20
1175.4
 21
1175.38
  0
LINE
  8
0
 10
1614.35
 11
1614.54
 20
1175.38
 21
1175.34
  0
LINE
  8
0
 10
1614.54
 11
1614.74
 20
1175.34
 21
1175.29
  0
LINE
  8
0
 10
1614.74
 11
1614.92
 20
1175.29
 21
1175.22
  0
LINE
  8
0
 10
1614.92
 11
1615.1
 20
1175.22
 21
1175.14
  0
LINE
  8
0
 10
1615.1
 11
1615.28
 20
1175.14
 21
1175.05
  0
LINE
  8
0
 10
1615.28
 11
1615.44
 20
1175.05
 21
1174.94
  0
LINE
  8
0
 10
1615.44
 11
1615.6
 20
1174.94
 21
1174.82
  0
LINE
  8
0
 10
1615.6
 11
1615.75
 20
1174.82
 21
1174.68
  0
LINE
  8
0
 10
1615.75
 11
1615.89
 20
1174.68
 21
1174.54
  0
LINE
  8
0
 10
1615.89
 11
1616.01
 20
1174.54
 21
1174.39
  0
LINE
  8
0
 10
1616.01
 11
1616.12
 20
1174.39
 21
1174.22
  0
LINE
  8
0
 10
1616.12
 11
1616.22
 20
1174.22
 21
1174.05
  0
LINE
  8
0
 10
1616.22
 11
1616.31
 20
1174.05
 21
1173.87
  0
LINE
  8
0
 10
1616.31
 11
1616.38
 20
1173.87
 21
1173.68
  0
LINE
  8
0
 10
1616.38
 11
1616.43
 20
1173.68
 21
1173.49
  0
LINE
  8
0
 10
1616.43
 11
1616.47
 20
1173.49
 21
1173.3
  0
LINE
  8
0
 10
1616.47
 11
1616.49
 20
1173.3
 21
1173.1
  0
LINE
  8
0
 10
1616.49
 11
1616.5
 20
1173.1
 21
1172.9
  0
LINE
  8
0
 10
1616.5
 11
1616.49
 20
1172.9
 21
1172.7
  0
LINE
  8
0
 10
1616.49
 11
1616.47
 20
1172.7
 21
1172.5
  0
LINE
  8
0
 10
1616.47
 11
1616.43
 20
1172.5
 21
1172.31
  0
LINE
  8
0
 10
1616.43
 11
1616.38
 20
1172.31
 21
1172.12
  0
LINE
  8
0
 10
1616.38
 11
1616.31
 20
1172.12
 21
1171.93
  0
LINE
  8
0
 10
1616.31
 11
1616.22
 20
1171.93
 21
1171.75
  0
LINE
  8
0
 10
1616.22
 11
1616.12
 20
1171.75
 21
1171.58
  0
LINE
  8
0
 10
1616.12
 11
1616.01
 20
1171.58
 21
1171.41
  0
LINE
  8
0
 10
1616.01
 11
1615.89
 20
1171.41
 21
1171.26
  0
LINE
  8
0
 10
1615.89
 11
1615.75
 20
1171.26
 21
1171.12
  0
LINE
  8
0
 10
1615.75
 11
1615.6
 20
1171.12
 21
1170.98
  0
LINE
  8
0
 10
1615.6
 11
1615.44
 20
1170.98
 21
1170.86
  0
LINE
  8
0
 10
1615.44
 11
1615.28
 20
1170.86
 21
1170.75
  0
LINE
  8
0
 10
1615.28
 11
1615.1
 20
1170.75
 21
1170.66
  0
LINE
  8
0
 10
1615.1
 11
1614.92
 20
1170.66
 21
1170.58
  0
LINE
  8
0
 10
1614.92
 11
1614.74
 20
1170.58
 21
1170.51
  0
LINE
  8
0
 10
1614.74
 11
1614.54
 20
1170.51
 21
1170.46
  0
LINE
  8
0
 10
1614.54
 11
1614.35
 20
1170.46
 21
1170.42
  0
LINE
  8
0
 10
1614.35
 11
1614.15
 20
1170.42
 21
1170.4
  0
LINE
  8
0
 10
1614.15
 11
1613.95
 20
1170.4
 21
1170.4
  0
LINE
  8
0
 10
1613.95
 11
1613.75
 20
1170.4
 21
1170.41
  0
LINE
  8
0
 10
1613.75
 11
1613.56
 20
1170.41
 21
1170.44
  0
LINE
  8
0
 10
1613.56
 11
1613.36
 20
1170.44
 21
1170.48
  0
LINE
  8
0
 10
1613.36
 11
1613.17
 20
1170.48
 21
1170.54
  0
LINE
  8
0
 10
1613.17
 11
1612.99
 20
1170.54
 21
1170.62
  0
LINE
  8
0
 10
1612.99
 11
1612.81
 20
1170.62
 21
1170.7
  0
LINE
  8
0
 10
1612.81
 11
1612.64
 20
1170.7
 21
1170.8
  0
LINE
  8
0
 10
1612.64
 11
1612.48
 20
1170.8
 21
1170.92
  0
LINE
  8
0
 10
1612.48
 11
1612.32
 20
1170.92
 21
1171.05
  0
LINE
  8
0
 10
1612.32
 11
1612.18
 20
1171.05
 21
1171.19
  0
LINE
  8
0
 10
1612.18
 11
1612.05
 20
1171.19
 21
1171.34
  0
LINE
  8
0
 10
1612.05
 11
1611.93
 20
1171.34
 21
1171.5
  0
LINE
  8
0
 10
1611.93
 11
1611.83
 20
1171.5
 21
1171.66
  0
LINE
  8
0
 10
1611.83
 11
1611.74
 20
1171.66
 21
1171.84
  0
LINE
  8
0
 10
1611.74
 11
1611.66
 20
1171.84
 21
1172.02
  0
LINE
  8
0
 10
1611.66
 11
1611.6
 20
1172.02
 21
1172.21
  0
LINE
  8
0
 10
1611.6
 11
1611.55
 20
1172.21
 21
1172.41
  0
LINE
  8
0
 10
1611.55
 11
1611.52
 20
1172.41
 21
1172.6
  0
LINE
  8
0
 10
1611.52
 11
1611.5
 20
1172.6
 21
1172.8
  0
LINE
  8
0
 10
1611.5
 11
1611.5
 20
1247.8
 21
1248
  0
LINE
  8
0
 10
1611.5
 11
1611.52
 20
1248
 21
1248.2
  0
LINE
  8
0
 10
1611.52
 11
1611.55
 20
1248.2
 21
1248.39
  0
LINE
  8
0
 10
1611.55
 11
1611.6
 20
1248.39
 21
1248.59
  0
LINE
  8
0
 10
1611.6
 11
1611.66
 20
1248.59
 21
1248.78
  0
LINE
  8
0
 10
1611.66
 11
1611.74
 20
1248.78
 21
1248.96
  0
LINE
  8
0
 10
1611.74
 11
1611.83
 20
1248.96
 21
1249.14
  0
LINE
  8
0
 10
1611.83
 11
1611.93
 20
1249.14
 21
1249.3
  0
LINE
  8
0
 10
1611.93
 11
1612.05
 20
1249.3
 21
1249.46
  0
LINE
  8
0
 10
1612.05
 11
1612.18
 20
1249.46
 21
1249.61
  0
LINE
  8
0
 10
1612.18
 11
1612.32
 20
1249.61
 21
1249.75
  0
LINE
  8
0
 10
1612.32
 11
1612.48
 20
1249.75
 21
1249.88
  0
LINE
  8
0
 10
1612.48
 11
1612.64
 20
1249.88
 21
1250
  0
LINE
  8
0
 10
1612.64
 11
1612.81
 20
1250
 21
1250.1
  0
LINE
  8
0
 10
1612.81
 11
1612.99
 20
1250.1
 21
1250.18
  0
LINE
  8
0
 10
1612.99
 11
1613.17
 20
1250.18
 21
1250.26
  0
LINE
  8
0
 10
1613.17
 11
1613.36
 20
1250.26
 21
1250.32
  0
LINE
  8
0
 10
1613.36
 11
1613.56
 20
1250.32
 21
1250.36
  0
LINE
  8
0
 10
1613.56
 11
1613.75
 20
1250.36
 21
1250.39
  0
LINE
  8
0
 10
1613.75
 11
1613.95
 20
1250.39
 21
1250.4
  0
LINE
  8
0
 10
1613.95
 11
1614.15
 20
1250.4
 21
1250.4
  0
LINE
  8
0
 10
1614.15
 11
1614.35
 20
1250.4
 21
1250.38
  0
LINE
  8
0
 10
1614.35
 11
1614.54
 20
1250.38
 21
1250.34
  0
LINE
  8
0
 10
1614.54
 11
1614.74
 20
1250.34
 21
1250.29
  0
LINE
  8
0
 10
1614.74
 11
1614.92
 20
1250.29
 21
1250.22
  0
LINE
  8
0
 10
1614.92
 11
1615.1
 20
1250.22
 21
1250.14
  0
LINE
  8
0
 10
1615.1
 11
1615.28
 20
1250.14
 21
1250.05
  0
LINE
  8
0
 10
1615.28
 11
1615.44
 20
1250.05
 21
1249.94
  0
LINE
  8
0
 10
1615.44
 11
1615.6
 20
1249.94
 21
1249.82
  0
LINE
  8
0
 10
1615.6
 11
1615.75
 20
1249.82
 21
1249.68
  0
LINE
  8
0
 10
1615.75
 11
1615.89
 20
1249.68
 21
1249.54
  0
LINE
  8
0
 10
1615.89
 11
1616.01
 20
1249.54
 21
1249.39
  0
LINE
  8
0
 10
1616.01
 11
1616.12
 20
1249.39
 21
1249.22
  0
LINE
  8
0
 10
1616.12
 11
1616.22
 20
1249.22
 21
1249.05
  0
LINE
  8
0
 10
1616.22
 11
1616.31
 20
1249.05
 21
1248.87
  0
LINE
  8
0
 10
1616.31
 11
1616.38
 20
1248.87
 21
1248.68
  0
LINE
  8
0
 10
1616.38
 11
1616.43
 20
1248.68
 21
1248.49
  0
LINE
  8
0
 10
1616.43
 11
1616.47
 20
1248.49
 21
1248.3
  0
LINE
  8
0
 10
1616.47
 11
1616.49
 20
1248.3
 21
1248.1
  0
LINE
  8
0
 10
1616.49
 11
1616.5
 20
1248.1
 21
1247.9
  0
LINE
  8
0
 10
1616.5
 11
1616.49
 20
1247.9
 21
1247.7
  0
LINE
  8
0
 10
1616.49
 11
1616.47
 20
1247.7
 21
1247.5
  0
LINE
  8
0
 10
1616.47
 11
1616.43
 20
1247.5
 21
1247.31
  0
LINE
  8
0
 10
1616.43
 11
1616.38
 20
1247.31
 21
1247.12
  0
LINE
  8
0
 10
1616.38
 11
1616.31
 20
1247.12
 21
1246.93
  0
LINE
  8
0
 10
1616.31
 11
1616.22
 20
1246.93
 21
1246.75
  0
LINE
  8
0
 10
1616.22
 11
1616.12
 20
1246.75
 21
1246.58
  0
LINE
  8
0
 10
1616.12
 11
1616.01
 20
1246.58
 21
1246.41
  0
LINE
  8
0
 10
1616.01
 11
1615.89
 20
1246.41
 21
1246.26
  0
LINE
  8
0
 10
1615.89
 11
1615.75
 20
1246.26
 21
1246.12
  0
LINE
  8
0
 10
1615.75
 11
1615.6
 20
1246.12
 21
1245.98
  0
LINE
  8
0
 10
1615.6
 11
1615.44
 20
1245.98
 21
1245.86
  0
LINE
  8
0
 10
1615.44
 11
1615.28
 20
1245.86
 21
1245.75
  0
LINE
  8
0
 10
1615.28
 11
1615.1
 20
1245.75
 21
1245.66
  0
LINE
  8
0
 10
1615.1
 11
1614.92
 20
1245.66
 21
1245.58
  0
LINE
  8
0
 10
1614.92
 11
1614.74
 20
1245.58
 21
1245.51
  0
LINE
  8
0
 10
1614.74
 11
1614.54
 20
1245.51
 21
1245.46
  0
LINE
  8
0
 10
1614.54
 11
1614.35
 20
1245.46
 21
1245.42
  0
LINE
  8
0
 10
1614.35
 11
1614.15
 20
1245.42
 21
1245.4
  0
LINE
  8
0
 10
1614.15
 11
1613.95
 20
1245.4
 21
1245.4
  0
LINE
  8
0
 10
1613.95
 11
1613.75
 20
1245.4
 21
1245.41
  0
LINE
  8
0
 10
1613.75
 11
1613.56
 20
1245.41
 21
1245.44
  0
LINE
  8
0
 10
1613.56
 11
1613.36
 20
1245.44
 21
1245.48
  0
LINE
  8
0
 10
1613.36
 11
1613.17
 20
1245.48
 21
1245.54
  0
LINE
  8
0
 10
1613.17
 11
1612.99
 20
1245.54
 21
1245.62
  0
LINE
  8
0
 10
1612.99
 11
1612.81
 20
1245.62
 21
1245.7
  0
LINE
  8
0
 10
1612.81
 11
1612.64
 20
1245.7
 21
1245.8
  0
LINE
  8
0
 10
1612.64
 11
1612.48
 20
1245.8
 21
1245.92
  0
LINE
  8
0
 10
1612.48
 11
1612.32
 20
1245.92
 21
1246.05
  0
LINE
  8
0
 10
1612.32
 11
1612.18
 20
1246.05
 21
1246.19
  0
LINE
  8
0
 10
1612.18
 11
1612.05
 20
1246.19
 21
1246.34
  0
LINE
  8
0
 10
1612.05
 11
1611.93
 20
1246.34
 21
1246.5
  0
LINE
  8
0
 10
1611.93
 11
1611.83
 20
1246.5
 21
1246.66
  0
LINE
  8
0
 10
1611.83
 11
1611.74
 20
1246.66
 21
1246.84
  0
LINE
  8
0
 10
1611.74
 11
1611.66
 20
1246.84
 21
1247.02
  0
LINE
  8
0
 10
1611.66
 11
1611.6
 20
1247.02
 21
1247.21
  0
LINE
  8
0
 10
1611.6
 11
1611.55
 20
1247.21
 21
1247.41
  0
LINE
  8
0
 10
1611.55
 11
1611.52
 20
1247.41
 21
1247.6
  0
LINE
  8
0
 10
1611.52
 11
1611.5
 20
1247.6
 21
1247.8
  0
LINE
  8
0
 10
1667.96
 11
1667.96
 20
1306.32
 21
1309.28
  0
LINE
  8
0
 10
1667.96
 11
1668.08
 20
1309.28
 21
1310.06
  0
LINE
  8
0
 10
1668.08
 11
1668.44
 20
1310.06
 21
1310.76
  0
LINE
  8
0
 10
1668.44
 11
1669
 20
1310.76
 21
1311.32
  0
LINE
  8
0
 10
1669
 11
1669.7
 20
1311.32
 21
1311.68
  0
LINE
  8
0
 10
1669.7
 11
1670.48
 20
1311.68
 21
1311.8
  0
LINE
  8
0
 10
1670.48
 11
1671.26
 20
1311.8
 21
1311.68
  0
LINE
  8
0
 10
1671.26
 11
1671.96
 20
1311.68
 21
1311.32
  0
LINE
  8
0
 10
1671.96
 11
1672.52
 20
1311.32
 21
1310.76
  0
LINE
  8
0
 10
1672.52
 11
1672.88
 20
1310.76
 21
1310.06
  0
LINE
  8
0
 10
1672.88
 11
1673
 20
1310.06
 21
1309.28
  0
LINE
  8
0
 10
1673
 11
1673
 20
1309.28
 21
1306.32
  0
LINE
  8
0
 10
1673
 11
1672.88
 20
1306.32
 21
1305.54
  0
LINE
  8
0
 10
1672.88
 11
1672.52
 20
1305.54
 21
1304.84
  0
LINE
  8
0
 10
1672.52
 11
1671.96
 20
1304.84
 21
1304.28
  0
LINE
  8
0
 10
1671.96
 11
1671.26
 20
1304.28
 21
1303.92
  0
LINE
  8
0
 10
1671.26
 11
1670.48
 20
1303.92
 21
1303.8
  0
LINE
  8
0
 10
1670.48
 11
1669.7
 20
1303.8
 21
1303.92
  0
LINE
  8
0
 10
1669.7
 11
1669
 20
1303.92
 21
1304.28
  0
LINE
  8
0
 10
1669
 11
1668.44
 20
1304.28
 21
1304.84
  0
LINE
  8
0
 10
1668.44
 11
1668.08
 20
1304.84
 21
1305.54
  0
LINE
  8
0
 10
1668.08
 11
1667.96
 20
1305.54
 21
1306.32
  0
LINE
  8
0
 10
1667.96
 11
1667.96
 20
1598.32
 21
1601.28
  0
LINE
  8
0
 10
1667.96
 11
1668.08
 20
1601.28
 21
1602.06
  0
LINE
  8
0
 10
1668.08
 11
1668.44
 20
1602.06
 21
1602.76
  0
LINE
  8
0
 10
1668.44
 11
1669
 20
1602.76
 21
1603.32
  0
LINE
  8
0
 10
1669
 11
1669.7
 20
1603.32
 21
1603.68
  0
LINE
  8
0
 10
1669.7
 11
1670.48
 20
1603.68
 21
1603.8
  0
LINE
  8
0
 10
1670.48
 11
1671.26
 20
1603.8
 21
1603.68
  0
LINE
  8
0
 10
1671.26
 11
1671.96
 20
1603.68
 21
1603.32
  0
LINE
  8
0
 10
1671.96
 11
1672.52
 20
1603.32
 21
1602.76
  0
LINE
  8
0
 10
1672.52
 11
1672.88
 20
1602.76
 21
1602.06
  0
LINE
  8
0
 10
1672.88
 11
1673
 20
1602.06
 21
1601.28
  0
LINE
  8
0
 10
1673
 11
1673
 20
1601.28
 21
1598.32
  0
LINE
  8
0
 10
1673
 11
1672.88
 20
1598.32
 21
1597.54
  0
LINE
  8
0
 10
1672.88
 11
1672.52
 20
1597.54
 21
1596.84
  0
LINE
  8
0
 10
1672.52
 11
1671.96
 20
1596.84
 21
1596.28
  0
LINE
  8
0
 10
1671.96
 11
1671.26
 20
1596.28
 21
1595.92
  0
LINE
  8
0
 10
1671.26
 11
1670.48
 20
1595.92
 21
1595.8
  0
LINE
  8
0
 10
1670.48
 11
1669.7
 20
1595.8
 21
1595.92
  0
LINE
  8
0
 10
1669.7
 11
1669
 20
1595.92
 21
1596.28
  0
LINE
  8
0
 10
1669
 11
1668.44
 20
1596.28
 21
1596.84
  0
LINE
  8
0
 10
1668.44
 11
1668.08
 20
1596.84
 21
1597.54
  0
LINE
  8
0
 10
1668.08
 11
1667.96
 20
1597.54
 21
1598.32
  0
LINE
  8
0
 10
1670.45
 11
1670.45
 20
7.55
 21
10.45
  0
LINE
  8
0
 10
1670.45
 11
1670.58
 20
10.45
 21
11.238
  0
LINE
  8
0
 10
1670.58
 11
1670.94
 20
11.238
 21
11.949
  0
LINE
  8
0
 10
1670.94
 11
1671.5
 20
11.949
 21
12.513
  0
LINE
  8
0
 10
1671.5
 11
1672.21
 20
12.513
 21
12.875
  0
LINE
  8
0
 10
1672.21
 11
1673
 20
12.875
 21
13
  0
LINE
  8
0
 10
1673
 11
1673.79
 20
13
 21
12.875
  0
LINE
  8
0
 10
1673.79
 11
1674.5
 20
12.875
 21
12.513
  0
LINE
  8
0
 10
1674.5
 11
1675.06
 20
12.513
 21
11.949
  0
LINE
  8
0
 10
1675.06
 11
1675.42
 20
11.949
 21
11.238
  0
LINE
  8
0
 10
1675.42
 11
1675.55
 20
11.238
 21
10.45
  0
LINE
  8
0
 10
1675.55
 11
1675.55
 20
10.45
 21
7.55
  0
LINE
  8
0
 10
1675.55
 11
1675.42
 20
7.55
 21
6.762
  0
LINE
  8
0
 10
1675.42
 11
1675.06
 20
6.762
 21
6.051
  0
LINE
  8
0
 10
1675.06
 11
1674.5
 20
6.051
 21
5.487
  0
LINE
  8
0
 10
1674.5
 11
1673.79
 20
5.487
 21
5.125
  0
LINE
  8
0
 10
1673.79
 11
1673
 20
5.125
 21
5
  0
LINE
  8
0
 10
1673
 11
1672.21
 20
5
 21
5.125
  0
LINE
  8
0
 10
1672.21
 11
1671.5
 20
5.125
 21
5.487
  0
LINE
  8
0
 10
1671.5
 11
1670.94
 20
5.487
 21
6.051
  0
LINE
  8
0
 10
1670.94
 11
1670.58
 20
6.051
 21
6.762
  0
LINE
  8
0
 10
1670.58
 11
1670.45
 20
6.762
 21
7.55
  0
LINE
  8
0
 10
1670.45
 11
1670.45
 20
927.55
 21
930.45
  0
LINE
  8
0
 10
1670.45
 11
1670.58
 20
930.45
 21
931.238
  0
LINE
  8
0
 10
1670.58
 11
1670.94
 20
931.238
 21
931.949
  0
LINE
  8
0
 10
1670.94
 11
1671.5
 20
931.949
 21
932.513
  0
LINE
  8
0
 10
1671.5
 11
1672.21
 20
932.513
 21
932.875
  0
LINE
  8
0
 10
1672.21
 11
1673
 20
932.875
 21
933
  0
LINE
  8
0
 10
1673
 11
1673.79
 20
933
 21
932.875
  0
LINE
  8
0
 10
1673.79
 11
1674.5
 20
932.875
 21
932.513
  0
LINE
  8
0
 10
1674.5
 11
1675.06
 20
932.513
 21
931.949
  0
LINE
  8
0
 10
1675.06
 11
1675.42
 20
931.949
 21
931.238
  0
LINE
  8
0
 10
1675.42
 11
1675.55
 20
931.238
 21
930.45
  0
LINE
  8
0
 10
1675.55
 11
1675.55
 20
930.45
 21
927.55
  0
LINE
  8
0
 10
1675.55
 11
1675.42
 20
927.55
 21
926.762
  0
LINE
  8
0
 10
1675.42
 11
1675.06
 20
926.762
 21
926.051
  0
LINE
  8
0
 10
1675.06
 11
1674.5
 20
926.051
 21
925.487
  0
LINE
  8
0
 10
1674.5
 11
1673.79
 20
925.487
 21
925.125
  0
LINE
  8
0
 10
1673.79
 11
1673
 20
925.125
 21
925
  0
LINE
  8
0
 10
1673
 11
1672.21
 20
925
 21
925.125
  0
LINE
  8
0
 10
1672.21
 11
1671.5
 20
925.125
 21
925.487
  0
LINE
  8
0
 10
1671.5
 11
1670.94
 20
925.487
 21
926.051
  0
LINE
  8
0
 10
1670.94
 11
1670.58
 20
926.051
 21
926.762
  0
LINE
  8
0
 10
1670.58
 11
1670.45
 20
926.762
 21
927.55
  0
LINE
  8
0
 10
1691.5
 11
1691.5
 20
972.301
 21
972.499
  0
LINE
  8
0
 10
1691.5
 11
1691.52
 20
972.499
 21
972.698
  0
LINE
  8
0
 10
1691.52
 11
1691.55
 20
972.698
 21
972.894
  0
LINE
  8
0
 10
1691.55
 11
1691.6
 20
972.894
 21
973.087
  0
LINE
  8
0
 10
1691.6
 11
1691.66
 20
973.087
 21
973.276
  0
LINE
  8
0
 10
1691.66
 11
1691.74
 20
973.276
 21
973.459
  0
LINE
  8
0
 10
1691.74
 11
1691.83
 20
973.459
 21
973.636
  0
LINE
  8
0
 10
1691.83
 11
1691.93
 20
973.636
 21
973.804
  0
LINE
  8
0
 10
1691.93
 11
1692.05
 20
973.804
 21
973.964
  0
LINE
  8
0
 10
1692.05
 11
1692.18
 20
973.964
 21
974.114
  0
LINE
  8
0
 10
1692.18
 11
1692.32
 20
974.114
 21
974.253
  0
LINE
  8
0
 10
1692.32
 11
1692.48
 20
974.253
 21
974.381
  0
LINE
  8
0
 10
1692.48
 11
1692.64
 20
974.381
 21
974.496
  0
LINE
  8
0
 10
1692.64
 11
1692.81
 20
974.496
 21
974.597
  0
LINE
  8
0
 10
1692.81
 11
1692.99
 20
974.597
 21
974.685
  0
LINE
  8
0
 10
1692.99
 11
1693.17
 20
974.685
 21
974.759
  0
LINE
  8
0
 10
1693.17
 11
1693.36
 20
974.759
 21
974.817
  0
LINE
  8
0
 10
1693.36
 11
1693.56
 20
974.817
 21
974.86
  0
LINE
  8
0
 10
1693.56
 11
1693.75
 20
974.86
 21
974.888
  0
LINE
  8
0
 10
1693.75
 11
1693.95
 20
974.888
 21
974.9
  0
LINE
  8
0
 10
1693.95
 11
1694.15
 20
974.9
 21
974.896
  0
LINE
  8
0
 10
1694.15
 11
1694.35
 20
974.896
 21
974.876
  0
LINE
  8
0
 10
1694.35
 11
1694.54
 20
974.876
 21
974.84
  0
LINE
  8
0
 10
1694.54
 11
1694.74
 20
974.84
 21
974.79
  0
LINE
  8
0
 10
1694.74
 11
1694.92
 20
974.79
 21
974.724
  0
LINE
  8
0
 10
1694.92
 11
1695.1
 20
974.724
 21
974.643
  0
LINE
  8
0
 10
1695.1
 11
1695.28
 20
974.643
 21
974.548
  0
LINE
  8
0
 10
1695.28
 11
1695.44
 20
974.548
 21
974.44
  0
LINE
  8
0
 10
1695.44
 11
1695.6
 20
974.44
 21
974.319
  0
LINE
  8
0
 10
1695.6
 11
1695.75
 20
974.319
 21
974.185
  0
LINE
  8
0
 10
1695.75
 11
1695.89
 20
974.185
 21
974.041
  0
LINE
  8
0
 10
1695.89
 11
1696.01
 20
974.041
 21
973.886
  0
LINE
  8
0
 10
1696.01
 11
1696.12
 20
973.886
 21
973.721
  0
LINE
  8
0
 10
1696.12
 11
1696.22
 20
973.721
 21
973.548
  0
LINE
  8
0
 10
1696.22
 11
1696.31
 20
973.548
 21
973.368
  0
LINE
  8
0
 10
1696.31
 11
1696.38
 20
973.368
 21
973.182
  0
LINE
  8
0
 10
1696.38
 11
1696.43
 20
973.182
 21
972.991
  0
LINE
  8
0
 10
1696.43
 11
1696.47
 20
972.991
 21
972.796
  0
LINE
  8
0
 10
1696.47
 11
1696.49
 20
972.796
 21
972.599
  0
LINE
  8
0
 10
1696.49
 11
1696.5
 20
972.599
 21
972.4
  0
LINE
  8
0
 10
1696.5
 11
1696.49
 20
972.4
 21
972.201
  0
LINE
  8
0
 10
1696.49
 11
1696.47
 20
972.201
 21
972.004
  0
LINE
  8
0
 10
1696.47
 11
1696.43
 20
972.004
 21
971.809
  0
LINE
  8
0
 10
1696.43
 11
1696.38
 20
971.809
 21
971.618
  0
LINE
  8
0
 10
1696.38
 11
1696.31
 20
971.618
 21
971.432
  0
LINE
  8
0
 10
1696.31
 11
1696.22
 20
971.432
 21
971.252
  0
LINE
  8
0
 10
1696.22
 11
1696.12
 20
971.252
 21
971.079
  0
LINE
  8
0
 10
1696.12
 11
1696.01
 20
971.079
 21
970.914
  0
LINE
  8
0
 10
1696.01
 11
1695.89
 20
970.914
 21
970.759
  0
LINE
  8
0
 10
1695.89
 11
1695.75
 20
970.759
 21
970.615
  0
LINE
  8
0
 10
1695.75
 11
1695.6
 20
970.615
 21
970.481
  0
LINE
  8
0
 10
1695.6
 11
1695.44
 20
970.481
 21
970.36
  0
LINE
  8
0
 10
1695.44
 11
1695.28
 20
970.36
 21
970.252
  0
LINE
  8
0
 10
1695.28
 11
1695.1
 20
970.252
 21
970.157
  0
LINE
  8
0
 10
1695.1
 11
1694.92
 20
970.157
 21
970.076
  0
LINE
  8
0
 10
1694.92
 11
1694.74
 20
970.076
 21
970.01
  0
LINE
  8
0
 10
1694.74
 11
1694.54
 20
970.01
 21
969.96
  0
LINE
  8
0
 10
1694.54
 11
1694.35
 20
969.96
 21
969.924
  0
LINE
  8
0
 10
1694.35
 11
1694.15
 20
969.924
 21
969.904
  0
LINE
  8
0
 10
1694.15
 11
1693.95
 20
969.904
 21
969.9
  0
LINE
  8
0
 10
1693.95
 11
1693.75
 20
969.9
 21
969.912
  0
LINE
  8
0
 10
1693.75
 11
1693.56
 20
969.912
 21
969.94
  0
LINE
  8
0
 10
1693.56
 11
1693.36
 20
969.94
 21
969.983
  0
LINE
  8
0
 10
1693.36
 11
1693.17
 20
969.983
 21
970.041
  0
LINE
  8
0
 10
1693.17
 11
1692.99
 20
970.041
 21
970.115
  0
LINE
  8
0
 10
1692.99
 11
1692.81
 20
970.115
 21
970.203
  0
LINE
  8
0
 10
1692.81
 11
1692.64
 20
970.203
 21
970.304
  0
LINE
  8
0
 10
1692.64
 11
1692.48
 20
970.304
 21
970.419
  0
LINE
  8
0
 10
1692.48
 11
1692.32
 20
970.419
 21
970.547
  0
LINE
  8
0
 10
1692.32
 11
1692.18
 20
970.547
 21
970.686
  0
LINE
  8
0
 10
1692.18
 11
1692.05
 20
970.686
 21
970.836
  0
LINE
  8
0
 10
1692.05
 11
1691.93
 20
970.836
 21
970.996
  0
LINE
  8
0
 10
1691.93
 11
1691.83
 20
970.996
 21
971.164
  0
LINE
  8
0
 10
1691.83
 11
1691.74
 20
971.164
 21
971.341
  0
LINE
  8
0
 10
1691.74
 11
1691.66
 20
971.341
 21
971.524
  0
LINE
  8
0
 10
1691.66
 11
1691.6
 20
971.524
 21
971.713
  0
LINE
  8
0
 10
1691.6
 11
1691.55
 20
971.713
 21
971.906
  0
LINE
  8
0
 10
1691.55
 11
1691.52
 20
971.906
 21
972.102
  0
LINE
  8
0
 10
1691.52
 11
1691.5
 20
972.102
 21
972.301
  0
LINE
  8
0
 10
1711.5
 11
1711.5
 20
1172.8
 21
1173
  0
LINE
  8
0
 10
1711.5
 11
1711.52
 20
1173
 21
1173.2
  0
LINE
  8
0
 10
1711.52
 11
1711.55
 20
1173.2
 21
1173.39
  0
LINE
  8
0
 10
1711.55
 11
1711.6
 20
1173.39
 21
1173.59
  0
LINE
  8
0
 10
1711.6
 11
1711.66
 20
1173.59
 21
1173.78
  0
LINE
  8
0
 10
1711.66
 11
1711.74
 20
1173.78
 21
1173.96
  0
LINE
  8
0
 10
1711.74
 11
1711.83
 20
1173.96
 21
1174.14
  0
LINE
  8
0
 10
1711.83
 11
1711.93
 20
1174.14
 21
1174.3
  0
LINE
  8
0
 10
1711.93
 11
1712.05
 20
1174.3
 21
1174.46
  0
LINE
  8
0
 10
1712.05
 11
1712.18
 20
1174.46
 21
1174.61
  0
LINE
  8
0
 10
1712.18
 11
1712.32
 20
1174.61
 21
1174.75
  0
LINE
  8
0
 10
1712.32
 11
1712.48
 20
1174.75
 21
1174.88
  0
LINE
  8
0
 10
1712.48
 11
1712.64
 20
1174.88
 21
1175
  0
LINE
  8
0
 10
1712.64
 11
1712.81
 20
1175
 21
1175.1
  0
LINE
  8
0
 10
1712.81
 11
1712.99
 20
1175.1
 21
1175.18
  0
LINE
  8
0
 10
1712.99
 11
1713.17
 20
1175.18
 21
1175.26
  0
LINE
  8
0
 10
1713.17
 11
1713.36
 20
1175.26
 21
1175.32
  0
LINE
  8
0
 10
1713.36
 11
1713.56
 20
1175.32
 21
1175.36
  0
LINE
  8
0
 10
1713.56
 11
1713.75
 20
1175.36
 21
1175.39
  0
LINE
  8
0
 10
1713.75
 11
1713.95
 20
1175.39
 21
1175.4
  0
LINE
  8
0
 10
1713.95
 11
1714.15
 20
1175.4
 21
1175.4
  0
LINE
  8
0
 10
1714.15
 11
1714.35
 20
1175.4
 21
1175.38
  0
LINE
  8
0
 10
1714.35
 11
1714.54
 20
1175.38
 21
1175.34
  0
LINE
  8
0
 10
1714.54
 11
1714.74
 20
1175.34
 21
1175.29
  0
LINE
  8
0
 10
1714.74
 11
1714.92
 20
1175.29
 21
1175.22
  0
LINE
  8
0
 10
1714.92
 11
1715.1
 20
1175.22
 21
1175.14
  0
LINE
  8
0
 10
1715.1
 11
1715.28
 20
1175.14
 21
1175.05
  0
LINE
  8
0
 10
1715.28
 11
1715.44
 20
1175.05
 21
1174.94
  0
LINE
  8
0
 10
1715.44
 11
1715.6
 20
1174.94
 21
1174.82
  0
LINE
  8
0
 10
1715.6
 11
1715.75
 20
1174.82
 21
1174.68
  0
LINE
  8
0
 10
1715.75
 11
1715.89
 20
1174.68
 21
1174.54
  0
LINE
  8
0
 10
1715.89
 11
1716.01
 20
1174.54
 21
1174.39
  0
LINE
  8
0
 10
1716.01
 11
1716.12
 20
1174.39
 21
1174.22
  0
LINE
  8
0
 10
1716.12
 11
1716.22
 20
1174.22
 21
1174.05
  0
LINE
  8
0
 10
1716.22
 11
1716.31
 20
1174.05
 21
1173.87
  0
LINE
  8
0
 10
1716.31
 11
1716.38
 20
1173.87
 21
1173.68
  0
LINE
  8
0
 10
1716.38
 11
1716.43
 20
1173.68
 21
1173.49
  0
LINE
  8
0
 10
1716.43
 11
1716.47
 20
1173.49
 21
1173.3
  0
LINE
  8
0
 10
1716.47
 11
1716.49
 20
1173.3
 21
1173.1
  0
LINE
  8
0
 10
1716.49
 11
1716.5
 20
1173.1
 21
1172.9
  0
LINE
  8
0
 10
1716.5
 11
1716.49
 20
1172.9
 21
1172.7
  0
LINE
  8
0
 10
1716.49
 11
1716.47
 20
1172.7
 21
1172.5
  0
LINE
  8
0
 10
1716.47
 11
1716.43
 20
1172.5
 21
1172.31
  0
LINE
  8
0
 10
1716.43
 11
1716.38
 20
1172.31
 21
1172.12
  0
LINE
  8
0
 10
1716.38
 11
1716.31
 20
1172.12
 21
1171.93
  0
LINE
  8
0
 10
1716.31
 11
1716.22
 20
1171.93
 21
1171.75
  0
LINE
  8
0
 10
1716.22
 11
1716.12
 20
1171.75
 21
1171.58
  0
LINE
  8
0
 10
1716.12
 11
1716.01
 20
1171.58
 21
1171.41
  0
LINE
  8
0
 10
1716.01
 11
1715.89
 20
1171.41
 21
1171.26
  0
LINE
  8
0
 10
1715.89
 11
1715.75
 20
1171.26
 21
1171.12
  0
LINE
  8
0
 10
1715.75
 11
1715.6
 20
1171.12
 21
1170.98
  0
LINE
  8
0
 10
1715.6
 11
1715.44
 20
1170.98
 21
1170.86
  0
LINE
  8
0
 10
1715.44
 11
1715.28
 20
1170.86
 21
1170.75
  0
LINE
  8
0
 10
1715.28
 11
1715.1
 20
1170.75
 21
1170.66
  0
LINE
  8
0
 10
1715.1
 11
1714.92
 20
1170.66
 21
1170.58
  0
LINE
  8
0
 10
1714.92
 11
1714.74
 20
1170.58
 21
1170.51
  0
LINE
  8
0
 10
1714.74
 11
1714.54
 20
1170.51
 21
1170.46
  0
LINE
  8
0
 10
1714.54
 11
1714.35
 20
1170.46
 21
1170.42
  0
LINE
  8
0
 10
1714.35
 11
1714.15
 20
1170.42
 21
1170.4
  0
LINE
  8
0
 10
1714.15
 11
1713.95
 20
1170.4
 21
1170.4
  0
LINE
  8
0
 10
1713.95
 11
1713.75
 20
1170.4
 21
1170.41
  0
LINE
  8
0
 10
1713.75
 11
1713.56
 20
1170.41
 21
1170.44
  0
LINE
  8
0
 10
1713.56
 11
1713.36
 20
1170.44
 21
1170.48
  0
LINE
  8
0
 10
1713.36
 11
1713.17
 20
1170.48
 21
1170.54
  0
LINE
  8
0
 10
1713.17
 11
1712.99
 20
1170.54
 21
1170.62
  0
LINE
  8
0
 10
1712.99
 11
1712.81
 20
1170.62
 21
1170.7
  0
LINE
  8
0
 10
1712.81
 11
1712.64
 20
1170.7
 21
1170.8
  0
LINE
  8
0
 10
1712.64
 11
1712.48
 20
1170.8
 21
1170.92
  0
LINE
  8
0
 10
1712.48
 11
1712.32
 20
1170.92
 21
1171.05
  0
LINE
  8
0
 10
1712.32
 11
1712.18
 20
1171.05
 21
1171.19
  0
LINE
  8
0
 10
1712.18
 11
1712.05
 20
1171.19
 21
1171.34
  0
LINE
  8
0
 10
1712.05
 11
1711.93
 20
1171.34
 21
1171.5
  0
LINE
  8
0
 10
1711.93
 11
1711.83
 20
1171.5
 21
1171.66
  0
LINE
  8
0
 10
1711.83
 11
1711.74
 20
1171.66
 21
1171.84
  0
LINE
  8
0
 10
1711.74
 11
1711.66
 20
1171.84
 21
1172.02
  0
LINE
  8
0
 10
1711.66
 11
1711.6
 20
1172.02
 21
1172.21
  0
LINE
  8
0
 10
1711.6
 11
1711.55
 20
1172.21
 21
1172.41
  0
LINE
  8
0
 10
1711.55
 11
1711.52
 20
1172.41
 21
1172.6
  0
LINE
  8
0
 10
1711.52
 11
1711.5
 20
1172.6
 21
1172.8
  0
LINE
  8
0
 10
1711.5
 11
1711.5
 20
1247.8
 21
1248
  0
LINE
  8
0
 10
1711.5
 11
1711.52
 20
1248
 21
1248.2
  0
LINE
  8
0
 10
1711.52
 11
1711.55
 20
1248.2
 21
1248.39
  0
LINE
  8
0
 10
1711.55
 11
1711.6
 20
1248.39
 21
1248.59
  0
LINE
  8
0
 10
1711.6
 11
1711.66
 20
1248.59
 21
1248.78
  0
LINE
  8
0
 10
1711.66
 11
1711.74
 20
1248.78
 21
1248.96
  0
LINE
  8
0
 10
1711.74
 11
1711.83
 20
1248.96
 21
1249.14
  0
LINE
  8
0
 10
1711.83
 11
1711.93
 20
1249.14
 21
1249.3
  0
LINE
  8
0
 10
1711.93
 11
1712.05
 20
1249.3
 21
1249.46
  0
LINE
  8
0
 10
1712.05
 11
1712.18
 20
1249.46
 21
1249.61
  0
LINE
  8
0
 10
1712.18
 11
1712.32
 20
1249.61
 21
1249.75
  0
LINE
  8
0
 10
1712.32
 11
1712.48
 20
1249.75
 21
1249.88
  0
LINE
  8
0
 10
1712.48
 11
1712.64
 20
1249.88
 21
1250
  0
LINE
  8
0
 10
1712.64
 11
1712.81
 20
1250
 21
1250.1
  0
LINE
  8
0
 10
1712.81
 11
1712.99
 20
1250.1
 21
1250.18
  0
LINE
  8
0
 10
1712.99
 11
1713.17
 20
1250.18
 21
1250.26
  0
LINE
  8
0
 10
1713.17
 11
1713.36
 20
1250.26
 21
1250.32
  0
LINE
  8
0
 10
1713.36
 11
1713.56
 20
1250.32
 21
1250.36
  0
LINE
  8
0
 10
1713.56
 11
1713.75
 20
1250.36
 21
1250.39
  0
LINE
  8
0
 10
1713.75
 11
1713.95
 20
1250.39
 21
1250.4
  0
LINE
  8
0
 10
1713.95
 11
1714.15
 20
1250.4
 21
1250.4
  0
LINE
  8
0
 10
1714.15
 11
1714.35
 20
1250.4
 21
1250.38
  0
LINE
  8
0
 10
1714.35
 11
1714.54
 20
1250.38
 21
1250.34
  0
LINE
  8
0
 10
1714.54
 11
1714.74
 20
1250.34
 21
1250.29
  0
LINE
  8
0
 10
1714.74
 11
1714.92
 20
1250.29
 21
1250.22
  0
LINE
  8
0
 10
1714.92
 11
1715.1
 20
1250.22
 21
1250.14
  0
LINE
  8
0
 10
1715.1
 11
1715.28
 20
1250.14
 21
1250.05
  0
LINE
  8
0
 10
1715.28
 11
1715.44
 20
1250.05
 21
1249.94
  0
LINE
  8
0
 10
1715.44
 11
1715.6
 20
1249.94
 21
1249.82
  0
LINE
  8
0
 10
1715.6
 11
1715.75
 20
1249.82
 21
1249.68
  0
LINE
  8
0
 10
1715.75
 11
1715.89
 20
1249.68
 21
1249.54
  0
LINE
  8
0
 10
1715.89
 11
1716.01
 20
1249.54
 21
1249.39
  0
LINE
  8
0
 10
1716.01
 11
1716.12
 20
1249.39
 21
1249.22
  0
LINE
  8
0
 10
1716.12
 11
1716.22
 20
1249.22
 21
1249.05
  0
LINE
  8
0
 10
1716.22
 11
1716.31
 20
1249.05
 21
1248.87
  0
LINE
  8
0
 10
1716.31
 11
1716.38
 20
1248.87
 21
1248.68
  0
LINE
  8
0
 10
1716.38
 11
1716.43
 20
1248.68
 21
1248.49
  0
LINE
  8
0
 10
1716.43
 11
1716.47
 20
1248.49
 21
1248.3
  0
LINE
  8
0
 10
1716.47
 11
1716.49
 20
1248.3
 21
1248.1
  0
LINE
  8
0
 10
1716.49
 11
1716.5
 20
1248.1
 21
1247.9
  0
LINE
  8
0
 10
1716.5
 11
1716.49
 20
1247.9
 21
1247.7
  0
LINE
  8
0
 10
1716.49
 11
1716.47
 20
1247.7
 21
1247.5
  0
LINE
  8
0
 10
1716.47
 11
1716.43
 20
1247.5
 21
1247.31
  0
LINE
  8
0
 10
1716.43
 11
1716.38
 20
1247.31
 21
1247.12
  0
LINE
  8
0
 10
1716.38
 11
1716.31
 20
1247.12
 21
1246.93
  0
LINE
  8
0
 10
1716.31
 11
1716.22
 20
1246.93
 21
1246.75
  0
LINE
  8
0
 10
1716.22
 11
1716.12
 20
1246.75
 21
1246.58
  0
LINE
  8
0
 10
1716.12
 11
1716.01
 20
1246.58
 21
1246.41
  0
LINE
  8
0
 10
1716.01
 11
1715.89
 20
1246.41
 21
1246.26
  0
LINE
  8
0
 10
1715.89
 11
1715.75
 20
1246.26
 21
1246.12
  0
LINE
  8
0
 10
1715.75
 11
1715.6
 20
1246.12
 21
1245.98
  0
LINE
  8
0
 10
1715.6
 11
1715.44
 20
1245.98
 21
1245.86
  0
LINE
  8
0
 10
1715.44
 11
1715.28
 20
1245.86
 21
1245.75
  0
LINE
  8
0
 10
1715.28
 11
1715.1
 20
1245.75
 21
1245.66
  0
LINE
  8
0
 10
1715.1
 11
1714.92
 20
1245.66
 21
1245.58
  0
LINE
  8
0
 10
1714.92
 11
1714.74
 20
1245.58
 21
1245.51
  0
LINE
  8
0
 10
1714.74
 11
1714.54
 20
1245.51
 21
1245.46
  0
LINE
  8
0
 10
1714.54
 11
1714.35
 20
1245.46
 21
1245.42
  0
LINE
  8
0
 10
1714.35
 11
1714.15
 20
1245.42
 21
1245.4
  0
LINE
  8
0
 10
1714.15
 11
1713.95
 20
1245.4
 21
1245.4
  0
LINE
  8
0
 10
1713.95
 11
1713.75
 20
1245.4
 21
1245.41
  0
LINE
  8
0
 10
1713.75
 11
1713.56
 20
1245.41
 21
1245.44
  0
LINE
  8
0
 10
1713.56
 11
1713.36
 20
1245.44
 21
1245.48
  0
LINE
  8
0
 10
1713.36
 11
1713.17
 20
1245.48
 21
1245.54
  0
LINE
  8
0
 10
1713.17
 11
1712.99
 20
1245.54
 21
1245.62
  0
LINE
  8
0
 10
1712.99
 11
1712.81
 20
1245.62
 21
1245.7
  0
LINE
  8
0
 10
1712.81
 11
1712.64
 20
1245.7
 21
1245.8
  0
LINE
  8
0
 10
1712.64
 11
1712.48
 20
1245.8
 21
1245.92
  0
LINE
  8
0
 10
1712.48
 11
1712.32
 20
1245.92
 21
1246.05
  0
LINE
  8
0
 10
1712.32
 11
1712.18
 20
1246.05
 21
1246.19
  0
LINE
  8
0
 10
1712.18
 11
1712.05
 20
1246.19
 21
1246.34
  0
LINE
  8
0
 10
1712.05
 11
1711.93
 20
1246.34
 21
1246.5
  0
LINE
  8
0
 10
1711.93
 11
1711.83
 20
1246.5
 21
1246.66
  0
LINE
  8
0
 10
1711.83
 11
1711.74
 20
1246.66
 21
1246.84
  0
LINE
  8
0
 10
1711.74
 11
1711.66
 20
1246.84
 21
1247.02
  0
LINE
  8
0
 10
1711.66
 11
1711.6
 20
1247.02
 21
1247.21
  0
LINE
  8
0
 10
1711.6
 11
1711.55
 20
1247.21
 21
1247.41
  0
LINE
  8
0
 10
1711.55
 11
1711.52
 20
1247.41
 21
1247.6
  0
LINE
  8
0
 10
1711.52
 11
1711.5
 20
1247.6
 21
1247.8
  0
LINE
  8
0
 10
1740.5
 11
1740.5
 20
1264.3
 21
1264.5
  0
LINE
  8
0
 10
1740.5
 11
1740.52
 20
1264.5
 21
1264.7
  0
LINE
  8
0
 10
1740.52
 11
1740.55
 20
1264.7
 21
1264.89
  0
LINE
  8
0
 10
1740.55
 11
1740.6
 20
1264.89
 21
1265.09
  0
LINE
  8
0
 10
1740.6
 11
1740.66
 20
1265.09
 21
1265.28
  0
LINE
  8
0
 10
1740.66
 11
1740.74
 20
1265.28
 21
1265.46
  0
LINE
  8
0
 10
1740.74
 11
1740.83
 20
1265.46
 21
1265.64
  0
LINE
  8
0
 10
1740.83
 11
1740.93
 20
1265.64
 21
1265.8
  0
LINE
  8
0
 10
1740.93
 11
1741.05
 20
1265.8
 21
1265.96
  0
LINE
  8
0
 10
1741.05
 11
1741.18
 20
1265.96
 21
1266.11
  0
LINE
  8
0
 10
1741.18
 11
1741.32
 20
1266.11
 21
1266.25
  0
LINE
  8
0
 10
1741.32
 11
1741.48
 20
1266.25
 21
1266.38
  0
LINE
  8
0
 10
1741.48
 11
1741.64
 20
1266.38
 21
1266.5
  0
LINE
  8
0
 10
1741.64
 11
1741.81
 20
1266.5
 21
1266.6
  0
LINE
  8
0
 10
1741.81
 11
1741.99
 20
1266.6
 21
1266.68
  0
LINE
  8
0
 10
1741.99
 11
1742.17
 20
1266.68
 21
1266.76
  0
LINE
  8
0
 10
1742.17
 11
1742.36
 20
1266.76
 21
1266.82
  0
LINE
  8
0
 10
1742.36
 11
1742.56
 20
1266.82
 21
1266.86
  0
LINE
  8
0
 10
1742.56
 11
1742.75
 20
1266.86
 21
1266.89
  0
LINE
  8
0
 10
1742.75
 11
1742.95
 20
1266.89
 21
1266.9
  0
LINE
  8
0
 10
1742.95
 11
1743.15
 20
1266.9
 21
1266.9
  0
LINE
  8
0
 10
1743.15
 11
1743.35
 20
1266.9
 21
1266.88
  0
LINE
  8
0
 10
1743.35
 11
1743.54
 20
1266.88
 21
1266.84
  0
LINE
  8
0
 10
1743.54
 11
1743.74
 20
1266.84
 21
1266.79
  0
LINE
  8
0
 10
1743.74
 11
1743.92
 20
1266.79
 21
1266.72
  0
LINE
  8
0
 10
1743.92
 11
1744.1
 20
1266.72
 21
1266.64
  0
LINE
  8
0
 10
1744.1
 11
1744.28
 20
1266.64
 21
1266.55
  0
LINE
  8
0
 10
1744.28
 11
1744.44
 20
1266.55
 21
1266.44
  0
LINE
  8
0
 10
1744.44
 11
1744.6
 20
1266.44
 21
1266.32
  0
LINE
  8
0
 10
1744.6
 11
1744.75
 20
1266.32
 21
1266.18
  0
LINE
  8
0
 10
1744.75
 11
1744.89
 20
1266.18
 21
1266.04
  0
LINE
  8
0
 10
1744.89
 11
1745.01
 20
1266.04
 21
1265.89
  0
LINE
  8
0
 10
1745.01
 11
1745.12
 20
1265.89
 21
1265.72
  0
LINE
  8
0
 10
1745.12
 11
1745.22
 20
1265.72
 21
1265.55
  0
LINE
  8
0
 10
1745.22
 11
1745.31
 20
1265.55
 21
1265.37
  0
LINE
  8
0
 10
1745.31
 11
1745.38
 20
1265.37
 21
1265.18
  0
LINE
  8
0
 10
1745.38
 11
1745.43
 20
1265.18
 21
1264.99
  0
LINE
  8
0
 10
1745.43
 11
1745.47
 20
1264.99
 21
1264.8
  0
LINE
  8
0
 10
1745.47
 11
1745.49
 20
1264.8
 21
1264.6
  0
LINE
  8
0
 10
1745.49
 11
1745.5
 20
1264.6
 21
1264.4
  0
LINE
  8
0
 10
1745.5
 11
1745.49
 20
1264.4
 21
1264.2
  0
LINE
  8
0
 10
1745.49
 11
1745.47
 20
1264.2
 21
1264
  0
LINE
  8
0
 10
1745.47
 11
1745.43
 20
1264
 21
1263.81
  0
LINE
  8
0
 10
1745.43
 11
1745.38
 20
1263.81
 21
1263.62
  0
LINE
  8
0
 10
1745.38
 11
1745.31
 20
1263.62
 21
1263.43
  0
LINE
  8
0
 10
1745.31
 11
1745.22
 20
1263.43
 21
1263.25
  0
LINE
  8
0
 10
1745.22
 11
1745.12
 20
1263.25
 21
1263.08
  0
LINE
  8
0
 10
1745.12
 11
1745.01
 20
1263.08
 21
1262.91
  0
LINE
  8
0
 10
1745.01
 11
1744.89
 20
1262.91
 21
1262.76
  0
LINE
  8
0
 10
1744.89
 11
1744.75
 20
1262.76
 21
1262.62
  0
LINE
  8
0
 10
1744.75
 11
1744.6
 20
1262.62
 21
1262.48
  0
LINE
  8
0
 10
1744.6
 11
1744.44
 20
1262.48
 21
1262.36
  0
LINE
  8
0
 10
1744.44
 11
1744.28
 20
1262.36
 21
1262.25
  0
LINE
  8
0
 10
1744.28
 11
1744.1
 20
1262.25
 21
1262.16
  0
LINE
  8
0
 10
1744.1
 11
1743.92
 20
1262.16
 21
1262.08
  0
LINE
  8
0
 10
1743.92
 11
1743.74
 20
1262.08
 21
1262.01
  0
LINE
  8
0
 10
1743.74
 11
1743.54
 20
1262.01
 21
1261.96
  0
LINE
  8
0
 10
1743.54
 11
1743.35
 20
1261.96
 21
1261.92
  0
LINE
  8
0
 10
1743.35
 11
1743.15
 20
1261.92
 21
1261.9
  0
LINE
  8
0
 10
1743.15
 11
1742.95
 20
1261.9
 21
1261.9
  0
LINE
  8
0
 10
1742.95
 11
1742.75
 20
1261.9
 21
1261.91
  0
LINE
  8
0
 10
1742.75
 11
1742.56
 20
1261.91
 21
1261.94
  0
LINE
  8
0
 10
1742.56
 11
1742.36
 20
1261.94
 21
1261.98
  0
LINE
  8
0
 10
1742.36
 11
1742.17
 20
1261.98
 21
1262.04
  0
LINE
  8
0
 10
1742.17
 11
1741.99
 20
1262.04
 21
1262.12
  0
LINE
  8
0
 10
1741.99
 11
1741.81
 20
1262.12
 21
1262.2
  0
LINE
  8
0
 10
1741.81
 11
1741.64
 20
1262.2
 21
1262.3
  0
LINE
  8
0
 10
1741.64
 11
1741.48
 20
1262.3
 21
1262.42
  0
LINE
  8
0
 10
1741.48
 11
1741.32
 20
1262.42
 21
1262.55
  0
LINE
  8
0
 10
1741.32
 11
1741.18
 20
1262.55
 21
1262.69
  0
LINE
  8
0
 10
1741.18
 11
1741.05
 20
1262.69
 21
1262.84
  0
LINE
  8
0
 10
1741.05
 11
1740.93
 20
1262.84
 21
1263
  0
LINE
  8
0
 10
1740.93
 11
1740.83
 20
1263
 21
1263.16
  0
LINE
  8
0
 10
1740.83
 11
1740.74
 20
1263.16
 21
1263.34
  0
LINE
  8
0
 10
1740.74
 11
1740.66
 20
1263.34
 21
1263.52
  0
LINE
  8
0
 10
1740.66
 11
1740.6
 20
1263.52
 21
1263.71
  0
LINE
  8
0
 10
1740.6
 11
1740.55
 20
1263.71
 21
1263.91
  0
LINE
  8
0
 10
1740.55
 11
1740.52
 20
1263.91
 21
1264.1
  0
LINE
  8
0
 10
1740.52
 11
1740.5
 20
1264.1
 21
1264.3
  0
LINE
  8
0
 10
1780
 11
1780.12
 20
80
 21
80.788
  0
LINE
  8
0
 10
1780.12
 11
1780.49
 20
80.788
 21
81.499
  0
LINE
  8
0
 10
1780.49
 11
1781.05
 20
81.499
 21
82.063
  0
LINE
  8
0
 10
1781.05
 11
1781.76
 20
82.063
 21
82.425
  0
LINE
  8
0
 10
1781.76
 11
1782.55
 20
82.425
 21
82.55
  0
LINE
  8
0
 10
1782.55
 11
1785.45
 20
82.55
 21
82.55
  0
LINE
  8
0
 10
1785.45
 11
1786.24
 20
82.55
 21
82.425
  0
LINE
  8
0
 10
1786.24
 11
1786.95
 20
82.425
 21
82.063
  0
LINE
  8
0
 10
1786.95
 11
1787.51
 20
82.063
 21
81.499
  0
LINE
  8
0
 10
1787.51
 11
1787.88
 20
81.499
 21
80.788
  0
LINE
  8
0
 10
1787.88
 11
1788
 20
80.788
 21
80
  0
LINE
  8
0
 10
1788
 11
1787.88
 20
80
 21
79.212
  0
LINE
  8
0
 10
1787.88
 11
1787.51
 20
79.212
 21
78.501
  0
LINE
  8
0
 10
1787.51
 11
1786.95
 20
78.501
 21
77.937
  0
LINE
  8
0
 10
1786.95
 11
1786.24
 20
77.937
 21
77.575
  0
LINE
  8
0
 10
1786.24
 11
1785.45
 20
77.575
 21
77.45
  0
LINE
  8
0
 10
1785.45
 11
1782.55
 20
77.45
 21
77.45
  0
LINE
  8
0
 10
1782.55
 11
1781.76
 20
77.45
 21
77.575
  0
LINE
  8
0
 10
1781.76
 11
1781.05
 20
77.575
 21
77.937
  0
LINE
  8
0
 10
1781.05
 11
1780.49
 20
77.937
 21
78.501
  0
LINE
  8
0
 10
1780.49
 11
1780.12
 20
78.501
 21
79.212
  0
LINE
  8
0
 10
1780.12
 11
1780
 20
79.212
 21
80
  0
LINE
  8
0
 10
1780
 11
1780.12
 20
469
 21
469.788
  0
LINE
  8
0
 10
1780.12
 11
1780.49
 20
469.788
 21
470.499
  0
LINE
  8
0
 10
1780.49
 11
1781.05
 20
470.499
 21
471.063
  0
LINE
  8
0
 10
1781.05
 11
1781.76
 20
471.063
 21
471.425
  0
LINE
  8
0
 10
1781.76
 11
1782.55
 20
471.425
 21
471.55
  0
LINE
  8
0
 10
1782.55
 11
1785.45
 20
471.55
 21
471.55
  0
LINE
  8
0
 10
1785.45
 11
1786.24
 20
471.55
 21
471.425
  0
LINE
  8
0
 10
1786.24
 11
1786.95
 20
471.425
 21
471.063
  0
LINE
  8
0
 10
1786.95
 11
1787.51
 20
471.063
 21
470.499
  0
LINE
  8
0
 10
1787.51
 11
1787.88
 20
470.499
 21
469.788
  0
LINE
  8
0
 10
1787.88
 11
1788
 20
469.788
 21
469
  0
LINE
  8
0
 10
1788
 11
1787.88
 20
469
 21
468.212
  0
LINE
  8
0
 10
1787.88
 11
1787.51
 20
468.212
 21
467.501
  0
LINE
  8
0
 10
1787.51
 11
1786.95
 20
467.501
 21
466.937
  0
LINE
  8
0
 10
1786.95
 11
1786.24
 20
466.937
 21
466.575
  0
LINE
  8
0
 10
1786.24
 11
1785.45
 20
466.575
 21
466.45
  0
LINE
  8
0
 10
1785.45
 11
1782.55
 20
466.45
 21
466.45
  0
LINE
  8
0
 10
1782.55
 11
1781.76
 20
466.45
 21
466.575
  0
LINE
  8
0
 10
1781.76
 11
1781.05
 20
466.575
 21
466.937
  0
LINE
  8
0
 10
1781.05
 11
1780.49
 20
466.937
 21
467.501
  0
LINE
  8
0
 10
1780.49
 11
1780.12
 20
467.501
 21
468.212
  0
LINE
  8
0
 10
1780.12
 11
1780
 20
468.212
 21
469
  0
LINE
  8
0
 10
1780
 11
1780.12
 20
858
 21
858.788
  0
LINE
  8
0
 10
1780.12
 11
1780.49
 20
858.788
 21
859.499
  0
LINE
  8
0
 10
1780.49
 11
1781.05
 20
859.499
 21
860.063
  0
LINE
  8
0
 10
1781.05
 11
1781.76
 20
860.063
 21
860.425
  0
LINE
  8
0
 10
1781.76
 11
1782.55
 20
860.425
 21
860.55
  0
LINE
  8
0
 10
1782.55
 11
1785.45
 20
860.55
 21
860.55
  0
LINE
  8
0
 10
1785.45
 11
1786.24
 20
860.55
 21
860.425
  0
LINE
  8
0
 10
1786.24
 11
1786.95
 20
860.425
 21
860.063
  0
LINE
  8
0
 10
1786.95
 11
1787.51
 20
860.063
 21
859.499
  0
LINE
  8
0
 10
1787.51
 11
1787.88
 20
859.499
 21
858.788
  0
LINE
  8
0
 10
1787.88
 11
1788
 20
858.788
 21
858
  0
LINE
  8
0
 10
1788
 11
1787.88
 20
858
 21
857.212
  0
LINE
  8
0
 10
1787.88
 11
1787.51
 20
857.212
 21
856.501
  0
LINE
  8
0
 10
1787.51
 11
1786.95
 20
856.501
 21
855.937
  0
LINE
  8
0
 10
1786.95
 11
1786.24
 20
855.937
 21
855.575
  0
LINE
  8
0
 10
1786.24
 11
1785.45
 20
855.575
 21
855.45
  0
LINE
  8
0
 10
1785.45
 11
1782.55
 20
855.45
 21
855.45
  0
LINE
  8
0
 10
1782.55
 11
1781.76
 20
855.45
 21
855.575
  0
LINE
  8
0
 10
1781.76
 11
1781.05
 20
855.575
 21
855.937
  0
LINE
  8
0
 10
1781.05
 11
1780.49
 20
855.937
 21
856.501
  0
LINE
  8
0
 10
1780.49
 11
1780.12
 20
856.501
 21
857.212
  0
LINE
  8
0
 10
1780.12
 11
1780
 20
857.212
 21
858
  0
LINE
  8
0
 10
1780
 11
1780.12
 20
1453.8
 21
1454.58
  0
LINE
  8
0
 10
1780.12
 11
1780.48
 20
1454.58
 21
1455.28
  0
LINE
  8
0
 10
1780.48
 11
1781.04
 20
1455.28
 21
1455.84
  0
LINE
  8
0
 10
1781.04
 11
1781.74
 20
1455.84
 21
1456.2
  0
LINE
  8
0
 10
1781.74
 11
1782.52
 20
1456.2
 21
1456.32
  0
LINE
  8
0
 10
1782.52
 11
1785.48
 20
1456.32
 21
1456.32
  0
LINE
  8
0
 10
1785.48
 11
1786.26
 20
1456.32
 21
1456.2
  0
LINE
  8
0
 10
1786.26
 11
1786.96
 20
1456.2
 21
1455.84
  0
LINE
  8
0
 10
1786.96
 11
1787.52
 20
1455.84
 21
1455.28
  0
LINE
  8
0
 10
1787.52
 11
1787.88
 20
1455.28
 21
1454.58
  0
LINE
  8
0
 10
1787.88
 11
1788
 20
1454.58
 21
1453.8
  0
LINE
  8
0
 10
1788
 11
1787.88
 20
1453.8
 21
1453.02
  0
LINE
  8
0
 10
1787.88
 11
1787.52
 20
1453.02
 21
1452.32
  0
LINE
  8
0
 10
1787.52
 11
1786.96
 20
1452.32
 21
1451.76
  0
LINE
  8
0
 10
1786.96
 11
1786.26
 20
1451.76
 21
1451.4
  0
LINE
  8
0
 10
1786.26
 11
1785.48
 20
1451.4
 21
1451.28
  0
LINE
  8
0
 10
1785.48
 11
1782.52
 20
1451.28
 21
1451.28
  0
LINE
  8
0
 10
1782.52
 11
1781.74
 20
1451.28
 21
1451.4
  0
LINE
  8
0
 10
1781.74
 11
1781.04
 20
1451.4
 21
1451.76
  0
LINE
  8
0
 10
1781.04
 11
1780.48
 20
1451.76
 21
1452.32
  0
LINE
  8
0
 10
1780.48
 11
1780.12
 20
1452.32
 21
1453.02
  0
LINE
  8
0
 10
1780.12
 11
1780
 20
1453.02
 21
1453.8
  0
LINE
  8
0
 10
1780.5
 11
1780.51
 20
9
 21
9.2
  0
LINE
  8
0
 10
1780.51
 11
1780.52
 20
9.2
 21
9.399
  0
LINE
  8
0
 10
1780.52
 11
1780.55
 20
9.399
 21
9.597
  0
LINE
  8
0
 10
1780.55
 11
1780.59
 20
9.597
 21
9.793
  0
LINE
  8
0
 10
1780.59
 11
1780.64
 20
9.793
 21
9.986
  0
LINE
  8
0
 10
1780.64
 11
1780.7
 20
9.986
 21
10.176
  0
LINE
  8
0
 10
1780.7
 11
1780.78
 20
10.176
 21
10.362
  0
LINE
  8
0
 10
1780.78
 11
1780.86
 20
10.362
 21
10.544
  0
LINE
  8
0
 10
1780.86
 11
1780.95
 20
10.544
 21
10.721
  0
LINE
  8
0
 10
1780.95
 11
1781.06
 20
10.721
 21
10.892
  0
LINE
  8
0
 10
1781.06
 11
1781.17
 20
10.892
 21
11.057
  0
LINE
  8
0
 10
1781.17
 11
1781.29
 20
11.057
 21
11.216
  0
LINE
  8
0
 10
1781.29
 11
1781.42
 20
11.216
 21
11.367
  0
LINE
  8
0
 10
1781.42
 11
1781.56
 20
11.367
 21
11.51
  0
LINE
  8
0
 10
1781.56
 11
1781.71
 20
11.51
 21
11.645
  0
LINE
  8
0
 10
1781.71
 11
1781.86
 20
11.645
 21
11.772
  0
LINE
  8
0
 10
1781.86
 11
1782.02
 20
11.772
 21
11.889
  0
LINE
  8
0
 10
1782.02
 11
1782.19
 20
11.889
 21
11.997
  0
LINE
  8
0
 10
1782.19
 11
1782.37
 20
11.997
 21
12.096
  0
LINE
  8
0
 10
1782.37
 11
1782.55
 20
12.096
 21
12.184
  0
LINE
  8
0
 10
1782.55
 11
1782.73
 20
12.184
 21
12.262
  0
LINE
  8
0
 10
1782.73
 11
1782.92
 20
12.262
 21
12.329
  0
LINE
  8
0
 10
1782.92
 11
1783.11
 20
12.329
 21
12.385
  0
LINE
  8
0
 10
1783.11
 11
1783.31
 20
12.385
 21
12.43
  0
LINE
  8
0
 10
1783.31
 11
1783.5
 20
12.43
 21
12.464
  0
LINE
  8
0
 10
1783.5
 11
1783.7
 20
12.464
 21
12.487
  0
LINE
  8
0
 10
1783.7
 11
1783.9
 20
12.487
 21
12.499
  0
LINE
  8
0
 10
1783.9
 11
1784.1
 20
12.499
 21
12.499
  0
LINE
  8
0
 10
1784.1
 11
1784.3
 20
12.499
 21
12.487
  0
LINE
  8
0
 10
1784.3
 11
1784.5
 20
12.487
 21
12.464
  0
LINE
  8
0
 10
1784.5
 11
1784.69
 20
12.464
 21
12.43
  0
LINE
  8
0
 10
1784.69
 11
1784.89
 20
12.43
 21
12.385
  0
LINE
  8
0
 10
1784.89
 11
1785.08
 20
12.385
 21
12.329
  0
LINE
  8
0
 10
1785.08
 11
1785.27
 20
12.329
 21
12.262
  0
LINE
  8
0
 10
1785.27
 11
1785.45
 20
12.262
 21
12.184
  0
LINE
  8
0
 10
1785.45
 11
1785.63
 20
12.184
 21
12.096
  0
LINE
  8
0
 10
1785.63
 11
1785.81
 20
12.096
 21
11.997
  0
LINE
  8
0
 10
1785.81
 11
1785.98
 20
11.997
 21
11.889
  0
LINE
  8
0
 10
1785.98
 11
1786.14
 20
11.889
 21
11.772
  0
LINE
  8
0
 10
1786.14
 11
1786.29
 20
11.772
 21
11.645
  0
LINE
  8
0
 10
1786.29
 11
1786.44
 20
11.645
 21
11.51
  0
LINE
  8
0
 10
1786.44
 11
1786.58
 20
11.51
 21
11.367
  0
LINE
  8
0
 10
1786.58
 11
1786.71
 20
11.367
 21
11.216
  0
LINE
  8
0
 10
1786.71
 11
1786.83
 20
11.216
 21
11.057
  0
LINE
  8
0
 10
1786.83
 11
1786.94
 20
11.057
 21
10.892
  0
LINE
  8
0
 10
1786.94
 11
1787.05
 20
10.892
 21
10.721
  0
LINE
  8
0
 10
1787.05
 11
1787.14
 20
10.721
 21
10.544
  0
LINE
  8
0
 10
1787.14
 11
1787.22
 20
10.544
 21
10.362
  0
LINE
  8
0
 10
1787.22
 11
1787.3
 20
10.362
 21
10.176
  0
LINE
  8
0
 10
1787.3
 11
1787.36
 20
10.176
 21
9.986
  0
LINE
  8
0
 10
1787.36
 11
1787.41
 20
9.986
 21
9.793
  0
LINE
  8
0
 10
1787.41
 11
1787.45
 20
9.793
 21
9.597
  0
LINE
  8
0
 10
1787.45
 11
1787.48
 20
9.597
 21
9.399
  0
LINE
  8
0
 10
1787.48
 11
1787.49
 20
9.399
 21
9.2
  0
LINE
  8
0
 10
1787.49
 11
1787.5
 20
9.2
 21
9
  0
LINE
  8
0
 10
1787.5
 11
1787.49
 20
9
 21
8.8
  0
LINE
  8
0
 10
1787.49
 11
1787.48
 20
8.8
 21
8.601
  0
LINE
  8
0
 10
1787.48
 11
1787.45
 20
8.601
 21
8.403
  0
LINE
  8
0
 10
1787.45
 11
1787.41
 20
8.403
 21
8.207
  0
LINE
  8
0
 10
1787.41
 11
1787.36
 20
8.207
 21
8.014
  0
LINE
  8
0
 10
1787.36
 11
1787.3
 20
8.014
 21
7.824
  0
LINE
  8
0
 10
1787.3
 11
1787.22
 20
7.824
 21
7.638
  0
LINE
  8
0
 10
1787.22
 11
1787.14
 20
7.638
 21
7.456
  0
LINE
  8
0
 10
1787.14
 11
1787.05
 20
7.456
 21
7.279
  0
LINE
  8
0
 10
1787.05
 11
1786.94
 20
7.279
 21
7.108
  0
LINE
  8
0
 10
1786.94
 11
1786.83
 20
7.108
 21
6.943
  0
LINE
  8
0
 10
1786.83
 11
1786.71
 20
6.943
 21
6.784
  0
LINE
  8
0
 10
1786.71
 11
1786.58
 20
6.784
 21
6.633
  0
LINE
  8
0
 10
1786.58
 11
1786.44
 20
6.633
 21
6.49
  0
LINE
  8
0
 10
1786.44
 11
1786.29
 20
6.49
 21
6.355
  0
LINE
  8
0
 10
1786.29
 11
1786.14
 20
6.355
 21
6.228
  0
LINE
  8
0
 10
1786.14
 11
1785.98
 20
6.228
 21
6.111
  0
LINE
  8
0
 10
1785.98
 11
1785.81
 20
6.111
 21
6.003
  0
LINE
  8
0
 10
1785.81
 11
1785.63
 20
6.003
 21
5.904
  0
LINE
  8
0
 10
1785.63
 11
1785.45
 20
5.904
 21
5.816
  0
LINE
  8
0
 10
1785.45
 11
1785.27
 20
5.816
 21
5.738
  0
LINE
  8
0
 10
1785.27
 11
1785.08
 20
5.738
 21
5.671
  0
LINE
  8
0
 10
1785.08
 11
1784.89
 20
5.671
 21
5.615
  0
LINE
  8
0
 10
1784.89
 11
1784.69
 20
5.615
 21
5.57
  0
LINE
  8
0
 10
1784.69
 11
1784.5
 20
5.57
 21
5.536
  0
LINE
  8
0
 10
1784.5
 11
1784.3
 20
5.536
 21
5.513
  0
LINE
  8
0
 10
1784.3
 11
1784.1
 20
5.513
 21
5.501
  0
LINE
  8
0
 10
1784.1
 11
1783.9
 20
5.501
 21
5.501
  0
LINE
  8
0
 10
1783.9
 11
1783.7
 20
5.501
 21
5.513
  0
LINE
  8
0
 10
1783.7
 11
1783.5
 20
5.513
 21
5.536
  0
LINE
  8
0
 10
1783.5
 11
1783.31
 20
5.536
 21
5.57
  0
LINE
  8
0
 10
1783.31
 11
1783.11
 20
5.57
 21
5.615
  0
LINE
  8
0
 10
1783.11
 11
1782.92
 20
5.615
 21
5.671
  0
LINE
  8
0
 10
1782.92
 11
1782.73
 20
5.671
 21
5.738
  0
LINE
  8
0
 10
1782.73
 11
1782.55
 20
5.738
 21
5.816
  0
LINE
  8
0
 10
1782.55
 11
1782.37
 20
5.816
 21
5.904
  0
LINE
  8
0
 10
1782.37
 11
1782.19
 20
5.904
 21
6.003
  0
LINE
  8
0
 10
1782.19
 11
1782.02
 20
6.003
 21
6.111
  0
LINE
  8
0
 10
1782.02
 11
1781.86
 20
6.111
 21
6.228
  0
LINE
  8
0
 10
1781.86
 11
1781.71
 20
6.228
 21
6.355
  0
LINE
  8
0
 10
1781.71
 11
1781.56
 20
6.355
 21
6.49
  0
LINE
  8
0
 10
1781.56
 11
1781.42
 20
6.49
 21
6.633
  0
LINE
  8
0
 10
1781.42
 11
1781.29
 20
6.633
 21
6.784
  0
LINE
  8
0
 10
1781.29
 11
1781.17
 20
6.784
 21
6.943
  0
LINE
  8
0
 10
1781.17
 11
1781.06
 20
6.943
 21
7.108
  0
LINE
  8
0
 10
1781.06
 11
1780.95
 20
7.108
 21
7.279
  0
LINE
  8
0
 10
1780.95
 11
1780.86
 20
7.279
 21
7.456
  0
LINE
  8
0
 10
1780.86
 11
1780.78
 20
7.456
 21
7.638
  0
LINE
  8
0
 10
1780.78
 11
1780.7
 20
7.638
 21
7.824
  0
LINE
  8
0
 10
1780.7
 11
1780.64
 20
7.824
 21
8.014
  0
LINE
  8
0
 10
1780.64
 11
1780.59
 20
8.014
 21
8.207
  0
LINE
  8
0
 10
1780.59
 11
1780.55
 20
8.207
 21
8.403
  0
LINE
  8
0
 10
1780.55
 11
1780.52
 20
8.403
 21
8.601
  0
LINE
  8
0
 10
1780.52
 11
1780.51
 20
8.601
 21
8.8
  0
LINE
  8
0
 10
1780.51
 11
1780.5
 20
8.8
 21
9
  0
LINE
  8
0
 10
1780.5
 11
1780.51
 20
929
 21
929.2
  0
LINE
  8
0
 10
1780.51
 11
1780.52
 20
929.2
 21
929.399
  0
LINE
  8
0
 10
1780.52
 11
1780.55
 20
929.399
 21
929.597
  0
LINE
  8
0
 10
1780.55
 11
1780.59
 20
929.597
 21
929.793
  0
LINE
  8
0
 10
1780.59
 11
1780.64
 20
929.793
 21
929.986
  0
LINE
  8
0
 10
1780.64
 11
1780.7
 20
929.986
 21
930.176
  0
LINE
  8
0
 10
1780.7
 11
1780.78
 20
930.176
 21
930.362
  0
LINE
  8
0
 10
1780.78
 11
1780.86
 20
930.362
 21
930.544
  0
LINE
  8
0
 10
1780.86
 11
1780.95
 20
930.544
 21
930.721
  0
LINE
  8
0
 10
1780.95
 11
1781.06
 20
930.721
 21
930.892
  0
LINE
  8
0
 10
1781.06
 11
1781.17
 20
930.892
 21
931.057
  0
LINE
  8
0
 10
1781.17
 11
1781.29
 20
931.057
 21
931.216
  0
LINE
  8
0
 10
1781.29
 11
1781.42
 20
931.216
 21
931.367
  0
LINE
  8
0
 10
1781.42
 11
1781.56
 20
931.367
 21
931.51
  0
LINE
  8
0
 10
1781.56
 11
1781.71
 20
931.51
 21
931.645
  0
LINE
  8
0
 10
1781.71
 11
1781.86
 20
931.645
 21
931.772
  0
LINE
  8
0
 10
1781.86
 11
1782.02
 20
931.772
 21
931.889
  0
LINE
  8
0
 10
1782.02
 11
1782.19
 20
931.889
 21
931.997
  0
LINE
  8
0
 10
1782.19
 11
1782.37
 20
931.997
 21
932.096
  0
LINE
  8
0
 10
1782.37
 11
1782.55
 20
932.096
 21
932.184
  0
LINE
  8
0
 10
1782.55
 11
1782.73
 20
932.184
 21
932.262
  0
LINE
  8
0
 10
1782.73
 11
1782.92
 20
932.262
 21
932.329
  0
LINE
  8
0
 10
1782.92
 11
1783.11
 20
932.329
 21
932.385
  0
LINE
  8
0
 10
1783.11
 11
1783.31
 20
932.385
 21
932.43
  0
LINE
  8
0
 10
1783.31
 11
1783.5
 20
932.43
 21
932.464
  0
LINE
  8
0
 10
1783.5
 11
1783.7
 20
932.464
 21
932.487
  0
LINE
  8
0
 10
1783.7
 11
1783.9
 20
932.487
 21
932.499
  0
LINE
  8
0
 10
1783.9
 11
1784.1
 20
932.499
 21
932.499
  0
LINE
  8
0
 10
1784.1
 11
1784.3
 20
932.499
 21
932.487
  0
LINE
  8
0
 10
1784.3
 11
1784.5
 20
932.487
 21
932.464
  0
LINE
  8
0
 10
1784.5
 11
1784.69
 20
932.464
 21
932.43
  0
LINE
  8
0
 10
1784.69
 11
1784.89
 20
932.43
 21
932.385
  0
LINE
  8
0
 10
1784.89
 11
1785.08
 20
932.385
 21
932.329
  0
LINE
  8
0
 10
1785.08
 11
1785.27
 20
932.329
 21
932.262
  0
LINE
  8
0
 10
1785.27
 11
1785.45
 20
932.262
 21
932.184
  0
LINE
  8
0
 10
1785.45
 11
1785.63
 20
932.184
 21
932.096
  0
LINE
  8
0
 10
1785.63
 11
1785.81
 20
932.096
 21
931.997
  0
LINE
  8
0
 10
1785.81
 11
1785.98
 20
931.997
 21
931.889
  0
LINE
  8
0
 10
1785.98
 11
1786.14
 20
931.889
 21
931.772
  0
LINE
  8
0
 10
1786.14
 11
1786.29
 20
931.772
 21
931.645
  0
LINE
  8
0
 10
1786.29
 11
1786.44
 20
931.645
 21
931.51
  0
LINE
  8
0
 10
1786.44
 11
1786.58
 20
931.51
 21
931.367
  0
LINE
  8
0
 10
1786.58
 11
1786.71
 20
931.367
 21
931.216
  0
LINE
  8
0
 10
1786.71
 11
1786.83
 20
931.216
 21
931.057
  0
LINE
  8
0
 10
1786.83
 11
1786.94
 20
931.057
 21
930.892
  0
LINE
  8
0
 10
1786.94
 11
1787.05
 20
930.892
 21
930.721
  0
LINE
  8
0
 10
1787.05
 11
1787.14
 20
930.721
 21
930.544
  0
LINE
  8
0
 10
1787.14
 11
1787.22
 20
930.544
 21
930.362
  0
LINE
  8
0
 10
1787.22
 11
1787.3
 20
930.362
 21
930.176
  0
LINE
  8
0
 10
1787.3
 11
1787.36
 20
930.176
 21
929.986
  0
LINE
  8
0
 10
1787.36
 11
1787.41
 20
929.986
 21
929.793
  0
LINE
  8
0
 10
1787.41
 11
1787.45
 20
929.793
 21
929.597
  0
LINE
  8
0
 10
1787.45
 11
1787.48
 20
929.597
 21
929.399
  0
LINE
  8
0
 10
1787.48
 11
1787.49
 20
929.399
 21
929.2
  0
LINE
  8
0
 10
1787.49
 11
1787.5
 20
929.2
 21
929
  0
LINE
  8
0
 10
1787.5
 11
1787.49
 20
929
 21
928.8
  0
LINE
  8
0
 10
1787.49
 11
1787.48
 20
928.8
 21
928.601
  0
LINE
  8
0
 10
1787.48
 11
1787.45
 20
928.601
 21
928.403
  0
LINE
  8
0
 10
1787.45
 11
1787.41
 20
928.403
 21
928.207
  0
LINE
  8
0
 10
1787.41
 11
1787.36
 20
928.207
 21
928.014
  0
LINE
  8
0
 10
1787.36
 11
1787.3
 20
928.014
 21
927.824
  0
LINE
  8
0
 10
1787.3
 11
1787.22
 20
927.824
 21
927.638
  0
LINE
  8
0
 10
1787.22
 11
1787.14
 20
927.638
 21
927.456
  0
LINE
  8
0
 10
1787.14
 11
1787.05
 20
927.456
 21
927.279
  0
LINE
  8
0
 10
1787.05
 11
1786.94
 20
927.279
 21
927.108
  0
LINE
  8
0
 10
1786.94
 11
1786.83
 20
927.108
 21
926.943
  0
LINE
  8
0
 10
1786.83
 11
1786.71
 20
926.943
 21
926.784
  0
LINE
  8
0
 10
1786.71
 11
1786.58
 20
926.784
 21
926.633
  0
LINE
  8
0
 10
1786.58
 11
1786.44
 20
926.633
 21
926.49
  0
LINE
  8
0
 10
1786.44
 11
1786.29
 20
926.49
 21
926.355
  0
LINE
  8
0
 10
1786.29
 11
1786.14
 20
926.355
 21
926.228
  0
LINE
  8
0
 10
1786.14
 11
1785.98
 20
926.228
 21
926.111
  0
LINE
  8
0
 10
1785.98
 11
1785.81
 20
926.111
 21
926.003
  0
LINE
  8
0
 10
1785.81
 11
1785.63
 20
926.003
 21
925.904
  0
LINE
  8
0
 10
1785.63
 11
1785.45
 20
925.904
 21
925.816
  0
LINE
  8
0
 10
1785.45
 11
1785.27
 20
925.816
 21
925.738
  0
LINE
  8
0
 10
1785.27
 11
1785.08
 20
925.738
 21
925.671
  0
LINE
  8
0
 10
1785.08
 11
1784.89
 20
925.671
 21
925.615
  0
LINE
  8
0
 10
1784.89
 11
1784.69
 20
925.615
 21
925.57
  0
LINE
  8
0
 10
1784.69
 11
1784.5
 20
925.57
 21
925.536
  0
LINE
  8
0
 10
1784.5
 11
1784.3
 20
925.536
 21
925.513
  0
LINE
  8
0
 10
1784.3
 11
1784.1
 20
925.513
 21
925.501
  0
LINE
  8
0
 10
1784.1
 11
1783.9
 20
925.501
 21
925.501
  0
LINE
  8
0
 10
1783.9
 11
1783.7
 20
925.501
 21
925.513
  0
LINE
  8
0
 10
1783.7
 11
1783.5
 20
925.513
 21
925.536
  0
LINE
  8
0
 10
1783.5
 11
1783.31
 20
925.536
 21
925.57
  0
LINE
  8
0
 10
1783.31
 11
1783.11
 20
925.57
 21
925.615
  0
LINE
  8
0
 10
1783.11
 11
1782.92
 20
925.615
 21
925.671
  0
LINE
  8
0
 10
1782.92
 11
1782.73
 20
925.671
 21
925.738
  0
LINE
  8
0
 10
1782.73
 11
1782.55
 20
925.738
 21
925.816
  0
LINE
  8
0
 10
1782.55
 11
1782.37
 20
925.816
 21
925.904
  0
LINE
  8
0
 10
1782.37
 11
1782.19
 20
925.904
 21
926.003
  0
LINE
  8
0
 10
1782.19
 11
1782.02
 20
926.003
 21
926.111
  0
LINE
  8
0
 10
1782.02
 11
1781.86
 20
926.111
 21
926.228
  0
LINE
  8
0
 10
1781.86
 11
1781.71
 20
926.228
 21
926.355
  0
LINE
  8
0
 10
1781.71
 11
1781.56
 20
926.355
 21
926.49
  0
LINE
  8
0
 10
1781.56
 11
1781.42
 20
926.49
 21
926.633
  0
LINE
  8
0
 10
1781.42
 11
1781.29
 20
926.633
 21
926.784
  0
LINE
  8
0
 10
1781.29
 11
1781.17
 20
926.784
 21
926.943
  0
LINE
  8
0
 10
1781.17
 11
1781.06
 20
926.943
 21
927.108
  0
LINE
  8
0
 10
1781.06
 11
1780.95
 20
927.108
 21
927.279
  0
LINE
  8
0
 10
1780.95
 11
1780.86
 20
927.279
 21
927.456
  0
LINE
  8
0
 10
1780.86
 11
1780.78
 20
927.456
 21
927.638
  0
LINE
  8
0
 10
1780.78
 11
1780.7
 20
927.638
 21
927.824
  0
LINE
  8
0
 10
1780.7
 11
1780.64
 20
927.824
 21
928.014
  0
LINE
  8
0
 10
1780.64
 11
1780.59
 20
928.014
 21
928.207
  0
LINE
  8
0
 10
1780.59
 11
1780.55
 20
928.207
 21
928.403
  0
LINE
  8
0
 10
1780.55
 11
1780.52
 20
928.403
 21
928.601
  0
LINE
  8
0
 10
1780.52
 11
1780.51
 20
928.601
 21
928.8
  0
LINE
  8
0
 10
1780.51
 11
1780.5
 20
928.8
 21
929
  0
LINE
  8
0
 10
1781.5
 11
1781.5
 20
1118.3
 21
1118.5
  0
LINE
  8
0
 10
1781.5
 11
1781.52
 20
1118.5
 21
1118.7
  0
LINE
  8
0
 10
1781.52
 11
1781.55
 20
1118.7
 21
1118.89
  0
LINE
  8
0
 10
1781.55
 11
1781.6
 20
1118.89
 21
1119.09
  0
LINE
  8
0
 10
1781.6
 11
1781.66
 20
1119.09
 21
1119.28
  0
LINE
  8
0
 10
1781.66
 11
1781.74
 20
1119.28
 21
1119.46
  0
LINE
  8
0
 10
1781.74
 11
1781.83
 20
1119.46
 21
1119.64
  0
LINE
  8
0
 10
1781.83
 11
1781.93
 20
1119.64
 21
1119.8
  0
LINE
  8
0
 10
1781.93
 11
1782.05
 20
1119.8
 21
1119.96
  0
LINE
  8
0
 10
1782.05
 11
1782.18
 20
1119.96
 21
1120.11
  0
LINE
  8
0
 10
1782.18
 11
1782.32
 20
1120.11
 21
1120.25
  0
LINE
  8
0
 10
1782.32
 11
1782.48
 20
1120.25
 21
1120.38
  0
LINE
  8
0
 10
1782.48
 11
1782.64
 20
1120.38
 21
1120.5
  0
LINE
  8
0
 10
1782.64
 11
1782.81
 20
1120.5
 21
1120.6
  0
LINE
  8
0
 10
1782.81
 11
1782.99
 20
1120.6
 21
1120.68
  0
LINE
  8
0
 10
1782.99
 11
1783.17
 20
1120.68
 21
1120.76
  0
LINE
  8
0
 10
1783.17
 11
1783.36
 20
1120.76
 21
1120.82
  0
LINE
  8
0
 10
1783.36
 11
1783.56
 20
1120.82
 21
1120.86
  0
LINE
  8
0
 10
1783.56
 11
1783.75
 20
1120.86
 21
1120.89
  0
LINE
  8
0
 10
1783.75
 11
1783.95
 20
1120.89
 21
1120.9
  0
LINE
  8
0
 10
1783.95
 11
1784.15
 20
1120.9
 21
1120.9
  0
LINE
  8
0
 10
1784.15
 11
1784.35
 20
1120.9
 21
1120.88
  0
LINE
  8
0
 10
1784.35
 11
1784.54
 20
1120.88
 21
1120.84
  0
LINE
  8
0
 10
1784.54
 11
1784.74
 20
1120.84
 21
1120.79
  0
LINE
  8
0
 10
1784.74
 11
1784.92
 20
1120.79
 21
1120.72
  0
LINE
  8
0
 10
1784.92
 11
1785.1
 20
1120.72
 21
1120.64
  0
LINE
  8
0
 10
1785.1
 11
1785.28
 20
1120.64
 21
1120.55
  0
LINE
  8
0
 10
1785.28
 11
1785.44
 20
1120.55
 21
1120.44
  0
LINE
  8
0
 10
1785.44
 11
1785.6
 20
1120.44
 21
1120.32
  0
LINE
  8
0
 10
1785.6
 11
1785.75
 20
1120.32
 21
1120.18
  0
LINE
  8
0
 10
1785.75
 11
1785.89
 20
1120.18
 21
1120.04
  0
LINE
  8
0
 10
1785.89
 11
1786.01
 20
1120.04
 21
1119.89
  0
LINE
  8
0
 10
1786.01
 11
1786.12
 20
1119.89
 21
1119.72
  0
LINE
  8
0
 10
1786.12
 11
1786.22
 20
1119.72
 21
1119.55
  0
LINE
  8
0
 10
1786.22
 11
1786.31
 20
1119.55
 21
1119.37
  0
LINE
  8
0
 10
1786.31
 11
1786.38
 20
1119.37
 21
1119.18
  0
LINE
  8
0
 10
1786.38
 11
1786.43
 20
1119.18
 21
1118.99
  0
LINE
  8
0
 10
1786.43
 11
1786.47
 20
1118.99
 21
1118.8
  0
LINE
  8
0
 10
1786.47
 11
1786.49
 20
1118.8
 21
1118.6
  0
LINE
  8
0
 10
1786.49
 11
1786.5
 20
1118.6
 21
1118.4
  0
LINE
  8
0
 10
1786.5
 11
1786.49
 20
1118.4
 21
1118.2
  0
LINE
  8
0
 10
1786.49
 11
1786.47
 20
1118.2
 21
1118
  0
LINE
  8
0
 10
1786.47
 11
1786.43
 20
1118
 21
1117.81
  0
LINE
  8
0
 10
1786.43
 11
1786.38
 20
1117.81
 21
1117.62
  0
LINE
  8
0
 10
1786.38
 11
1786.31
 20
1117.62
 21
1117.43
  0
LINE
  8
0
 10
1786.31
 11
1786.22
 20
1117.43
 21
1117.25
  0
LINE
  8
0
 10
1786.22
 11
1786.12
 20
1117.25
 21
1117.08
  0
LINE
  8
0
 10
1786.12
 11
1786.01
 20
1117.08
 21
1116.91
  0
LINE
  8
0
 10
1786.01
 11
1785.89
 20
1116.91
 21
1116.76
  0
LINE
  8
0
 10
1785.89
 11
1785.75
 20
1116.76
 21
1116.62
  0
LINE
  8
0
 10
1785.75
 11
1785.6
 20
1116.62
 21
1116.48
  0
LINE
  8
0
 10
1785.6
 11
1785.44
 20
1116.48
 21
1116.36
  0
LINE
  8
0
 10
1785.44
 11
1785.28
 20
1116.36
 21
1116.25
  0
LINE
  8
0
 10
1785.28
 11
1785.1
 20
1116.25
 21
1116.16
  0
LINE
  8
0
 10
1785.1
 11
1784.92
 20
1116.16
 21
1116.08
  0
LINE
  8
0
 10
1784.92
 11
1784.74
 20
1116.08
 21
1116.01
  0
LINE
  8
0
 10
1784.74
 11
1784.54
 20
1116.01
 21
1115.96
  0
LINE
  8
0
 10
1784.54
 11
1784.35
 20
1115.96
 21
1115.92
  0
LINE
  8
0
 10
1784.35
 11
1784.15
 20
1115.92
 21
1115.9
  0
LINE
  8
0
 10
1784.15
 11
1783.95
 20
1115.9
 21
1115.9
  0
LINE
  8
0
 10
1783.95
 11
1783.75
 20
1115.9
 21
1115.91
  0
LINE
  8
0
 10
1783.75
 11
1783.56
 20
1115.91
 21
1115.94
  0
LINE
  8
0
 10
1783.56
 11
1783.36
 20
1115.94
 21
1115.98
  0
LINE
  8
0
 10
1783.36
 11
1783.17
 20
1115.98
 21
1116.04
  0
LINE
  8
0
 10
1783.17
 11
1782.99
 20
1116.04
 21
1116.12
  0
LINE
  8
0
 10
1782.99
 11
1782.81
 20
1116.12
 21
1116.2
  0
LINE
  8
0
 10
1782.81
 11
1782.64
 20
1116.2
 21
1116.3
  0
LINE
  8
0
 10
1782.64
 11
1782.48
 20
1116.3
 21
1116.42
  0
LINE
  8
0
 10
1782.48
 11
1782.32
 20
1116.42
 21
1116.55
  0
LINE
  8
0
 10
1782.32
 11
1782.18
 20
1116.55
 21
1116.69
  0
LINE
  8
0
 10
1782.18
 11
1782.05
 20
1116.69
 21
1116.84
  0
LINE
  8
0
 10
1782.05
 11
1781.93
 20
1116.84
 21
1117
  0
LINE
  8
0
 10
1781.93
 11
1781.83
 20
1117
 21
1117.16
  0
LINE
  8
0
 10
1781.83
 11
1781.74
 20
1117.16
 21
1117.34
  0
LINE
  8
0
 10
1781.74
 11
1781.66
 20
1117.34
 21
1117.52
  0
LINE
  8
0
 10
1781.66
 11
1781.6
 20
1117.52
 21
1117.71
  0
LINE
  8
0
 10
1781.6
 11
1781.55
 20
1117.71
 21
1117.91
  0
LINE
  8
0
 10
1781.55
 11
1781.52
 20
1117.91
 21
1118.1
  0
LINE
  8
0
 10
1781.52
 11
1781.5
 20
1118.1
 21
1118.3
  0
ENDSEC
  0
SECTION
  2
OBJECTS
  0
DICTIONARY
  0
ENDSEC
  0
EOF
