999
dxflib 2.2.0.0
  0
SECTION
  2
HEADER
  9
$ACADVER
  1
AC1015
  9
$HANDSEED
  5
FFFF
  9
$DIMASZ
 40
2.5
  9
$PLIMMIN
 10
0.0
 20
0.0
  9
$DIMEXE
 40
1.25
  9
$DIMGAP
 40
0.625
  9
$PLIMMAX
 10
210.0
 20
297.0
  9
$INSUNITS
 70
4
  9
$DIMSTYLE
  2
Standard
  9
$DIMEXO
 40
0.625
  9
$DIMTXT
 40
2.5
  0
ENDSEC
  0
SECTION
  2
TABLES
  0
TABLE
  2
VPORT
  5
8
100
AcDbSymbolTable
 70
1
  0
VPORT
  5
30
100
AcDbSymbolTableRecord
100
AcDbViewportTableRecord
  2
*Active
 70
0
 10
0.0
 20
0.0
 11
1.0
 21
1.0
 12
286.3055555555554861
 22
148.5
 13
0.0
 23
0.0
 14
10.0
 24
10.0
 15
10.0
 25
10.0
 16
0.0
 26
0.0
 36
1.0
 17
0.0
 27
0.0
 37
0.0
 40
297.0
 41
1.92798353909465
 42
50.0
 43
0.0
 44
0.0
 50
0.0
 51
0.0
 71
0
 72
100
 73
1
 74
3
 75
1
 76
1
 77
0
 78
0
281
0
 65
1
110
0.0
120
0.0
130
0.0
111
1.0
121
0.0
131
0.0
112
0.0
122
1.0
132
0.0
 79
0
146
0.0
  0
ENDTAB
  0
TABLE
  2
LTYPE
  5
5
100
AcDbSymbolTable
 70
21
  0
LTYPE
  5
14
100
AcDbSymbolTableRecord
100
AcDbLinetypeTableRecord
  2
ByBlock
 70
0
  3

 72
65
 73
0
 40
0.0
  0
LTYPE
  5
15
100
AcDbSymbolTableRecord
100
AcDbLinetypeTableRecord
  2
ByLayer
 70
0
  3

 72
65
 73
0
 40
0.0
  0
LTYPE
  5
16
100
AcDbSymbolTableRecord
100
AcDbLinetypeTableRecord
  2
CONTINUOUS
 70
0
  3
Solid line
 72
65
 73
0
 40
0.0
  0
LTYPE
  5
31
100
AcDbSymbolTableRecord
100
AcDbLinetypeTableRecord
  2
DOT
 70
0
  3
Dot . . . . . . . . . . . . . . . . . . . . . .
 72
65
 73
2
 40
6.3499999999999996
 49
0.0
 74
0
 49
-6.3499999999999996
 74
0
  0
LTYPE
  5
32
100
AcDbSymbolTableRecord
100
AcDbLinetypeTableRecord
  2
DOT2
 70
0
  3
Dot (.5x) .....................................
 72
65
 73
2
 40
3.1749999999999998
 49
0.0
 74
0
 49
-3.1749999999999998
 74
0
  0
LTYPE
  5
33
100
AcDbSymbolTableRecord
100
AcDbLinetypeTableRecord
  2
DOTX2
 70
0
  3
Dot (2x) .  .  .  .  .  .  .  .  .  .  .  .  .
 72
65
 73
2
 40
12.6999999999999993
 49
0.0
 74
0
 49
-12.6999999999999993
 74
0
  0
LTYPE
  5
34
100
AcDbSymbolTableRecord
100
AcDbLinetypeTableRecord
  2
DASHED
 70
0
  3
Dashed __ __ __ __ __ __ __ __ __ __ __ __ __ _
 72
65
 73
2
 40
19.0500000000000007
 49
12.6999999999999993
 74
0
 49
-6.3499999999999996
 74
0
  0
LTYPE
  5
35
100
AcDbSymbolTableRecord
100
AcDbLinetypeTableRecord
  2
DASHED2
 70
0
  3
Dashed (.5x) _ _ _ _ _ _ _ _ _ _ _ _ _ _ _ _ _
 72
65
 73
2
 40
9.5250000000000004
 49
6.3499999999999996
 74
0
 49
-3.1749999999999998
 74
0
  0
LTYPE
  5
36
100
AcDbSymbolTableRecord
100
AcDbLinetypeTableRecord
  2
DASHEDX2
 70
0
  3
Dashed (2x) ____  ____  ____  ____  ____  ___
 72
65
 73
2
 40
38.1000000000000014
 49
25.3999999999999986
 74
0
 49
-12.6999999999999993
 74
0
  0
LTYPE
  5
37
100
AcDbSymbolTableRecord
100
AcDbLinetypeTableRecord
  2
DASHDOT
 70
0
  3
Dash dot __ . __ . __ . __ . __ . __ . __ . __
 72
65
 73
4
 40
25.3999999999999986
 49
12.6999999999999993
 74
0
 49
-6.3499999999999996
 74
0
 49
0.0
 74
0
 49
-6.3499999999999996
 74
0
  0
LTYPE
  5
38
100
AcDbSymbolTableRecord
100
AcDbLinetypeTableRecord
  2
DASHDOT2
 70
0
  3
Dash dot (.5x) _._._._._._._._._._._._._._._.
 72
65
 73
4
 40
12.6999999999999993
 49
6.3499999999999996
 74
0
 49
-3.1749999999999998
 74
0
 49
0.0
 74
0
 49
-3.1749999999999998
 74
0
  0
LTYPE
  5
39
100
AcDbSymbolTableRecord
100
AcDbLinetypeTableRecord
  2
DASHDOTX2
 70
0
  3
Dash dot (2x) ____  .  ____  .  ____  .  ___
 72
65
 73
4
 40
50.7999999999999972
 49
25.3999999999999986
 74
0
 49
-12.6999999999999993
 74
0
 49
0.0
 74
0
 49
-12.6999999999999993
 74
0
  0
LTYPE
  5
3A
100
AcDbSymbolTableRecord
100
AcDbLinetypeTableRecord
  2
DIVIDE
 70
0
  3
Divide ____ . . ____ . . ____ . . ____ . . ____
 72
65
 73
6
 40
31.75
 49
12.6999999999999993
 74
0
 49
-6.3499999999999996
 74
0
 49
0.0
 74
0
 49
-6.3499999999999996
 74
0
 49
0.0
 74
0
 49
-6.3499999999999996
 74
0
  0
LTYPE
  5
3B
100
AcDbSymbolTableRecord
100
AcDbLinetypeTableRecord
  2
DIVIDE2
 70
0
  3
Divide (.5x) __..__..__..__..__..__..__..__.._
 72
65
 73
6
 40
15.875
 49
6.3499999999999996
 74
0
 49
-3.1749999999999998
 74
0
 49
0.0
 74
0
 49
-3.1749999999999998
 74
0
 49
0.0
 74
0
 49
-3.1749999999999998
 74
0
  0
LTYPE
  5
3C
100
AcDbSymbolTableRecord
100
AcDbLinetypeTableRecord
  2
DIVIDEX2
 70
0
  3
Divide (2x) ________  .  .  ________  .  .  _
 72
65
 73
6
 40
63.5
 49
25.3999999999999986
 74
0
 49
-12.6999999999999993
 74
0
 49
0.0
 74
0
 49
-12.6999999999999993
 74
0
 49
0.0
 74
0
 49
-12.6999999999999993
 74
0
  0
LTYPE
  5
3D
100
AcDbSymbolTableRecord
100
AcDbLinetypeTableRecord
  2
CENTER
 70
0
  3
Center ____ _ ____ _ ____ _ ____ _ ____ _ ____
 72
65
 73
4
 40
50.7999999999999972
 49
31.75
 74
0
 49
-6.3499999999999996
 74
0
 49
6.3499999999999996
 74
0
 49
-6.3499999999999996
 74
0
  0
LTYPE
  5
3E
100
AcDbSymbolTableRecord
100
AcDbLinetypeTableRecord
  2
CENTER2
 70
0
  3
Center (.5x) ___ _ ___ _ ___ _ ___ _ ___ _ ___
 72
65
 73
4
 40
28.5749999999999993
 49
19.0500000000000007
 74
0
 49
-3.1749999999999998
 74
0
 49
3.1749999999999998
 74
0
 49
-3.1749999999999998
 74
0
  0
LTYPE
  5
3F
100
AcDbSymbolTableRecord
100
AcDbLinetypeTableRecord
  2
CENTERX2
 70
0
  3
Center (2x) ________  __  ________  __  _____
 72
65
 73
4
 40
101.5999999999999943
 49
63.5
 74
0
 49
-12.6999999999999993
 74
0
 49
12.6999999999999993
 74
0
 49
-12.6999999999999993
 74
0
  0
LTYPE
  5
40
100
AcDbSymbolTableRecord
100
AcDbLinetypeTableRecord
  2
BORDER
 70
0
  3
Border __ __ . __ __ . __ __ . __ __ . __ __ .
 72
65
 73
6
 40
44.4500000000000028
 49
12.6999999999999993
 74
0
 49
-6.3499999999999996
 74
0
 49
12.6999999999999993
 74
0
 49
-6.3499999999999996
 74
0
 49
0.0
 74
0
 49
-6.3499999999999996
 74
0
  0
LTYPE
  5
41
100
AcDbSymbolTableRecord
100
AcDbLinetypeTableRecord
  2
BORDER2
 70
0
  3
Border (.5x) __.__.__.__.__.__.__.__.__.__.__.
 72
65
 73
6
 40
22.2250000000000014
 49
6.3499999999999996
 74
0
 49
-3.1749999999999998
 74
0
 49
6.3499999999999996
 74
0
 49
-3.1749999999999998
 74
0
 49
0.0
 74
0
 49
-3.1749999999999998
 74
0
  0
LTYPE
  5
42
100
AcDbSymbolTableRecord
100
AcDbLinetypeTableRecord
  2
BORDERX2
 70
0
  3
Border (2x) ____  ____  .  ____  ____  .  ___
 72
65
 73
6
 40
88.9000000000000057
 49
25.3999999999999986
 74
0
 49
-12.6999999999999993
 74
0
 49
25.3999999999999986
 74
0
 49
-12.6999999999999993
 74
0
 49
0.0
 74
0
 49
-12.6999999999999993
 74
0
  0
ENDTAB
  0
TABLE
  2
LAYER
  5
2
100
AcDbSymbolTable
 70
4
  0
LAYER
  5
10
100
AcDbSymbolTableRecord
100
AcDbLayerTableRecord
  2
0
 70
0
 62
7
  6
CONTINUOUS
290
1
370
0
390
F
  0
LAYER
  5
43
100
AcDbSymbolTableRecord
100
AcDbLayerTableRecord
  2
Layer 1
 70
1
 62
7
  6
CONTINUOUS
290
1
370
-3
390
F
  0
LAYER
  5
44
100
AcDbSymbolTableRecord
100
AcDbLayerTableRecord
  2
Laag 1
 70
0
 62
7
  6
CONTINUOUS
290
1
370
-3
390
F
  0
LAYER
  5
45
100
AcDbSymbolTableRecord
100
AcDbLayerTableRecord
  2
text
 70
0
 62
7
  6
CONTINUOUS
290
1
370
0
390
F
  0
ENDTAB
  0
TABLE
  2
STYLE
  5
3
100
AcDbSymbolTable
 70
1
  0
STYLE
  5
11
100
AcDbSymbolTableRecord
100
AcDbTextStyleTableRecord
  2
Standard
 70
0
 40
0.0
 41
0.75
 50
0.0
 71
0
 42
2.5
  3
txt
  4

  0
ENDTAB
  0
TABLE
  2
VIEW
  5
6
100
AcDbSymbolTable
 70
0
  0
ENDTAB
  0
TABLE
  2
UCS
  5
7
100
AcDbSymbolTable
 70
0
  0
ENDTAB
  0
TABLE
  2
APPID
  5
9
100
AcDbSymbolTable
 70
1
  0
APPID
  5
12
100
AcDbSymbolTableRecord
100
AcDbRegAppTableRecord
  2
ACAD
 70
0
  0
ENDTAB
  0
TABLE
  2
DIMSTYLE
  5
A
100
AcDbSymbolTable
 70
1
100
AcDbDimStyleTable
 71
0
  0
DIMSTYLE
105
27
100
AcDbSymbolTableRecord
100
AcDbDimStyleTableRecord
  2
Standard
 41
2.5
 42
0.625
 43
3.75
 44
1.25
 70
0
 73
0
 74
0
 77
1
 78
8
140
2.5
141
2.5
143
0.03937007874016
147
0.625
171
3
172
1
271
2
272
2
274
3
278
44
283
0
284
8
340
11
  0
ENDTAB
  0
TABLE
  2
BLOCK_RECORD
  5
1
100
AcDbSymbolTable
 70
1
  0
BLOCK_RECORD
  5
1F
100
AcDbSymbolTableRecord
100
AcDbBlockTableRecord
  2
*Model_Space
340
22
  0
BLOCK_RECORD
  5
1B
100
AcDbSymbolTableRecord
100
AcDbBlockTableRecord
  2
*Paper_Space
340
1E
  0
BLOCK_RECORD
  5
23
100
AcDbSymbolTableRecord
100
AcDbBlockTableRecord
  2
*Paper_Space0
340
26
  0
ENDTAB
  0
ENDSEC
  0
SECTION
  2
BLOCKS
  0
BLOCK
  5
20
100
AcDbEntity
  8
0
100
AcDbBlockBegin
  2
*Model_Space
 70
0
 10
0.0
 20
0.0
 30
0.0
  3
*Model_Space
  1

  0
ENDBLK
  5
21
100
AcDbEntity
  8
0
100
AcDbBlockEnd
  0
BLOCK
  5
1C
100
AcDbEntity
 67
1
  8
0
100
AcDbBlockBegin
  2
*Paper_Space
 70
0
 10
0.0
 20
0.0
 30
0.0
  3
*Paper_Space
  1

  0
ENDBLK
  5
1D
100
AcDbEntity
 67
1
  8
0
100
AcDbBlockEnd
  0
BLOCK
  5
24
100
AcDbEntity
  8
0
100
AcDbBlockBegin
  2
*Paper_Space0
 70
0
 10
0.0
 20
0.0
 30
0.0
  3
*Paper_Space0
  1

  0
ENDBLK
  5
25
100
AcDbEntity
  8
0
100
AcDbBlockEnd
  0
ENDSEC
  0
SECTION
  2
ENTITIES
  0
SPLINE
  5
46
  8
Laag 1
 62
250
370
9
  6
ByLayer
100
AcDbEntity
100
AcDbSpline
 70
11
 71
3
 72
8
 73
4
 74
0
 40
0.0
 40
0.0
 40
0.0
 40
0.0
 40
1.0
 40
1.0
 40
1.0
 40
1.0
 10
86.9959054054054661
 20
71.3740135135136029
 30
0.0
 10
86.9959054054054661
 20
71.3740135135136029
 30
0.0
 10
86.9959054054054661
 20
71.3740135135136029
 30
0.0
 10
86.9959054054054661
 20
71.3740135135136029
 30
0.0
  0
SPLINE
  5
47
  8
Laag 1
 62
250
370
9
  6
ByLayer
100
AcDbEntity
100
AcDbSpline
 70
8
 71
3
 72
8
 73
4
 74
0
 40
0.0
 40
0.0
 40
0.0
 40
0.0
 40
1.0
 40
1.0
 40
1.0
 40
1.0
 10
79.9959054054054377
 20
64.3740135135135745
 30
0.0
 10
79.9959054054054377
 20
64.3740135135135745
 30
0.0
 10
79.9959054054054377
 20
64.3739135135135996
 30
0.0
 10
79.9959054054054377
 20
64.3739135135135996
 30
0.0
  0
SPLINE
  5
48
  8
Laag 1
 62
250
370
9
  6
ByLayer
100
AcDbEntity
100
AcDbSpline
 70
8
 71
3
 72
8
 73
4
 74
0
 40
0.0
 40
0.0
 40
0.0
 40
0.0
 40
1.0
 40
1.0
 40
1.0
 40
1.0
 10
86.9958054054055197
 20
57.37401351351361
 30
0.0
 10
86.9958054054055197
 20
57.37401351351361
 30
0.0
 10
86.9958054054055197
 20
57.3739135135135783
 30
0.0
 10
86.9958054054055197
 20
57.3739135135135783
 30
0.0
  0
SPLINE
  5
49
  8
Laag 1
 62
250
370
9
  6
ByLayer
100
AcDbEntity
100
AcDbSpline
 70
11
 71
3
 72
8
 73
4
 74
0
 40
0.0
 40
0.0
 40
0.0
 40
0.0
 40
1.0
 40
1.0
 40
1.0
 40
1.0
 10
93.9958054054054628
 20
64.3740135135135745
 30
0.0
 10
93.9958054054054628
 20
64.3740135135135745
 30
0.0
 10
93.9958054054054628
 20
64.3740135135135745
 30
0.0
 10
93.9958054054054628
 20
64.3740135135135745
 30
0.0
  0
SPLINE
  5
4A
  8
Laag 1
 62
250
370
9
  6
ByLayer
100
AcDbEntity
100
AcDbSpline
 70
11
 71
3
 72
8
 73
4
 74
0
 40
0.0
 40
0.0
 40
0.0
 40
0.0
 40
1.0
 40
1.0
 40
1.0
 40
1.0
 10
86.9959054054054661
 20
71.3740135135136029
 30
0.0
 10
86.9959054054054661
 20
71.3740135135136029
 30
0.0
 10
86.9959054054054661
 20
71.3740135135136029
 30
0.0
 10
86.9959054054054661
 20
71.3740135135136029
 30
0.0
  0
SPLINE
  5
4B
  8
Laag 1
 62
250
370
9
  6
ByLayer
100
AcDbEntity
100
AcDbSpline
 70
11
 71
3
 72
8
 73
4
 74
0
 40
0.0
 40
0.0
 40
0.0
 40
0.0
 40
1.0
 40
1.0
 40
1.0
 40
1.0
 10
49.567405405405502
 20
116.0750135135135395
 30
0.0
 10
49.567405405405502
 20
116.0750135135135395
 30
0.0
 10
49.567405405405502
 20
116.0750135135135395
 30
0.0
 10
49.567405405405502
 20
116.0750135135135395
 30
0.0
  0
SPLINE
  5
4C
  8
Laag 1
 62
250
370
9
  6
ByLayer
100
AcDbEntity
100
AcDbSpline
 70
8
 71
3
 72
8
 73
4
 74
0
 40
0.0
 40
0.0
 40
0.0
 40
0.0
 40
1.0
 40
1.0
 40
1.0
 40
1.0
 10
48.5675054054055195
 20
115.0750135135135963
 30
0.0
 10
48.5675054054055195
 20
115.0750135135135963
 30
0.0
 10
48.5675054054055195
 20
115.0749135135135646
 30
0.0
 10
48.5675054054055195
 20
115.0749135135135646
 30
0.0
  0
SPLINE
  5
4D
  8
Laag 1
 62
250
370
9
  6
ByLayer
100
AcDbEntity
100
AcDbSpline
 70
11
 71
3
 72
8
 73
4
 74
0
 40
0.0
 40
0.0
 40
0.0
 40
0.0
 40
1.0
 40
1.0
 40
1.0
 40
1.0
 10
50.5674054054055162
 20
115.0750135135135963
 30
0.0
 10
50.5674054054055162
 20
115.0750135135135963
 30
0.0
 10
50.5674054054055162
 20
115.0750135135135963
 30
0.0
 10
50.5674054054055162
 20
115.0750135135135963
 30
0.0
  0
SPLINE
  5
4E
  8
Laag 1
 62
250
370
9
  6
ByLayer
100
AcDbEntity
100
AcDbSpline
 70
11
 71
3
 72
8
 73
4
 74
0
 40
0.0
 40
0.0
 40
0.0
 40
0.0
 40
1.0
 40
1.0
 40
1.0
 40
1.0
 10
49.567405405405502
 20
116.0750135135135395
 30
0.0
 10
49.567405405405502
 20
116.0750135135135395
 30
0.0
 10
49.567405405405502
 20
116.0750135135135395
 30
0.0
 10
49.567405405405502
 20
116.0750135135135395
 30
0.0
  0
SPLINE
  5
4F
  8
Laag 1
 62
250
370
9
  6
ByLayer
100
AcDbEntity
100
AcDbSpline
 70
11
 71
3
 72
8
 73
4
 74
0
 40
0.0
 40
0.0
 40
0.0
 40
0.0
 40
1.0
 40
1.0
 40
1.0
 40
1.0
 10
49.5671054054054778
 20
51.1990135135136128
 30
0.0
 10
49.5671054054054778
 20
51.1990135135136128
 30
0.0
 10
49.5671054054054778
 20
51.1990135135136128
 30
0.0
 10
49.5671054054054778
 20
51.1990135135136128
 30
0.0
  0
SPLINE
  5
50
  8
Laag 1
 62
250
370
9
  6
ByLayer
100
AcDbEntity
100
AcDbSpline
 70
8
 71
3
 72
8
 73
4
 74
0
 40
0.0
 40
0.0
 40
0.0
 40
0.0
 40
1.0
 40
1.0
 40
1.0
 40
1.0
 10
48.5672054054054954
 20
50.1990135135135986
 30
0.0
 10
48.5672054054054954
 20
50.1990135135135986
 30
0.0
 10
48.5672054054054954
 20
50.1988135135136062
 30
0.0
 10
48.5672054054054954
 20
50.1988135135136062
 30
0.0
  0
SPLINE
  5
51
  8
Laag 1
 62
250
370
9
  6
ByLayer
100
AcDbEntity
100
AcDbSpline
 70
8
 71
3
 72
8
 73
4
 74
0
 40
0.0
 40
0.0
 40
0.0
 40
0.0
 40
1.0
 40
1.0
 40
1.0
 40
1.0
 10
49.5671054054054778
 20
49.1990135135135844
 30
0.0
 10
49.5671054054054778
 20
49.1990135135135844
 30
0.0
 10
49.5671054054054778
 20
49.198813513513592
 30
0.0
 10
49.5671054054054778
 20
49.198813513513592
 30
0.0
  0
SPLINE
  5
52
  8
Laag 1
 62
250
370
9
  6
ByLayer
100
AcDbEntity
100
AcDbSpline
 70
11
 71
3
 72
8
 73
4
 74
0
 40
0.0
 40
0.0
 40
0.0
 40
0.0
 40
1.0
 40
1.0
 40
1.0
 40
1.0
 10
49.5671054054054778
 20
51.1990135135136128
 30
0.0
 10
49.5671054054054778
 20
51.1990135135136128
 30
0.0
 10
49.5671054054054778
 20
51.1990135135136128
 30
0.0
 10
49.5671054054054778
 20
51.1990135135136128
 30
0.0
  0
SPLINE
  5
53
  8
Laag 1
 62
250
370
9
  6
ByLayer
100
AcDbEntity
100
AcDbSpline
 70
11
 71
3
 72
8
 73
4
 74
0
 40
0.0
 40
0.0
 40
0.0
 40
0.0
 40
1.0
 40
1.0
 40
1.0
 40
1.0
 10
124.7879054054054961
 20
115.9950135135135838
 30
0.0
 10
124.7879054054054961
 20
115.9950135135135838
 30
0.0
 10
124.7879054054054961
 20
115.9950135135135838
 30
0.0
 10
124.7879054054054961
 20
115.9950135135135838
 30
0.0
  0
SPLINE
  5
54
  8
Laag 1
 62
250
370
9
  6
ByLayer
100
AcDbEntity
100
AcDbSpline
 70
8
 71
3
 72
8
 73
4
 74
0
 40
0.0
 40
0.0
 40
0.0
 40
0.0
 40
1.0
 40
1.0
 40
1.0
 40
1.0
 10
123.7879054054054961
 20
114.9950135135135838
 30
0.0
 10
123.7879054054054961
 20
114.9950135135135838
 30
0.0
 10
123.7879054054054961
 20
114.9949135135136089
 30
0.0
 10
123.7879054054054961
 20
114.9949135135136089
 30
0.0
  0
SPLINE
  5
55
  8
Laag 1
 62
250
370
9
  6
ByLayer
100
AcDbEntity
100
AcDbSpline
 70
11
 71
3
 72
8
 73
4
 74
0
 40
0.0
 40
0.0
 40
0.0
 40
0.0
 40
1.0
 40
1.0
 40
1.0
 40
1.0
 10
125.788005405405471
 20
114.9950135135135838
 30
0.0
 10
125.788005405405471
 20
114.9950135135135838
 30
0.0
 10
125.788005405405471
 20
114.9950135135135838
 30
0.0
 10
125.788005405405471
 20
114.9950135135135838
 30
0.0
  0
SPLINE
  5
56
  8
Laag 1
 62
250
370
9
  6
ByLayer
100
AcDbEntity
100
AcDbSpline
 70
11
 71
3
 72
8
 73
4
 74
0
 40
0.0
 40
0.0
 40
0.0
 40
0.0
 40
1.0
 40
1.0
 40
1.0
 40
1.0
 10
124.7879054054054961
 20
115.9950135135135838
 30
0.0
 10
124.7879054054054961
 20
115.9950135135135838
 30
0.0
 10
124.7879054054054961
 20
115.9950135135135838
 30
0.0
 10
124.7879054054054961
 20
115.9950135135135838
 30
0.0
  0
SPLINE
  5
57
  8
Laag 1
 62
250
370
9
  6
ByLayer
100
AcDbEntity
100
AcDbSpline
 70
11
 71
3
 72
8
 73
4
 74
0
 40
0.0
 40
0.0
 40
0.0
 40
0.0
 40
1.0
 40
1.0
 40
1.0
 40
1.0
 10
124.7088054054054851
 20
51.1990135135136128
 30
0.0
 10
124.7088054054054851
 20
51.1990135135136128
 30
0.0
 10
124.7088054054054851
 20
51.1990135135136128
 30
0.0
 10
124.7088054054054851
 20
51.1990135135136128
 30
0.0
  0
SPLINE
  5
58
  8
Laag 1
 62
250
370
9
  6
ByLayer
100
AcDbEntity
100
AcDbSpline
 70
8
 71
3
 72
8
 73
4
 74
0
 40
0.0
 40
0.0
 40
0.0
 40
0.0
 40
1.0
 40
1.0
 40
1.0
 40
1.0
 10
123.7088054054054567
 20
50.1990135135135986
 30
0.0
 10
123.7088054054054567
 20
50.1990135135135986
 30
0.0
 10
123.7088054054054567
 20
50.1988135135136062
 30
0.0
 10
123.7088054054054567
 20
50.1988135135136062
 30
0.0
  0
SPLINE
  5
59
  8
Laag 1
 62
250
370
9
  6
ByLayer
100
AcDbEntity
100
AcDbSpline
 70
8
 71
3
 72
8
 73
4
 74
0
 40
0.0
 40
0.0
 40
0.0
 40
0.0
 40
1.0
 40
1.0
 40
1.0
 40
1.0
 10
124.7087054054055102
 20
49.1990135135135844
 30
0.0
 10
124.7087054054055102
 20
49.1990135135135844
 30
0.0
 10
124.7087054054055102
 20
49.198813513513592
 30
0.0
 10
124.7087054054055102
 20
49.198813513513592
 30
0.0
  0
SPLINE
  5
5A
  8
Laag 1
 62
250
370
9
  6
ByLayer
100
AcDbEntity
100
AcDbSpline
 70
11
 71
3
 72
8
 73
4
 74
0
 40
0.0
 40
0.0
 40
0.0
 40
0.0
 40
1.0
 40
1.0
 40
1.0
 40
1.0
 10
125.7090054054054917
 20
50.1990135135135986
 30
0.0
 10
125.7090054054054917
 20
50.1990135135135986
 30
0.0
 10
125.7090054054054917
 20
50.1990135135135986
 30
0.0
 10
125.7090054054054917
 20
50.1990135135135986
 30
0.0
  0
SPLINE
  5
5B
  8
Laag 1
 62
250
370
9
  6
ByLayer
100
AcDbEntity
100
AcDbSpline
 70
11
 71
3
 72
8
 73
4
 74
0
 40
0.0
 40
0.0
 40
0.0
 40
0.0
 40
1.0
 40
1.0
 40
1.0
 40
1.0
 10
124.7088054054054851
 20
51.1990135135136128
 30
0.0
 10
124.7088054054054851
 20
51.1990135135136128
 30
0.0
 10
124.7088054054054851
 20
51.1990135135136128
 30
0.0
 10
124.7088054054054851
 20
51.1990135135136128
 30
0.0
  0
SPLINE
  5
5C
  8
Laag 1
 62
256
370
9
  6
ByLayer
100
AcDbEntity
100
AcDbSpline
 70
8
 71
3
 72
36
 73
32
 74
0
 40
0.0
 40
0.0
 40
0.0
 40
0.0
 40
0.0344827586206897
 40
0.0689655172413793
 40
0.103448275862069
 40
0.1379310344827586
 40
0.1724137931034483
 40
0.2068965517241379
 40
0.2413793103448276
 40
0.2758620689655172
 40
0.3103448275862069
 40
0.3448275862068966
 40
0.3793103448275862
 40
0.4137931034482759
 40
0.4482758620689655
 40
0.4827586206896551
 40
0.5172413793103449
 40
0.5517241379310345
 40
0.5862068965517241
 40
0.6206896551724138
 40
0.6551724137931034
 40
0.6896551724137931
 40
0.7241379310344828
 40
0.7586206896551724
 40
0.7931034482758621
 40
0.8275862068965517
 40
0.8620689655172413
 40
0.896551724137931
 40
0.9310344827586207
 40
0.9655172413793103
 40
1.0
 40
1.0
 40
1.0
 40
1.0
 10
47.019180295273344
 20
85.2294760685796575
 30
0.0
 10
47.019180295273344
 20
85.2294760685796575
 30
0.0
 10
56.1834802952733341
 20
85.2294760685796575
 30
0.0
 10
56.1834802952733341
 20
85.2294760685796575
 30
0.0
 10
56.1834802952733341
 20
85.2294760685796575
 30
0.0
 10
57.5186802952732918
 20
85.2296760685796642
 30
0.0
 10
58.601480295273312
 20
84.146876068579644
 30
0.0
 10
58.601480295273312
 20
82.8117760685796327
 30
0.0
 10
58.601480295273312
 20
82.8117760685796327
 30
0.0
 10
58.601480295273312
 20
82.8117760685796327
 30
0.0
 10
58.6013802952733371
 20
59.6473760685796464
 30
0.0
 10
58.6013802952733371
 20
59.6473760685796464
 30
0.0
 10
58.6013802952733371
 20
59.6473760685796464
 30
0.0
 10
58.601480295273312
 20
58.3124760685796986
 30
0.0
 10
57.5186802952732918
 20
57.2296760685796926
 30
0.0
 10
56.1835802952732806
 20
57.2296760685796926
 30
0.0
 10
56.1835802952732806
 20
57.2296760685796926
 30
0.0
 10
56.1835802952732806
 20
57.2296760685796926
 30
0.0
 10
47.019180295273344
 20
57.2294760685797002
 30
0.0
 10
47.019180295273344
 20
57.2294760685797002
 30
0.0
 10
47.019180295273344
 20
57.2294760685797002
 30
0.0
 10
45.6840802952733327
 20
57.2296760685796926
 30
0.0
 10
44.6013802952732874
 20
58.3124760685796986
 30
0.0
 10
44.6013802952732874
 20
59.6475760685797098
 30
0.0
 10
44.6013802952732874
 20
59.6475760685797098
 30
0.0
 10
44.6013802952732874
 20
59.6475760685797098
 30
0.0
 10
44.6012802952733267
 20
82.8115760685796545
 30
0.0
 10
44.6012802952733267
 20
82.8115760685796545
 30
0.0
 10
44.6012802952733267
 20
82.8115760685796545
 30
0.0
 10
44.6013802952732874
 20
84.146876068579644
 30
0.0
 10
45.6840802952733327
 20
85.2296760685796642
 30
0.0
 10
47.0192802952733047
 20
85.2296760685796642
 30
0.0
  0
SPLINE
  5
5D
  8
Laag 1
 62
256
370
9
  6
ByLayer
100
AcDbEntity
100
AcDbSpline
 70
8
 71
3
 72
36
 73
32
 74
0
 40
0.0
 40
0.0
 40
0.0
 40
0.0
 40
0.0344827586206897
 40
0.0689655172413793
 40
0.103448275862069
 40
0.1379310344827586
 40
0.1724137931034483
 40
0.2068965517241379
 40
0.2413793103448276
 40
0.2758620689655172
 40
0.3103448275862069
 40
0.3448275862068966
 40
0.3793103448275862
 40
0.4137931034482759
 40
0.4482758620689655
 40
0.4827586206896551
 40
0.5172413793103449
 40
0.5517241379310345
 40
0.5862068965517241
 40
0.6206896551724138
 40
0.6551724137931034
 40
0.6896551724137931
 40
0.7241379310344828
 40
0.7586206896551724
 40
0.7931034482758621
 40
0.8275862068965517
 40
0.8620689655172413
 40
0.896551724137931
 40
0.9310344827586207
 40
0.9655172413793103
 40
1.0
 40
1.0
 40
1.0
 40
1.0
 10
90.9739802952733498
 20
85.2294760685796575
 30
0.0
 10
90.9739802952733498
 20
85.2294760685796575
 30
0.0
 10
100.1382802952733186
 20
85.2294760685796575
 30
0.0
 10
100.1382802952733186
 20
85.2294760685796575
 30
0.0
 10
100.1382802952733186
 20
85.2294760685796575
 30
0.0
 10
101.4734802952733048
 20
85.2296760685796642
 30
0.0
 10
102.5562802952732966
 20
84.146876068579644
 30
0.0
 10
102.5562802952732966
 20
82.8117760685796327
 30
0.0
 10
102.5562802952732966
 20
82.8117760685796327
 30
0.0
 10
102.5562802952732966
 20
82.8117760685796327
 30
0.0
 10
102.5561802952733501
 20
59.6473760685796464
 30
0.0
 10
102.5561802952733501
 20
59.6473760685796464
 30
0.0
 10
102.5561802952733501
 20
59.6473760685796464
 30
0.0
 10
102.5562802952732966
 20
58.3124760685796986
 30
0.0
 10
101.4734802952733048
 20
57.2296760685796926
 30
0.0
 10
100.1383802952733504
 20
57.2296760685796926
 30
0.0
 10
100.1383802952733504
 20
57.2296760685796926
 30
0.0
 10
100.1383802952733504
 20
57.2296760685796926
 30
0.0
 10
90.9739802952733498
 20
57.2294760685797002
 30
0.0
 10
90.9739802952733498
 20
57.2294760685797002
 30
0.0
 10
90.9739802952733498
 20
57.2294760685797002
 30
0.0
 10
89.6388802952733386
 20
57.2296760685796926
 30
0.0
 10
88.5561802952733501
 20
58.3124760685796986
 30
0.0
 10
88.5561802952733501
 20
59.6475760685797098
 30
0.0
 10
88.5561802952733501
 20
59.6475760685797098
 30
0.0
 10
88.5561802952733501
 20
59.6475760685797098
 30
0.0
 10
88.5560802952733184
 20
82.8115760685796545
 30
0.0
 10
88.5560802952733184
 20
82.8115760685796545
 30
0.0
 10
88.5560802952733184
 20
82.8115760685796545
 30
0.0
 10
88.5561802952733501
 20
84.146876068579644
 30
0.0
 10
89.6388802952733386
 20
85.2296760685796642
 30
0.0
 10
90.9740802952732963
 20
85.2296760685796642
 30
0.0
  0
SPLINE
  5
5E
  8
Laag 1
 62
256
370
9
  6
ByLayer
100
AcDbEntity
100
AcDbSpline
 70
8
 71
3
 72
36
 73
32
 74
0
 40
0.0
 40
0.0
 40
0.0
 40
0.0
 40
0.0344827586206897
 40
0.0689655172413793
 40
0.103448275862069
 40
0.1379310344827586
 40
0.1724137931034483
 40
0.2068965517241379
 40
0.2413793103448276
 40
0.2758620689655172
 40
0.3103448275862069
 40
0.3448275862068966
 40
0.3793103448275862
 40
0.4137931034482759
 40
0.4482758620689655
 40
0.4827586206896551
 40
0.5172413793103449
 40
0.5517241379310345
 40
0.5862068965517241
 40
0.6206896551724138
 40
0.6551724137931034
 40
0.6896551724137931
 40
0.7241379310344828
 40
0.7586206896551724
 40
0.7931034482758621
 40
0.8275862068965517
 40
0.8620689655172413
 40
0.896551724137931
 40
0.9310344827586207
 40
0.9655172413793103
 40
1.0
 40
1.0
 40
1.0
 40
1.0
 10
37.7438802952732999
 20
118.2524760685796821
 30
0.0
 10
37.7438802952732999
 20
118.2524760685796821
 30
0.0
 10
109.4536802952733012
 20
118.2524760685796821
 30
0.0
 10
109.4536802952733012
 20
118.2524760685796821
 30
0.0
 10
109.4536802952733012
 20
118.2524760685796821
 30
0.0
 10
110.0860802952733195
 20
118.2524760685796821
 30
0.0
 10
110.5988802952732897
 20
117.7396760685796266
 30
0.0
 10
110.5988802952732897
 20
117.1073760685796685
 30
0.0
 10
110.5988802952732897
 20
117.1073760685796685
 30
0.0
 10
110.5988802952732897
 20
117.1073760685796685
 30
0.0
 10
110.5987802952733432
 20
94.0975760685796274
 30
0.0
 10
110.5987802952733432
 20
94.0975760685796274
 30
0.0
 10
110.5987802952733432
 20
94.0975760685796274
 30
0.0
 10
110.5988802952732897
 20
93.4654760685796475
 30
0.0
 10
110.0860802952733195
 20
92.9526760685796773
 30
0.0
 10
109.453780295273333
 20
92.9526760685796773
 30
0.0
 10
109.453780295273333
 20
92.9526760685796773
 30
0.0
 10
109.453780295273333
 20
92.9526760685796773
 30
0.0
 10
37.7438802952732999
 20
92.9524760685796707
 30
0.0
 10
37.7438802952732999
 20
92.9524760685796707
 30
0.0
 10
37.7438802952732999
 20
92.9524760685796707
 30
0.0
 10
37.1116802952732883
 20
92.9526760685796773
 30
0.0
 10
36.5988802952733039
 20
93.4654760685796475
 30
0.0
 10
36.5988802952733039
 20
94.0977760685796909
 30
0.0
 10
36.5988802952733039
 20
94.0977760685796909
 30
0.0
 10
36.5988802952733039
 20
94.0977760685796909
 30
0.0
 10
36.5987802952733432
 20
117.1073760685796685
 30
0.0
 10
36.5987802952733432
 20
117.1073760685796685
 30
0.0
 10
36.5987802952733432
 20
117.1073760685796685
 30
0.0
 10
36.5988802952733039
 20
117.7396760685796266
 30
0.0
 10
37.1116802952732883
 20
118.2524760685796821
 30
0.0
 10
37.7439802952733316
 20
118.2524760685796821
 30
0.0
  0
SPLINE
  5
5F
  8
Laag 1
 62
256
370
9
  6
ByLayer
100
AcDbEntity
100
AcDbSpline
 70
11
 71
3
 72
20
 73
16
 74
0
 40
0.0
 40
0.0
 40
0.0
 40
0.0
 40
0.0769230769230769
 40
0.1538461538461539
 40
0.2307692307692308
 40
0.3076923076923077
 40
0.3846153846153846
 40
0.4615384615384616
 40
0.5384615384615385
 40
0.6153846153846154
 40
0.6923076923076923
 40
0.7692307692307693
 40
0.8461538461538463
 40
0.9230769230769231
 40
1.0
 40
1.0
 40
1.0
 40
1.0
 10
36.1324802952733393
 20
122.7924760685796315
 30
0.0
 10
35.5802802952733543
 20
122.7924760685796315
 30
0.0
 10
35.1325802952733568
 20
122.3447760685796339
 30
0.0
 10
35.1325802952733568
 20
121.7925760685796632
 30
0.0
 10
35.1325802952733568
 20
121.7925760685796632
 30
0.0
 10
35.1324802952733251
 20
121.2402760685796181
 30
0.0
 10
35.5802802952733543
 20
120.7925760685796206
 30
0.0
 10
36.1324802952733393
 20
120.7925760685796206
 30
0.0
 10
36.1324802952733393
 20
120.7925760685796206
 30
0.0
 10
36.6847802952733559
 20
120.7924760685796741
 30
0.0
 10
37.1324802952733535
 20
121.2402760685796181
 30
0.0
 10
37.1324802952733535
 20
121.7924760685796883
 30
0.0
 10
37.1324802952733535
 20
121.7924760685796883
 30
0.0
 10
37.1325802952733142
 20
122.3447760685796339
 30
0.0
 10
36.6847802952733559
 20
122.7924760685796315
 30
0.0
 10
36.1324802952733393
 20
122.7924760685796315
 30
0.0
  0
SPLINE
  5
60
  8
Laag 1
 62
256
370
9
  6
ByLayer
100
AcDbEntity
100
AcDbSpline
 70
11
 71
3
 72
20
 73
16
 74
0
 40
0.0
 40
0.0
 40
0.0
 40
0.0
 40
0.0769230769230769
 40
0.1538461538461539
 40
0.2307692307692308
 40
0.3076923076923077
 40
0.3846153846153846
 40
0.4615384615384616
 40
0.5384615384615385
 40
0.6153846153846154
 40
0.6923076923076923
 40
0.7692307692307693
 40
0.8461538461538463
 40
0.9230769230769231
 40
1.0
 40
1.0
 40
1.0
 40
1.0
 10
73.5609802952733105
 20
78.0914760685796807
 30
0.0
 10
69.6949802952732966
 20
78.0914760685796807
 30
0.0
 10
66.5609802952732821
 20
74.9574760685796662
 30
0.0
 10
66.5609802952732821
 20
71.091576068579684
 30
0.0
 10
66.5609802952732821
 20
71.091576068579684
 30
0.0
 10
66.5608802952733356
 20
67.2255760685796702
 30
0.0
 10
69.6948802952733502
 20
64.0915760685796556
 30
0.0
 10
73.560880295273364
 20
64.0915760685796556
 30
0.0
 10
73.560880295273364
 20
64.0915760685796556
 30
0.0
 10
77.4268802952732926
 20
64.0914760685796949
 30
0.0
 10
80.5608802952733072
 20
67.2254760685797095
 30
0.0
 10
80.5608802952733072
 20
71.0914760685796523
 30
0.0
 10
80.5608802952733072
 20
71.0914760685796523
 30
0.0
 10
80.5609802952733389
 20
74.9574760685796662
 30
0.0
 10
77.4269802952733244
 20
78.0914760685796807
 30
0.0
 10
73.5609802952733105
 20
78.0914760685796807
 30
0.0
  0
SPLINE
  5
61
  8
Laag 1
 62
256
370
9
  6
ByLayer
100
AcDbEntity
100
AcDbSpline
 70
11
 71
3
 72
20
 73
16
 74
0
 40
0.0
 40
0.0
 40
0.0
 40
0.0
 40
0.0769230769230769
 40
0.1538461538461539
 40
0.2307692307692308
 40
0.3076923076923077
 40
0.3846153846153846
 40
0.4615384615384616
 40
0.5384615384615385
 40
0.6153846153846154
 40
0.6923076923076923
 40
0.7692307692307693
 40
0.8461538461538463
 40
0.9230769230769231
 40
1.0
 40
1.0
 40
1.0
 40
1.0
 10
111.2738802952733295
 20
57.9164760685796978
 30
0.0
 10
110.7215802952732986
 20
57.9164760685796978
 30
0.0
 10
110.273880295273301
 20
57.4688760685796609
 30
0.0
 10
110.273880295273301
 20
56.916676068579676
 30
0.0
 10
110.273880295273301
 20
56.916676068579676
 30
0.0
 10
110.2737802952733546
 20
56.3642760685796986
 30
0.0
 10
110.7215802952732986
 20
55.9166760685796618
 30
0.0
 10
111.2737802952733546
 20
55.9166760685796618
 30
0.0
 10
111.2737802952733546
 20
55.9166760685796618
 30
0.0
 10
111.8260802952733002
 20
55.9164760685796693
 30
0.0
 10
112.2737802952732977
 20
56.3642760685796986
 30
0.0
 10
112.2737802952732977
 20
56.9164760685796836
 30
0.0
 10
112.2737802952732977
 20
56.9164760685796836
 30
0.0
 10
112.2738802952733295
 20
57.4688760685796609
 30
0.0
 10
111.8260802952733002
 20
57.9164760685796978
 30
0.0
 10
111.2738802952733295
 20
57.9164760685796978
 30
0.0
  0
SPLINE
  5
62
  8
Laag 1
 62
256
370
9
  6
ByLayer
100
AcDbEntity
100
AcDbSpline
 70
11
 71
3
 72
20
 73
16
 74
0
 40
0.0
 40
0.0
 40
0.0
 40
0.0
 40
0.0769230769230769
 40
0.1538461538461539
 40
0.2307692307692308
 40
0.3076923076923077
 40
0.3846153846153846
 40
0.4615384615384616
 40
0.5384615384615385
 40
0.6153846153846154
 40
0.6923076923076923
 40
0.7692307692307693
 40
0.8461538461538463
 40
0.9230769230769231
 40
1.0
 40
1.0
 40
1.0
 40
1.0
 10
111.3529802952733405
 20
122.7124760685796758
 30
0.0
 10
110.8006802952733381
 20
122.7124760685796758
 30
0.0
 10
110.3529802952733405
 20
122.2647760685796783
 30
0.0
 10
110.3529802952733405
 20
121.7125760685797076
 30
0.0
 10
110.3529802952733405
 20
121.7125760685797076
 30
0.0
 10
110.3528802952733088
 20
121.1602760685796625
 30
0.0
 10
110.8006802952733381
 20
120.7125760685796649
 30
0.0
 10
111.3528802952733088
 20
120.7125760685796649
 30
0.0
 10
111.3528802952733088
 20
120.7125760685796649
 30
0.0
 10
111.9051802952733397
 20
120.7124760685796332
 30
0.0
 10
112.3528802952733372
 20
121.1602760685796625
 30
0.0
 10
112.3528802952733372
 20
121.7124760685796758
 30
0.0
 10
112.3528802952733372
 20
121.7124760685796758
 30
0.0
 10
112.3529802952732837
 20
122.2647760685796783
 30
0.0
 10
111.9051802952733397
 20
122.7124760685796758
 30
0.0
 10
111.3529802952733405
 20
122.7124760685796758
 30
0.0
  0
SPLINE
  5
63
  8
Laag 1
 62
256
370
9
  6
ByLayer
100
AcDbEntity
100
AcDbSpline
 70
11
 71
3
 72
20
 73
16
 74
0
 40
0.0
 40
0.0
 40
0.0
 40
0.0
 40
0.0769230769230769
 40
0.1538461538461539
 40
0.2307692307692308
 40
0.3076923076923077
 40
0.3846153846153846
 40
0.4615384615384616
 40
0.5384615384615385
 40
0.6153846153846154
 40
0.6923076923076923
 40
0.7692307692307693
 40
0.8461538461538463
 40
0.9230769230769231
 40
1.0
 40
1.0
 40
1.0
 40
1.0
 10
36.1321802952733151
 20
57.9164760685796978
 30
0.0
 10
35.5799802952733302
 20
57.9164760685796978
 30
0.0
 10
35.1322802952733326
 20
57.4688760685796609
 30
0.0
 10
35.1322802952733326
 20
56.916676068579676
 30
0.0
 10
35.1322802952733326
 20
56.916676068579676
 30
0.0
 10
35.1321802952733009
 20
56.3642760685796986
 30
0.0
 10
35.5799802952733302
 20
55.9166760685796618
 30
0.0
 10
36.1321802952733151
 20
55.9166760685796618
 30
0.0
 10
36.1321802952733151
 20
55.9166760685796618
 30
0.0
 10
36.6844802952733318
 20
55.9164760685796693
 30
0.0
 10
37.1321802952733293
 20
56.3642760685796986
 30
0.0
 10
37.1321802952733293
 20
56.9164760685796836
 30
0.0
 10
37.1321802952733293
 20
56.9164760685796836
 30
0.0
 10
37.13228029527329
 20
57.4688760685796609
 30
0.0
 10
36.6844802952733318
 20
57.9164760685796978
 30
0.0
 10
36.1321802952733151
 20
57.9164760685796978
 30
0.0
  0
LINE
  5
64
100
AcDbEntity
100
AcDbLine
  8
Laag 1
 62
256
370
-1
  6
ByLayer
 10
123.8890572687224676
 20
124.5473832599119106
 30
0.0
 11
218.8890572687224676
 21
124.5473832599119106
 31
0.0
  0
CIRCLE
  5
65
100
AcDbEntity
100
AcDbCircle
  8
Laag 1
 62
256
370
-1
  6
ByLayer
 10
124.3890572687224676
 20
116.0473832599119106
 30
0.0
 40
1.5
  0
CIRCLE
  5
66
100
AcDbEntity
100
AcDbCircle
  8
Laag 1
 62
256
370
-1
  6
ByLayer
 10
218.3890572687224676
 20
116.0473832599119106
 30
0.0
 40
1.5
  0
CIRCLE
  5
67
100
AcDbEntity
100
AcDbCircle
  8
Laag 1
 62
256
370
-1
  6
ByLayer
 10
168.9972061674009183
 20
196.9282114537444954
 30
0.0
 40
11.0
  0
LINE
  5
68
100
AcDbEntity
100
AcDbLine
  8
Laag 1
 62
256
370
-1
  6
ByLayer
 10
150.1037129867841315
 20
49.0949103083700464
 30
0.0
 11
190.1037129867841315
 21
49.0949103083700464
 31
0.0
  0
LINE
  5
69
100
AcDbEntity
100
AcDbLine
  8
Laag 1
 62
256
370
-1
  6
ByLayer
 10
150.1037129867841315
 20
106.0949103083700464
 30
0.0
 11
190.1037129867841315
 21
106.0949103083700464
 31
0.0
  0
LINE
  5
6A
100
AcDbEntity
100
AcDbLine
  8
Laag 1
 62
256
370
-1
  6
ByLayer
 10
147.1037129867841315
 20
52.0949103083700464
 30
0.0
 11
147.1037129867841315
 21
103.0949103083700464
 31
0.0
  0
LINE
  5
6B
100
AcDbEntity
100
AcDbLine
  8
Laag 1
 62
256
370
-1
  6
ByLayer
 10
193.1037129867841315
 20
103.0949103083700464
 30
0.0
 11
193.1037129867841315
 21
52.0949103083700464
 31
0.0
  0
CIRCLE
  5
6C
100
AcDbEntity
100
AcDbCircle
  8
Laag 1
 62
256
370
-1
  6
ByLayer
 10
150.1037129867841315
 20
52.0949103083700464
 30
0.0
 40
3.0
  0
CIRCLE
  5
6D
100
AcDbEntity
100
AcDbCircle
  8
Laag 1
 62
256
370
-1
  6
ByLayer
 10
190.1037129867841315
 20
52.0949103083700464
 30
0.0
 40
3.0
  0
CIRCLE
  5
6E
100
AcDbEntity
100
AcDbCircle
  8
Laag 1
 62
256
370
-1
  6
ByLayer
 10
190.1037129867841315
 20
103.0949103083700464
 30
0.0
 40
3.0
  0
CIRCLE
  5
6F
100
AcDbEntity
100
AcDbCircle
  8
Laag 1
 62
256
370
-1
  6
ByLayer
 10
150.1037129867841315
 20
103.0949103083700464
 30
0.0
 40
3.0
  0
CIRCLE
  5
70
100
AcDbEntity
100
AcDbCircle
  8
Laag 1
 62
256
370
-1
  6
ByLayer
 10
147.1037129867841315
 20
48.0949103083700464
 30
0.0
 40
1.5
  0
CIRCLE
  5
71
100
AcDbEntity
100
AcDbCircle
  8
Laag 1
 62
256
370
-1
  6
ByLayer
 10
193.1037129867841315
 20
48.0949103083700464
 30
0.0
 40
1.5
  0
CIRCLE
  5
72
100
AcDbEntity
100
AcDbCircle
  8
Laag 1
 62
256
370
-1
  6
ByLayer
 10
147.1037129867841315
 20
107.0949103083700464
 30
0.0
 40
1.5
  0
CIRCLE
  5
73
100
AcDbEntity
100
AcDbCircle
  8
Laag 1
 62
256
370
-1
  6
ByLayer
 10
193.1037129867841315
 20
107.0949103083700464
 30
0.0
 40
1.5
  0
LINE
  5
74
100
AcDbEntity
100
AcDbLine
  8
Laag 1
 62
256
370
-1
  6
ByLayer
 10
123.8889999999999958
 20
124.546999999999997
 30
0.0
 11
123.8889999999999958
 21
161.5
 31
0.0
  0
LINE
  5
75
100
AcDbEntity
100
AcDbLine
  8
Laag 1
 62
256
370
-1
  6
ByLayer
 10
123.8889999999999958
 20
161.5
 30
0.0
 11
218.88900000000001
 21
161.5
 31
0.0
  0
LINE
  5
76
100
AcDbEntity
100
AcDbLine
  8
Laag 1
 62
256
370
-1
  6
ByLayer
 10
218.88900000000001
 20
124.546999999999997
 30
0.0
 11
218.88900000000001
 21
161.5
 31
0.0
  0
CIRCLE
  5
77
100
AcDbEntity
100
AcDbCircle
  8
Laag 1
 62
256
370
-1
  6
ByLayer
 10
124.3889999999999958
 20
170.0
 30
0.0
 40
1.5
  0
CIRCLE
  5
78
100
AcDbEntity
100
AcDbCircle
  8
Laag 1
 62
256
370
-1
  6
ByLayer
 10
218.38900000000001
 20
170.0
 30
0.0
 40
1.5
  0
LINE
  5
79
100
AcDbEntity
100
AcDbLine
  8
0
 62
256
370
-1
  6
ByLayer
 10
0.0
 20
627.0
 30
0.0
 11
0.0
 21
0.0
 31
0.0
  0
LINE
  5
7A
100
AcDbEntity
100
AcDbLine
  8
0
 62
256
370
-1
  6
ByLayer
 10
252.0
 20
0.0
 30
0.0
 11
252.0
 21
627.0
 31
0.0
  0
LINE
  5
7B
100
AcDbEntity
100
AcDbLine
  8
0
 62
256
370
-1
  6
ByLayer
 10
252.0
 20
627.0
 30
0.0
 11
0.0
 21
627.0
 31
0.0
  0
LINE
  5
7C
100
AcDbEntity
100
AcDbLine
  8
0
 62
256
370
-1
  6
ByLayer
 10
0.0
 20
0.0
 30
0.0
 11
252.0
 21
0.0
 31
0.0
  0
CIRCLE
  5
7D
100
AcDbEntity
100
AcDbCircle
  8
Layer 1
 62
256
370
-1
  6
ByLayer
 10
10.0
 20
10.0
 30
0.0
 40
3.0
  0
CIRCLE
  5
7E
100
AcDbEntity
100
AcDbCircle
  8
Layer 1
 62
256
370
-1
  6
ByLayer
 10
242.0
 20
10.0
 30
0.0
 40
3.0
  0
CIRCLE
  5
7F
100
AcDbEntity
100
AcDbCircle
  8
Layer 1
 62
256
370
-1
  6
ByLayer
 10
35.0
 20
617.0
 30
0.0
 40
3.0
  0
CIRCLE
  5
80
100
AcDbEntity
100
AcDbCircle
  8
Layer 1
 62
256
370
-1
  6
ByLayer
 10
60.0
 20
617.0
 30
0.0
 40
3.0
  0
CIRCLE
  5
81
100
AcDbEntity
100
AcDbCircle
  8
Layer 1
 62
256
370
-1
  6
ByLayer
 10
217.0
 20
617.0
 30
0.0
 40
3.0
  0
CIRCLE
  5
82
100
AcDbEntity
100
AcDbCircle
  8
Layer 1
 62
256
370
-1
  6
ByLayer
 10
192.0
 20
617.0
 30
0.0
 40
3.0
  0
CIRCLE
  5
83
100
AcDbEntity
100
AcDbCircle
  8
Laag 1
 62
256
370
-1
  6
ByLayer
 10
51.3579357885462429
 20
143.1509968810572389
 30
0.0
 40
5.0
  0
CIRCLE
  5
84
100
AcDbEntity
100
AcDbCircle
  8
Laag 1
 62
256
370
-1
  6
ByLayer
 10
95.4556999999999931
 20
143.1510000000000105
 30
0.0
 40
3.0
  0
ENDSEC
  0
SECTION
  2
OBJECTS
  0
DICTIONARY
  5
C
100
AcDbDictionary
280
0
281
1
  3
ACAD_GROUP
350
D
  3
ACAD_LAYOUT
350
1A
  3
ACAD_MLINESTYLE
350
17
  3
ACAD_PLOTSETTINGS
350
19
  3
ACAD_PLOTSTYLENAME
350
E
  3
AcDbVariableDictionary
350
85
  0
DICTIONARY
  5
D
100
AcDbDictionary
280
0
281
1
  0
ACDBDICTIONARYWDFLT
  5
E
100
AcDbDictionary
281
1
  3
Normal
350
F
100
AcDbDictionaryWithDefault
340
F
  0
ACDBPLACEHOLDER
  5
F
  0
DICTIONARY
  5
17
100
AcDbDictionary
280
0
281
1
  3
Standard
350
18
  0
MLINESTYLE
  5
18
100
AcDbMlineStyle
  2
STANDARD
 70
0
  3

 62
256
 51
90.0
 52
90.0
 71
2
 49
0.5
 62
256
  6
BYLAYER
 49
-0.5
 62
256
  6
BYLAYER
  0
DICTIONARY
  5
19
100
AcDbDictionary
280
0
281
1
  0
DICTIONARY
  5
1A
100
AcDbDictionary
281
1
  3
Layout1
350
1E
  3
Layout2
350
26
  3
Model
350
22
  0
LAYOUT
  5
1E
100
AcDbPlotSettings
  1

  2
C:\Program Files\AutoCAD 2002\plotters\DWF ePlot (optimized for plotting).pc3
  4

  6

 40
0.0
 41
0.0
 42
0.0
 43
0.0
 44
0.0
 45
0.0
 46
0.0
 47
0.0
 48
0.0
 49
0.0
140
0.0
141
0.0
142
1.0
143
1.0
 70
688
 72
0
 73
0
 74
5
  7

 75
16
147
1.0
148
0.0
149
0.0
100
AcDbLayout
  1
Layout1
 70
1
 71
1
 10
0.0
 20
0.0
 11
420.0
 21
297.0
 12
0.0
 22
0.0
 32
0.0
 14
100000000000000000000.0
 24
100000000000000000000.0
 34
100000000000000000000.0
 15
-100000000000000000000.0
 25
-100000000000000000000.0
 35
-100000000000000000000.0
146
0.0
 13
0.0
 23
0.0
 33
0.0
 16
1.0
 26
0.0
 36
0.0
 17
0.0
 27
1.0
 37
0.0
 76
0
330
1B
  0
LAYOUT
  5
22
100
AcDbPlotSettings
  1

  2
C:\Program Files\AutoCAD 2002\plotters\DWF ePlot (optimized for plotting).pc3
  4

  6

 40
0.0
 41
0.0
 42
0.0
 43
0.0
 44
0.0
 45
0.0
 46
0.0
 47
0.0
 48
0.0
 49
0.0
140
0.0
141
0.0
142
1.0
143
1.0
 70
1712
 72
0
 73
0
 74
0
  7

 75
0
147
1.0
148
0.0
149
0.0
100
AcDbLayout
  1
Model
 70
1
 71
0
 10
0.0
 20
0.0
 11
12.0
 21
9.0
 12
0.0
 22
0.0
 32
0.0
 14
0.0
 24
0.0
 34
0.0
 15
0.0
 25
0.0
 35
0.0
146
0.0
 13
0.0
 23
0.0
 33
0.0
 16
1.0
 26
0.0
 36
0.0
 17
0.0
 27
1.0
 37
0.0
 76
0
330
1F
  0
LAYOUT
  5
26
100
AcDbPlotSettings
  1

  2
C:\Program Files\AutoCAD 2002\plotters\DWF ePlot (optimized for plotting).pc3
  4

  6

 40
0.0
 41
0.0
 42
0.0
 43
0.0
 44
0.0
 45
0.0
 46
0.0
 47
0.0
 48
0.0
 49
0.0
140
0.0
141
0.0
142
1.0
143
1.0
 70
688
 72
0
 73
0
 74
5
  7

 75
16
147
1.0
148
0.0
149
0.0
100
AcDbLayout
  1
Layout2
 70
1
 71
2
 10
0.0
 20
0.0
 11
12.0
 21
9.0
 12
0.0
 22
0.0
 32
0.0
 14
0.0
 24
0.0
 34
0.0
 15
0.0
 25
0.0
 35
0.0
146
0.0
 13
0.0
 23
0.0
 33
0.0
 16
1.0
 26
0.0
 36
0.0
 17
0.0
 27
1.0
 37
0.0
 76
0
330
23
  0
DICTIONARY
  5
85
100
AcDbDictionary
281
1
  3
DIMASSOC
350
87
  3
HIDETEXT
350
86
  0
DICTIONARYVAR
  5
86
100
DictionaryVariables
280
0
  1
2
  0
DICTIONARYVAR
  5
87
100
DictionaryVariables
280
0
  1
1
  0
ENDSEC
  0
EOF
