  0
SECTION
  2
HEADER
  9
$ACADVER
  1
AC1014
  9
$HANDSEED
  5
FFFF
  9
$MEASUREMENT
 70
     1
  0
ENDSEC
  0
SECTION
  2
TABLES
  0
TABLE
  2
VPORT
  5
8
330
0
100
AcDbSymbolTable
 70
     4
  0
VPORT
  5
2E
330
8
100
AcDbSymbolTableRecord
100
AcDbViewportTableRecord
  2
*ACTIVE
 70
     0
 10
0.0
 20
0.0
 11
1.0
 21
1.0
 12
210.0
 22
148.5
 13
0.0
 23
0.0
 14
10.0
 24
10.0
 15
10.0
 25
10.0
 16
0.0
 26
0.0
 36
1.0
 17
0.0
 27
0.0
 37
0.0
 40
341.0
 41
1.24
 42
50.0
 43
0.0
 44
0.0
 50
0.0
 51
0.0
 71
     0
 72
   100
 73
     1
 74
     3
 75
     0
 76
     0
 77
     0
 78
     0
  0
ENDTAB
  0
TABLE
  2
LTYPE
  5
5
330
0
100
AcDbSymbolTable
 70
     1
  0
LTYPE
  5
14
330
5
100
AcDbSymbolTableRecord
100
AcDbLinetypeTableRecord
  2
BYBLOCK
 70
     0
  3

 72
    65
 73
     0
 40
0.0
  0
LTYPE
  5
15
330
5
100
AcDbSymbolTableRecord
100
AcDbLinetypeTableRecord
  2
BYLAYER
 70
     0
  3

 72
    65
 73
     0
 40
0.0
  0
LTYPE
  5
16
330
5
100
AcDbSymbolTableRecord
100
AcDbLinetypeTableRecord
  2
CONTINUOUS
 70
     0
  3
Solid line
 72
    65
 73
     0
 40
0.0
  0
ENDTAB
  0
TABLE
  2
LAYER
  5
2
100
AcDbSymbolTable
 70
2
  0
LAYER
  5
50
100
AcDbSymbolTableRecord
100
AcDbLayerTableRecord
  2
0
 70
0
  6
CONTINUOUS
  0
LAYER
  5
51
100
AcDbSymbolTableRecord
100
AcDbLayerTableRecord
  2
(R)
 70
0
  6
CONTINUOUS
  0
ENDTAB
  0
TABLE
  2
STYLE
  5
3
330
0
100
AcDbSymbolTable
 70
     1
  0
STYLE
  5
11
330
3
100
AcDbSymbolTableRecord
100
AcDbTextStyleTableRecord
  2
STANDARD
 70
     0
 40
0.0
 41
1.0
 50
0.0
 71
     0
 42
2.5
  3
txt
  4

  0
ENDTAB
  0
TABLE
  2
VIEW
  5
6
330
0
100
AcDbSymbolTable
 70
     0
  0
ENDTAB
  0
TABLE
  2
UCS
  5
7
330
0
100
AcDbSymbolTable
 70
     0
  0
ENDTAB
  0
TABLE
  2
APPID
  5
9
330
0
100
AcDbSymbolTable
 70
     2
  0
APPID
  5
12
330
9
100
AcDbSymbolTableRecord
100
AcDbRegAppTableRecord
  2
ACAD
 70
     0
  0
ENDTAB
  0
TABLE
  2
DIMSTYLE
  5
A
330
0
100
AcDbSymbolTable
 70
     1
  0
DIMSTYLE
105
27
330
A
100
AcDbSymbolTableRecord
100
AcDbDimStyleTableRecord
  2
ISO-25
 70
     0
  3

  4

  5

  6

  7

 40
1.0
 41
2.5
 42
0.625
 43
3.75
 44
1.25
 45
0.0
 46
0.0
 47
0.0
 48
0.0
140
2.5
141
2.5
142
0.0
143
0.03937007874016
144
1.0
145
0.0
146
1.0
147
0.625
 71
     0
 72
     0
 73
     0
 74
     0
 75
     0
 76
     0
 77
     1
 78
     8
170
     0
171
     3
172
     1
173
     0
174
     0
175
     0
176
     0
177
     0
178
     0
270
     2
271
     2
272
     2
273
     2
274
     3
340
11
275
     0
280
     0
281
     0
282
     0
283
     0
284
     8
285
     0
286
     0
287
     3
288
     0
  0
ENDTAB
  0
TABLE
  2
BLOCK_RECORD
  5
1
330
0
100
AcDbSymbolTable
 70
     1
  0
BLOCK_RECORD
  5
1F
330
1
100
AcDbSymbolTableRecord
100
AcDbBlockTableRecord
  2
*MODEL_SPACE
  0
BLOCK_RECORD
  5
1B
330
1
100
AcDbSymbolTableRecord
100
AcDbBlockTableRecord
  2
*PAPER_SPACE
  0
ENDTAB
  0
ENDSEC
  0
SECTION
  2
BLOCKS
  0
BLOCK
  5
20
330
1F
100
AcDbEntity
  8
0
100
AcDbBlockBegin
  2
*MODEL_SPACE
 70
     0
 10
0.0
 20
0.0
 30
0.0
  3
*MODEL_SPACE
  1

  0
ENDBLK
  5
21
330
1F
100
AcDbEntity
  8
0
100
AcDbBlockEnd
  0
BLOCK
  5
1C
330
1B
100
AcDbEntity
 67
     1
  8
0
100
AcDbBlockBegin
  2
*PAPER_SPACE
  1

  0
ENDBLK
  5
1D
330
1B
100
AcDbEntity
 67
     1
  8
0
100
AcDbBlockEnd
  0
ENDSEC
  0
SECTION
  2
ENTITIES
  0
LWPOLYLINE
  5
100
100
AcDbEntity
  8
(R)
 62
7
100
AcDbPolyline
 90
100
 70
0
 10
27.656414
 20
49.266474
 30
0.0
 10
25.253834
 20
47.489221
 30
0.0
 10
23.950516
 20
49.115078
 30
0.0
 10
22.449726
 20
47.311498
 30
0.0
 10
20.343354
 20
48.983430
 30
0.0
 10
18.737246
 20
46.626925
 30
0.0
 10
17.565576
 20
47.996064
 30
0.0
 10
16.341248
 20
45.948937
 30
0.0
 10
14.050569
 20
46.870472
 30
0.0
 10
13.668789
 20
44.579793
 30
0.0
 10
11.516340
 20
45.369685
 30
0.0
 10
11.272791
 20
43.171156
 30
0.0
 10
8.982112
 20
43.368633
 30
0.0
 10
8.745145
 20
41.077951
 30
0.0
 10
6.698015
 20
41.459733
 30
0.0
 10
6.586114
 20
38.681952
 30
0.0
 10
4.104545
 20
38.635876
 30
0.0
 10
4.828609
 20
36.042407
 30
0.0
 10
2.932875
 20
35.950255
 30
0.0
 10
3.419973
 20
33.508178
 30
0.0
 10
1.662470
 20
32.922341
 30
0.0
 10
2.584007
 20
31.112179
 30
0.0
 10
1.267525
 20
30.736984
 30
0.0
 10
2.248304
 20
29.065052
 30
0.0
 10
0.490801
 20
28.538456
 30
0.0
 10
2.142986
 20
26.820446
 30
0.0
 10
-0.035793
 20
25.457888
 30
0.0
 10
2.011337
 20
24.003173
 30
0.0
 10
0.293328
 20
22.923659
 30
0.0
 10
2.057414
 20
21.850727
 30
0.0
 10
0.582954
 20
20.198541
 30
0.0
 10
2.340458
 20
19.283585
 30
0.0
 10
0.931822
 20
17.861784
 30
0.0
 10
3.222501
 20
17.526083
 30
0.0
 10
1.859942
 20
15.617183
 30
0.0
 10
4.058467
 20
15.037933
 30
0.0
 10
3.071106
 20
12.931565
 30
0.0
 10
5.315708
 20
12.688007
 30
0.0
 10
4.538984
 20
10.502647
 30
0.0
 10
7.027135
 20
10.107706
 30
0.0
 10
6.151675
 20
8.350195
 30
0.0
 10
9.074265
 20
8.060578
 30
0.0
 10
9.074265
 20
5.269626
 30
0.0
 10
11.318868
 20
6.151684
 30
0.0
 10
11.272791
 20
3.768853
 30
0.0
 10
14.294118
 20
4.348086
 30
0.0
 10
14.109810
 20
2.103488
 30
0.0
 10
16.841512
 20
2.788046
 30
0.0
 10
18.204071
 20
0.740919
 30
0.0
 10
20.205124
 20
1.813844
 30
0.0
 10
21.771738
 20
0.056361
 30
0.0
 10
24.009758
 20
1.458413
 30
0.0
 10
25.938404
 20
-0.035784
 30
0.0
 10
27.788062
 20
1.906017
 30
0.0
 10
29.795699
 20
0.497362
 30
0.0
 10
31.066102
 20
2.741988
 30
0.0
 10
33.659575
 20
1.129285
 30
0.0
 10
34.521868
 20
3.373912
 30
0.0
 10
36.917867
 20
2.347046
 30
0.0
 10
36.963945
 20
5.230144
 30
0.0
 10
39.557415
 20
4.209854
 30
0.0
 10
39.998436
 20
6.592684
 30
0.0
 10
41.999490
 20
6.592684
 30
0.0
 10
41.999490
 20
8.988694
 30
0.0
 10
44.000541
 20
9.186165
 30
0.0
 10
43.849146
 20
11.766467
 30
0.0
 10
46.337299
 20
12.200920
 30
0.0
 10
45.659311
 20
14.596902
 30
0.0
 10
47.614287
 20
14.735134
 30
0.0
 10
46.534770
 20
16.736191
 30
0.0
 10
48.627978
 20
17.328609
 30
0.0
 10
47.357572
 20
19.178266
 30
0.0
 10
49.115077
 20
19.770684
 30
0.0
 10
47.614287
 20
21.515023
 30
0.0
 10
49.266472
 20
22.772264
 30
0.0
 10
47.614287
 20
24.378371
 30
0.0
 10
49.312548
 20
25.655362
 30
0.0
 10
47.989484
 20
26.932349
 30
0.0
 10
49.753571
 20
28.051358
 30
0.0
 10
47.555046
 20
29.216444
 30
0.0
 10
49.312548
 20
30.875211
 30
0.0
 10
46.824398
 20
31.948147
 30
0.0
 10
48.338351
 20
33.705649
 30
0.0
 10
45.744881
 20
34.390221
 30
0.0
 10
46.383375
 20
36.345197
 30
0.0
 10
44.428399
 20
37.075845
 30
0.0
 10
45.369683
 20
39.169051
 30
0.0
 10
42.486588
 20
39.030824
 30
0.0
 10
42.624818
 20
41.762520
 30
0.0
 10
40.090590
 20
41.413657
 30
0.0
 10
40.195909
 20
43.901807
 30
0.0
 10
37.951306
 20
43.263313
 30
0.0
 10
37.510285
 20
45.751466
 30
0.0
 10
35.068211
 20
44.974740
 30
0.0
 10
34.870737
 20
46.936300
 30
0.0
 10
31.994224
 20
46.192484
 30
0.0
 10
31.112181
 20
48.588483
 30
0.0
 10
28.577952
 20
47.127187
 30
0.0
 10
27.656414
 20
49.266474
 30
0.0
 10
27.656414
 20
49.266474
 30
0.0
  0
LWPOLYLINE
  5
101
100
AcDbEntity
  8
(R)
 62
7
100
AcDbPolyline
 90
2
 70
0
 10
24.845724
 20
47.298332
 30
0.0
 10
24.845724
 20
47.298332
 30
0.0
  0
LWPOLYLINE
  5
102
100
AcDbEntity
  8
(R)
 62
7
100
AcDbPolyline
 90
9
 70
0
 10
36.389499
 20
22.144794
 30
0.0
 10
36.238753
 20
21.780854
 30
0.0
 10
35.874813
 20
21.630108
 30
0.0
 10
35.510879
 20
21.780854
 30
0.0
 10
35.360133
 20
22.144794
 30
0.0
 10
35.510879
 20
22.508728
 30
0.0
 10
35.874813
 20
22.659474
 30
0.0
 10
36.238753
 20
22.508728
 30
0.0
 10
36.389499
 20
22.144794
 30
0.0
  0
LWPOLYLINE
  5
103
100
AcDbEntity
  8
(R)
 62
7
100
AcDbPolyline
 90
9
 70
0
 10
36.084231
 20
19.613396
 30
0.0
 10
35.966922
 20
19.330186
 30
0.0
 10
35.683709
 20
19.212875
 30
0.0
 10
35.400502
 20
19.330186
 30
0.0
 10
35.283194
 20
19.613396
 30
0.0
 10
35.400502
 20
19.896606
 30
0.0
 10
35.683709
 20
20.013917
 30
0.0
 10
35.966922
 20
19.896606
 30
0.0
 10
36.084231
 20
19.613396
 30
0.0
  0
LWPOLYLINE
  5
104
100
AcDbEntity
  8
(R)
 62
7
100
AcDbPolyline
 90
9
 70
0
 10
38.130345
 20
23.200847
 30
0.0
 10
37.996207
 20
22.877014
 30
0.0
 10
37.672374
 20
22.742876
 30
0.0
 10
37.348541
 20
22.877014
 30
0.0
 10
37.214404
 20
23.200847
 30
0.0
 10
37.348541
 20
23.524677
 30
0.0
 10
37.672374
 20
23.658812
 30
0.0
 10
37.996207
 20
23.524677
 30
0.0
 10
38.130345
 20
23.200847
 30
0.0
  0
LWPOLYLINE
  5
105
100
AcDbEntity
  8
(R)
 62
7
100
AcDbPolyline
 90
9
 70
0
 10
36.613059
 20
25.318792
 30
0.0
 10
36.462312
 20
24.954855
 30
0.0
 10
36.098373
 20
24.804109
 30
0.0
 10
35.734439
 20
24.954855
 30
0.0
 10
35.583693
 20
25.318792
 30
0.0
 10
35.734439
 20
25.682726
 30
0.0
 10
36.098373
 20
25.833475
 30
0.0
 10
36.462312
 20
25.682726
 30
0.0
 10
36.613059
 20
25.318792
 30
0.0
  0
LWPOLYLINE
  5
106
100
AcDbEntity
  8
(R)
 62
7
100
AcDbPolyline
 90
9
 70
0
 10
39.120936
 20
25.893128
 30
0.0
 10
38.967170
 20
25.521902
 30
0.0
 10
38.595941
 20
25.368133
 30
0.0
 10
38.224711
 20
25.521902
 30
0.0
 10
38.070945
 20
25.893128
 30
0.0
 10
38.224711
 20
26.264355
 30
0.0
 10
38.595941
 20
26.418126
 30
0.0
 10
38.967170
 20
26.264355
 30
0.0
 10
39.120936
 20
25.893128
 30
0.0
  0
LWPOLYLINE
  5
107
100
AcDbEntity
  8
(R)
 62
7
100
AcDbPolyline
 90
33
 70
0
 10
20.433707
 20
46.126613
 30
0.0
 10
16.319342
 20
44.843337
 30
0.0
 10
12.592201
 20
42.813962
 30
0.0
 10
9.341861
 20
40.128002
 30
0.0
 10
6.657890
 20
36.874982
 30
0.0
 10
4.629869
 20
33.144416
 30
0.0
 10
3.347369
 20
29.025837
 30
0.0
 10
2.899963
 20
24.608757
 30
0.0
 10
3.347369
 20
20.196741
 30
0.0
 10
4.629869
 20
16.082375
 30
0.0
 10
6.657890
 20
12.355239
 30
0.0
 10
9.341861
 20
9.104885
 30
0.0
 10
12.592201
 20
6.420924
 30
0.0
 10
16.319342
 20
4.392903
 30
0.0
 10
20.433707
 20
3.110401
 30
0.0
 10
24.845724
 20
2.662994
 30
0.0
 10
29.262804
 20
3.110401
 30
0.0
 10
33.381386
 20
4.392903
 30
0.0
 10
37.111946
 20
6.420924
 30
0.0
 10
40.364969
 20
9.104885
 30
0.0
 10
43.050926
 20
12.355239
 30
0.0
 10
45.080304
 20
16.082375
 30
0.0
 10
46.363580
 20
20.196741
 30
0.0
 10
46.811232
 20
24.608757
 30
0.0
 10
46.363580
 20
29.025837
 30
0.0
 10
45.080304
 20
33.144416
 30
0.0
 10
43.050926
 20
36.874982
 30
0.0
 10
40.364969
 20
40.128002
 30
0.0
 10
37.111946
 20
42.813962
 30
0.0
 10
33.381386
 20
44.843337
 30
0.0
 10
29.262804
 20
46.126613
 30
0.0
 10
24.845724
 20
46.574265
 30
0.0
 10
20.433707
 20
46.126613
 30
0.0
  0
SPLINE
  5
108
100
AcDbEntity
  8
(R)
 62
7
100
AcDbSpline
 70
8
 71
3
 72
8
 73
4
 74
0
 40
0
 40
0
 40
0
 40
0
 40
1
 40
1
 40
1
 40
1
 10
21.376793
 20
29.413929
 30
0.0
 10
21.305164
 20
29.227070
 30
0.0
 10
21.172525
 20
29.009900
 30
0.0
 10
21.086329
 20
28.848432
 30
0.0
  0
LWPOLYLINE
  5
109
100
AcDbEntity
  8
(R)
 62
7
100
AcDbPolyline
 90
45
 70
0
 10
18.401543
 20
33.646408
 30
0.0
 10
13.410952
 20
32.692942
 30
0.0
 10
8.712233
 20
31.540036
 30
0.0
 10
7.728515
 20
31.154834
 30
0.0
 10
7.309543
 20
30.760446
 30
0.0
 10
7.470141
 20
30.392177
 30
0.0
 10
8.225134
 20
30.085325
 30
0.0
 10
10.588376
 20
29.638195
 30
0.0
 10
12.955672
 20
29.403425
 30
0.0
 10
17.493170
 20
29.176950
 30
0.0
 10
17.631401
 20
28.143512
 30
0.0
 10
16.941394
 20
27.446022
 30
0.0
 10
16.657437
 20
26.584107
 30
0.0
 10
16.784766
 20
25.725169
 30
0.0
 10
17.328609
 20
25.036615
 30
0.0
 10
17.807725
 20
24.861970
 30
0.0
 10
18.326278
 20
25.022001
 30
0.0
 10
18.823224
 20
25.585929
 30
0.0
 10
19.237509
 20
26.622975
 30
0.0
 10
19.865385
 20
25.431088
 30
0.0
 10
19.902333
 20
24.062418
 30
0.0
 10
19.573212
 20
23.410758
 30
0.0
 10
18.599015
 20
23.338351
 30
0.0
 10
17.705052
 20
23.614398
 30
0.0
 10
16.913917
 20
23.338351
 30
0.0
 10
15.235403
 20
21.850727
 30
0.0
 10
12.121922
 20
19.981323
 30
0.0
 10
6.717762
 20
14.201960
 30
0.0
 10
6.089357
 20
15.374839
 30
0.0
 10
5.535133
 20
16.590370
 30
0.0
 10
5.058052
 20
17.845511
 30
0.0
 10
4.661074
 20
19.137219
 30
0.0
 10
4.347159
 20
20.462445
 30
0.0
 10
4.119268
 20
21.818138
 30
0.0
 10
3.980361
 20
23.201262
 30
0.0
 10
3.933402
 20
24.608757
 30
0.0
 10
4.229674
 20
28.124208
 30
0.0
 10
5.085777
 20
31.453270
 30
0.0
 10
6.452639
 20
34.546965
 30
0.0
 10
8.281193
 20
37.356315
 30
0.0
 10
10.522369
 20
39.832341
 30
0.0
 10
13.127095
 20
41.926063
 30
0.0
 10
16.046306
 20
43.588504
 30
0.0
 10
19.230927
 20
44.770685
 30
0.0
 10
18.401543
 20
33.646408
 30
0.0
  0
LWPOLYLINE
  5
10a
100
AcDbEntity
  8
(R)
 62
7
100
AcDbPolyline
 90
2
 70
0
 10
20.912223
 20
29.809831
 30
0.0
 10
21.376793
 20
29.413929
 30
0.0
  0
LWPOLYLINE
  5
10b
100
AcDbEntity
  8
(R)
 62
7
100
AcDbPolyline
 90
10
 70
0
 10
21.086329
 20
28.848432
 30
0.0
 10
21.041090
 20
28.084282
 30
0.0
 10
20.693181
 20
27.647560
 30
0.0
 10
20.251201
 20
27.709084
 30
0.0
 10
19.682579
 20
28.108127
 30
0.0
 10
19.355992
 20
28.630622
 30
0.0
 10
19.185149
 20
29.433471
 30
0.0
 10
19.573212
 20
29.947104
 30
0.0
 10
20.389431
 20
30.052423
 30
0.0
 10
20.912223
 20
29.809831
 30
0.0
  0
LWPOLYLINE
  5
10c
100
AcDbEntity
  8
(R)
 62
7
100
AcDbPolyline
 90
7
 70
0
 10
30.286102
 20
28.108310
 30
0.0
 10
30.295952
 20
27.261469
 30
0.0
 10
29.729272
 20
26.434126
 30
0.0
 10
29.005801
 20
26.504492
 30
0.0
 10
28.788580
 20
27.840721
 30
0.0
 10
29.901013
 20
28.854413
 30
0.0
 10
30.286102
 20
28.108310
 30
0.0
  0
LWPOLYLINE
  5
10d
100
AcDbEntity
  8
(R)
 62
7
100
AcDbPolyline
 90
9
 70
0
 10
17.749887
 20
27.630085
 30
0.0
 10
18.796488
 20
26.840195
 30
0.0
 10
18.246255
 20
25.583166
 30
0.0
 10
17.867584
 20
25.332903
 30
0.0
 10
17.480005
 20
25.431559
 30
0.0
 10
17.142699
 20
25.937505
 30
0.0
 10
17.124290
 20
26.552888
 30
0.0
 10
17.749887
 20
27.630085
 30
0.0
 10
17.749887
 20
27.630085
 30
0.0
  0
LWPOLYLINE
  5
10e
100
AcDbEntity
  8
(R)
 62
7
100
AcDbPolyline
 90
24
 70
0
 10
38.166173
 20
18.113170
 30
0.0
 10
37.841293
 20
17.085060
 30
0.0
 10
36.417603
 20
15.933139
 30
0.0
 10
36.055574
 20
14.886535
 30
0.0
 10
36.746728
 20
13.721448
 30
0.0
 10
36.471499
 20
12.930972
 30
0.0
 10
36.063388
 20
12.568937
 30
0.0
 10
32.264088
 20
11.325438
 30
0.0
 10
31.465506
 20
10.927025
 30
0.0
 10
31.006844
 20
10.292025
 30
0.0
 10
30.105054
 20
8.883369
 30
0.0
 10
29.486485
 20
8.490742
 30
0.0
 10
29.124275
 20
9.094020
 30
0.0
 10
28.959717
 20
13.247512
 30
0.0
 10
30.776460
 20
15.722503
 30
0.0
 10
33.152565
 20
17.655812
 30
0.0
 10
33.277776
 20
16.907336
 30
0.0
 10
33.402843
 20
16.571633
 30
0.0
 10
35.778573
 20
17.143491
 30
0.0
 10
36.933307
 20
17.859495
 30
0.0
 10
38.269537
 20
19.393195
 30
0.0
 10
38.709936
 20
19.655515
 30
0.0
 10
38.823087
 20
19.289427
 30
0.0
 10
38.166173
 20
18.113170
 30
0.0
  0
LWPOLYLINE
  5
10f
100
AcDbEntity
  8
(R)
 62
7
100
AcDbPolyline
 90
111
 70
0
 10
23.284724
 20
26.652597
 30
0.0
 10
23.726708
 20
27.748567
 30
0.0
 10
23.134291
 20
27.630085
 30
0.0
 10
22.739346
 20
28.202756
 30
0.0
 10
23.015807
 20
30.342037
 30
0.0
 10
23.185078
 20
30.742581
 30
0.0
 10
23.466436
 20
30.881657
 30
0.0
 10
23.779194
 20
30.800293
 30
0.0
 10
24.042663
 20
30.539511
 30
0.0
 10
24.604425
 20
30.038705
 30
0.0
 10
25.384913
 20
29.873060
 30
0.0
 10
26.302270
 20
30.020899
 30
0.0
 10
27.274628
 20
30.460522
 30
0.0
 10
27.552590
 20
30.557045
 30
0.0
 10
27.799176
 20
30.525628
 30
0.0
 10
28.003999
 20
30.402416
 30
0.0
 10
28.156671
 20
30.223554
 30
0.0
 10
28.384957
 20
29.846079
 30
0.0
 10
28.557347
 20
29.441452
 30
0.0
 10
28.593576
 20
29.013182
 30
0.0
 10
28.413385
 20
28.564788
 30
0.0
 10
28.205421
 20
28.167735
 30
0.0
 10
28.114994
 20
27.746710
 30
0.0
 10
28.147432
 20
27.303576
 30
0.0
 10
28.308066
 20
26.840195
 30
0.0
 10
28.764605
 20
26.135204
 30
0.0
 10
29.262660
 20
25.758776
 30
0.0
 10
29.760647
 20
25.676221
 30
0.0
 10
30.216966
 20
25.852833
 30
0.0
 10
30.664142
 20
26.380244
 30
0.0
 10
30.906181
 20
27.187642
 30
0.0
 10
30.861209
 20
28.208031
 30
0.0
 10
30.447350
 20
29.374424
 30
0.0
 10
33.251987
 20
30.094929
 30
0.0
 10
35.605683
 20
30.889921
 30
0.0
 10
37.718616
 20
31.901363
 30
0.0
 10
39.800956
 20
33.271213
 30
0.0
 10
40.160665
 20
33.598136
 30
0.0
 10
40.396976
 20
33.964399
 30
0.0
 10
40.322113
 20
34.252299
 30
0.0
 10
39.748299
 20
34.344146
 30
0.0
 10
36.766466
 20
34.015024
 30
0.0
 10
33.386423
 20
33.367885
 30
0.0
 10
30.374943
 20
32.533981
 30
0.0
 10
26.161015
 20
31.477860
 30
0.0
 10
22.483630
 20
31.071581
 30
0.0
 10
18.833722
 20
31.144731
 30
0.0
 10
14.702221
 20
31.526874
 30
0.0
 10
18.599009
 20
32.876266
 30
0.0
 10
22.994190
 20
32.898476
 30
0.0
 10
26.651788
 20
33.279321
 30
0.0
 10
30.021807
 20
33.944098
 30
0.0
 10
33.554249
 20
34.818084
 30
0.0
 10
29.354670
 20
34.679852
 30
0.0
 10
26.570315
 20
45.475007
 30
0.0
 10
30.475919
 20
44.775068
 30
0.0
 10
34.097612
 20
43.383455
 30
0.0
 10
37.362398
 20
41.373384
 30
0.0
 10
40.197281
 20
38.818071
 30
0.0
 10
42.529258
 20
35.790732
 30
0.0
 10
44.285335
 20
32.364591
 30
0.0
 10
45.392512
 20
28.612859
 30
0.0
 10
45.777793
 20
24.608757
 30
0.0
 10
45.611951
 20
21.975088
 30
0.0
 10
45.127974
 20
19.437840
 30
0.0
 10
44.346170
 20
17.017316
 30
0.0
 10
43.286863
 20
14.733808
 30
0.0
 10
41.970367
 20
12.607630
 30
0.0
 10
40.416996
 20
10.659055
 30
0.0
 10
38.647071
 20
8.908430
 30
0.0
 10
36.680899
 20
7.375992
 30
0.0
 10
35.673792
 20
9.034781
 30
0.0
 10
35.417077
 20
9.475782
 30
0.0
 10
34.673266
 20
11.417612
 30
0.0
 10
36.766472
 20
12.279914
 30
0.0
 10
37.207495
 20
13.313327
 30
0.0
 10
37.530032
 20
14.596902
 30
0.0
 10
37.727503
 20
14.873372
 30
0.0
 10
37.778363
 20
16.216877
 30
0.0
 10
38.520613
 20
17.101892
 30
0.0
 10
38.602960
 20
17.690644
 30
0.0
 10
38.859672
 20
18.434455
 30
0.0
 10
39.447859
 20
19.421310
 30
0.0
 10
39.228288
 20
20.224870
 30
0.0
 10
40.241979
 20
24.575845
 30
0.0
 10
39.749050
 20
24.720574
 30
0.0
 10
38.715611
 20
20.303776
 30
0.0
 10
38.102695
 20
19.849675
 30
0.0
 10
37.451036
 20
19.072949
 30
0.0
 10
36.766466
 20
18.315972
 30
0.0
 10
35.673786
 20
17.558993
 30
0.0
 10
33.975523
 20
17.058732
 30
0.0
 10
34.646929
 20
24.727240
 30
0.0
 10
34.239824
 20
24.760153
 30
0.0
 10
33.469682
 20
18.954466
 30
0.0
 10
30.835713
 20
16.295171
 30
0.0
 10
30.216966
 20
17.164049
 30
0.0
 10
28.173608
 20
19.810782
 30
0.0
 10
25.971311
 20
21.923134
 30
0.0
 10
27.811158
 20
26.338768
 30
0.0
 10
27.178084
 20
26.273976
 30
0.0
 10
25.530289
 20
22.759098
 30
0.0
 10
25.471047
 20
21.396541
 30
0.0
 10
25.313267
 20
20.940820
 30
0.0
 10
24.989985
 20
20.758865
 30
0.0
 10
24.645585
 20
20.852961
 30
0.0
 10
24.424443
 20
21.225398
 30
0.0
 10
24.042663
 20
22.956572
 30
0.0
 10
21.916545
 20
24.391537
 30
0.0
 10
22.041610
 20
25.385481
 30
0.0
 10
23.284724
 20
26.652597
 30
0.0
  0
LWPOLYLINE
  5
110
100
AcDbEntity
  8
(R)
 62
7
100
AcDbPolyline
 90
9
 70
0
 10
37.608981
 20
20.484686
 30
0.0
 10
37.491673
 20
20.201474
 30
0.0
 10
37.208463
 20
20.084165
 30
0.0
 10
36.925256
 20
20.201474
 30
0.0
 10
36.807947
 20
20.484686
 30
0.0
 10
36.925256
 20
20.767896
 30
0.0
 10
37.208463
 20
20.885205
 30
0.0
 10
37.491673
 20
20.767896
 30
0.0
 10
37.608981
 20
20.484686
 30
0.0
  0
LWPOLYLINE
  5
111
100
AcDbEntity
  8
(R)
 62
7
100
AcDbPolyline
 90
33
 70
0
 10
20.276307
 20
46.892203
 30
0.0
 10
16.015489
 20
45.563247
 30
0.0
 10
12.155678
 20
43.461637
 30
0.0
 10
8.789640
 20
40.680068
 30
0.0
 10
6.010132
 20
37.311255
 30
0.0
 10
3.909922
 20
33.447895
 30
0.0
 10
2.581771
 20
29.182713
 30
0.0
 10
2.118439
 20
24.608405
 30
0.0
 10
2.581771
 20
20.039343
 30
0.0
 10
3.909922
 20
15.778521
 30
0.0
 10
6.010132
 20
11.918726
 30
0.0
 10
8.789640
 20
8.552661
 30
0.0
 10
12.155678
 20
5.773167
 30
0.0
 10
16.015489
 20
3.672954
 30
0.0
 10
20.276307
 20
2.344816
 30
0.0
 10
24.845373
 20
1.881464
 30
0.0
 10
29.419680
 20
2.344816
 30
0.0
 10
33.684868
 20
3.672954
 30
0.0
 10
37.548219
 20
5.773167
 30
0.0
 10
40.917035
 20
8.552661
 30
0.0
 10
43.698600
 20
11.918726
 30
0.0
 10
45.800213
 20
15.778521
 30
0.0
 10
47.129169
 20
20.039343
 30
0.0
 10
47.592756
 20
24.608405
 30
0.0
 10
47.129169
 20
29.182713
 30
0.0
 10
45.800213
 20
33.447895
 30
0.0
 10
43.698600
 20
37.311255
 30
0.0
 10
40.917035
 20
40.680068
 30
0.0
 10
37.548219
 20
43.461637
 30
0.0
 10
33.684868
 20
45.563247
 30
0.0
 10
29.419680
 20
46.892203
 30
0.0
 10
24.845373
 20
47.355790
 30
0.0
 10
20.276307
 20
46.892203
 30
0.0
  0
ENDSEC
  0
SECTION
  2
OBJECTS
  0
DICTIONARY
  5
C
330
0
100
AcDbDictionary
  3
ACAD_GROUP
350
D
  3
ACAD_MLINESTYLE
350
17
  0
DICTIONARY
  5
D
330
C
100
AcDbDictionary
  0
DICTIONARY
  5
1A
330
C
100
AcDbDictionary
  0
DICTIONARY
  5
17
330
C
100
AcDbDictionary
  3
STANDARD
350
18
  0
DICTIONARY
  5
19
330
C
100
AcDbDictionary
  0
ENDSEC
  0
EOF
